Oops, an error
Loading. Please wait.

Kirisute Gomen Tab

ver2
ver2

Intro

Whole song

More versions @911Tabs.com
21,085 views 3 this week
11 commentsread comments
1 2 3 4 5
accurate
x 10
Autoscroll
+/-
esc
set tempo
stop
Contributor
WARNING: You are trying to view
                                    content from Ultimate-Guitar.com
                                    in an unauthorized application,
                                    which is prohibited.

                                    Please use an official Ultimate
                                    Guitar Tabs application for iPhone,
                                    iPad or Android to access legitimate
                                    chords, guitar, bass, and drum tabs
                                    from Ultimate-Guitar.com database.

                                    Type "ultimate guitar tabs" in Apple
                                    App Store's or Android Market's
                                    search to find the application.
#----------------------------------PLEASE NOTE---------------------------------#
#This file is the author's own work and represents their interpretation of the #
#song. You may only use this file for private study, scholarship, or research. #
#------------------------------------------------------------------------------##

                                 KIRISUTE GOMEN
                             As recorded by Trivium
                          (From the 2008 Album SHOGUN)

Music by Trivium
Transcribed by Lukige

Gtr I (B E A D G B E) - 'Corey'
Gtr II (B E A D G B E) - 'Matt'
Gtr III (B E A D G B E) - 'Harmony'
Gtr IV (E A D G B E) - 'Matt Acoustic'
Gtr V (E A D G B E) - 'Corey Acoustic'

 Acoustic Intro
  Q=120
 4/4
  Gtr IV
   Q.    Q.   Q    W                  Q.      Q.      Q     Q.     H       E
|----------------|-----------------|----------------------|-------------------|
|----------------|-----------------|----------------------|-------------------|
|-12----11----9--|-5---------------|-16------14------12---|-9------8----------|
|----------------|-----------------|----------------------|-------------------|
|-10-----9----7--|-3---------------|-14------12------10---|-7------6----------|
|----------------|-----------------|----------------------|-------------------|
|
| Gtr V
|                  <                                        <
|  W               E E E E E E E E    E  E E  E  E E  E E   E  E E E E E E E
|----------------|-----------------|----------------------|-------------------|
|----------------|-----------------|----------------------|-------------------|
|----------------|-----------------|----------------------|-------------------|
|----------------|-----------------|----------------------|-------------------|
|----------------|-----------------|----------------------|-------------------|
|--0-------------|-0-0-0-0-0-0-0-0-|--0--0-0--0--0-0--0-0-|-0--0-0-0-0-0-0-0--|


   Q.      Q.     Q      H.            Q
|---------------------|--------------------|
|---------------------|--------------------|
|-12------11------9---|-17------------17---|
|---------------------|--------------------|
|-10-------9------7---|-15------------15---|
|---------------------|--------------------|
|
|  E  E E  E  E E E E    E  E E E E E  E E
|---------------------|--------------------|
|---------------------|--------------------|
|---------------------|--------------------|
|---------------------|--------------------|
|---------------------|--------------------|
|--0--0-0--0--0-0-0-0-|--0--0-0-0-0-0--0-0-|


   Q.      Q.      Q      H        H
|----------------------|-------------------|
|----------------------|-------------------|
|-16------17------16---|-16-------14-------|
|----------------------|-------------------|
|-14------15------14---|-14-------12-------|
|----------------------|-------------------|
|
|  E  E E  E  E E  E E    E E E E  E E E E
|----------------------|-------------------|
|----------------------|-------------------|
|----------------------|-------------------|
|----------------------|-------------------|
|----------------------|-------------------|
|--0--0-0--0--0-0--0-0-|--0-0-0-0--0-0-0-0-|


 Heavy Intro
  Gtr II
  W          W          Q.   E S  S E E  E   E E E E S S E  E E
|----------|----------|--------------------|--------------------|
|----------|----------|--------------------|--------------------|
|----------|----------|--------------------|---8-8-8-8h9p8------|
|----------|----------|------9-9h10p9-7----|---------------10-9-|
|----------|----------|-----------------10-|-9------------------|
|----------|----------|--------------------|--------------------|
|----------|----------|--------------------|--------------------|
|
| Gtr I
| W          W          W                    W
|----------|----------|--------------------|--------------------|
|----------|----------|--------------------|--------------------|
|----------|----------|--------------------|--------------------|
|----------|----------|--------------------|--------------------|
|----------|----------|-7------------------|-6------------------|
|----------|----------|-x------------------|-x------------------|
|----------|----------|-5------------------|-4------------------|


  Q.   H    +E      Q  E Q  Q   E   Q.   E S  S E E  E   E E E E S S E  E E
|---------------|-----------------|--------------------|--------------------|
|---------------|-----------------|--------------------|--------------------|
|---------------|-----------------|--------------------|---8-8-8-8h9p8------|
|---------------|-----------7---9-|-9----9-9h10p9-7----|---------------10-9-|
|-6----7----(7)-|-/10--7-9--------|-----------------10-|-9------------------|
|---------------|-----------------|--------------------|--------------------|
|---------------|-----------------|--------------------|--------------------|
|
| Q.   H    +E      Q  E Q  Q   E   W                    W
|---------------|-----------------|--------------------|--------------------|
|---------------|-----------------|--------------------|--------------------|
|---------------|-----------------|--------------------|--------------------|
|---------------|-----------------|--------------------|--------------------|
|-2----3----(3)-|--/7--3-6--9--10-|-7------------------|-6------------------|
|-x----x----(x)-|---x--x-x--x---x-|-x------------------|-x------------------|
|-0----1----(1)-|--/5--1-4--7---8-|-5------------------|-4------------------|


  Q.   H    +E      Q  E Q  Q   E
|---------------|-----------------|
|---------------|-----------------|
|---------------|-----------------|
|---------------|-----------7---9-|
|-6----7----(7)-|-/10--7-9--------|
|---------------|-----------------|
|---------------|-----------------|
|
| Gtr III
| W                 W
|---------------|-----------------|
|---------------|-----------------|
|---------------|-----------------|
|---------------|-----------------|
|---------------|-----------------|
|---------------|-----------------|
|---------------|-----------------|
|
| Gtr II
| Q.   H    +E      Q  E Q  Q   E
|---------------|-----------------|
|---------------|-----------------|
|---------------|-----------------|
|---------------|-----------------|
|-2----3----(3)-|--/7--3-6--9--10-|
|-x----x----(x)-|---x--x-x--x---x-|
|-0----1----(1)-|--/5--1-4--7---8-|


     Q.    E  S  S  E  E  E    E  E  E  E  S  S  E  E  E
||--------------------------|----------------------------|
||--------------------------|----------------------------|
||o-------------------------|-----8--8--8--8h=9p=8-------|
||---9-----9--9h10p=9--7----|----------------------10--9-|
||o----------------------10-|--9-------------------------|
||--------------------------|----------------------------|
||--------------------------|----------------------------|
|
|    Q.    E  S  S  E  E  E    E  E  E  E  S  S  E  E  E
||--------------------------|----11-11-11-11h12p11-------|
||--12----12-12h13p12-10----|----------------------13-12-|
||o----------------------12-|-11-------------------------|
||--------------------------|----------------------------|
||o-------------------------|----------------------------|
||--------------------------|----------------------------|
||--------------------------|----------------------------|
|
|    W                         W
||--------------------------|----------------------------|
||--------------------------|----------------------------|
||o-------------------------|----------------------------|
||--------------------------|----------------------------|
||o--7----------------------|--6-------------------------|
||---x----------------------|--x-------------------------|
||---5----------------------|--4-------------------------|


                                                              He who walks the fire...
                    1.                    2.                 Q=200
  Q.    H     +E      Q  E  Q   Q   E       Q  E  Q   Q   E    W
|-----------------|--------------------||--------------------|------|
|-----------------|--------------------||--------------------|------|
|-----------------|-------------------o||--------------------|------|
|-----------------|-------------7---9--||-------------7---9\-|------|
|-6-----7-----(7)-|-/10--7--9---------o||-/10--7--9----------|------|
|-----------------|--------------------||--------------------|------|
|-----------------|--------------------||--------------------|------|
|
| Q.    H     +E      Q  E  Q   Q   E       Q  E  Q   Q   E    W
|-----------------|--------------------||--------------------|------|
|-----------------|--------------------||--------------------|------|
|-----------------|-------------------o||--------------------|------|
|-----------------|--------------------||--------------------|------|
|-2-----3-----(3)-|--/7--3--6---9--10-o||--/7--3--6---9--10\-|------|
|-x-----x-----(x)-|---x--x--x---x---x--||---x--x--x---x---x--|------|
|-0-----1-----(1)-|--/5--1--4---7---8--||--/5--1--4---7---8\-|------|
|
| Q.    H     +E      Q  E  Q   Q   E       Q  E  Q   Q   E    W
|-----------------|--------------------||--------------------|------|
|-----------------|------------10--12--||------------10--12\-|------|
|-----------------|-/12--9-11---------o||-/12--9-11----------|------|
|-9----10----(10)-|--------------------||--------------------|------|
|-----------------|-------------------o||--------------------|------|
|-----------------|--------------------||--------------------|------|
|-----------------|--------------------||--------------------|------|


   Pre-Verse
                                                            1.
    PM     PM       PM----------------------|      PM
    E Q  E E Q  E   E S S E E S S E S S E   E Q  E E Q  E   E E E E E E E E
||----------------|-----------------------|---------------|------------------||
||----------------|-----------------------|---------------|------------------||
||o---------------|-----------------------|---------------|-----------------o||
||----5--5---4--4-|-----------------------|---2--2---1--1-|------------------||
||o---7--7---6--6-|-----------------------|---3--3---2--2-|-----------------o||
||--0------0------|-0-0-0-0-0-0-0-0-0-0-0-|-0------0------|-3p0-3p0-2p0-2p0--||
||----------------|-----------------------|---------------|------------------||
|
|   PM     PM       PM----------------------|      PM
|   E Q  E E Q  E   E S S E E S S E S S E   E Q  E E Q  E   E E E E E E E E
||----------------|-----------------------|---------------|------------------||
||----------------|-----------------------|---------------|------------------||
||o---------------|-----------------------|---------------|-----------------o||
||----5--5---4--4-|-----------------------|---5--5---4--4-|------------------||
||o---7--7---6--6-|-----------------------|---7--7---6--6-|-----------------o||
||--0------0------|-0-0-0-0-0-0-0-0-0-0-0-|-0------0------|-3p0-3p0-2p0-2p0--||
||----------------|-----------------------|---------------|------------------||


  2.
   E E  E E  E E  E E    E E  E E  E E  E E
|---------------------|---------------------|
|---------------------|---------------------|
|---------------------|---------------------|
|---------------------|---------------------|
|--2p0--2p0-----------|--3p0--3p0-----------|
|------------3p0--3p0-|------------2p0--2p0-|
|---------------------|---------------------|
|
|  E E  E E  E E  E E    E E  E E  E E  E E
|---------------------|---------------------|
|---------------------|---------------------|
|---------------------|---------------------|
|---------------------|---------------------|
|-14p0-14p0-----------|-15p0-15p0-----------|
|-----------15p0-15p0-|-----------14p0-14p0-|
|---------------------|---------------------|


   Verse
                               1.
    Gtrs I, II
    TP   TP TP   TP TP TP TP   TP TP TP TP   TP TP TP  TP
    H    Q  Q    Q  Q  Q  Q    Q  Q  Q  Q    Q  Q  Q   Q
||-------------|-------------|-------------|----------------||
||-------------|-------------|-------------|----------------||
||o------------|-------------|-------------|---------------o||
||-------------|-------------|-------------|----------------||
||o------------|-------------|----0--2--3--|----2--3--/6---o||
||-------------|-2--3--2-----|-------------|----------------||
||--5----4--5--|----------5--|-0-----------|-1--------------||


  2.
  Gtr I
  TP            ~
  Q  Q  Q  Q    H    E  Q.
|-------------|--------------|
|-------------|--------------|
|-------------|--------------|
|----5--4s=2s=|=1------------|
|-------------|--------------|
|-------------|--------------|
|-0-----------|------0S12\---|
|
| Gtr II
| TP            ~
| Q  Q  Q  Q    H    E  Q.
|-------------|--------------|
|-------------|--------------|
|-------------|--------------|
|----9--7s=5s=|=4------------|
|-------------|--------------|
|-------------|--------------|
|-0-----------|------0S12\---|


   Pre-Verse
                                                            1.
    $
    PM     PM       PM----------------------|      PM
    E Q  E E Q  E   E S S E E S S E S S E   E Q  E E Q  E   E E E E E E E E
||----------------|-----------------------|---------------|------------------||
||----------------|-----------------------|---------------|------------------||
||o---------------|-----------------------|---------------|-----------------o||
||----5--5---4--4-|-----------------------|---2--2---1--1-|------------------||
||o---7--7---6--6-|-----------------------|---3--3---2--2-|-----------------o||
||--0------0------|-0-0-0-0-0-0-0-0-0-0-0-|-0------0------|-3p0-3p0-2p0-2p0--||
||----------------|-----------------------|---------------|------------------||
|
|   PM     PM       PM----------------------|      PM
|   E Q  E E Q  E   E S S E E S S E S S E   E Q  E E Q  E   E E E E E E E E
||----------------|-----------------------|---------------|------------------||
||----------------|-----------------------|---------------|------------------||
||o---------------|-----------------------|---------------|-----------------o||
||----5--5---4--4-|-----------------------|---5--5---4--4-|------------------||
||o---7--7---6--6-|-----------------------|---7--7---6--6-|-----------------o||
||--0------0------|-0-0-0-0-0-0-0-0-0-0-0-|-0------0------|-3p0-3p0-2p0-2p0--||
||----------------|-----------------------|---------------|------------------||


  2.
                                      D.S.
   E E  E E  E E  E E    E E  E E  E E  E E
|---------------------|---------------------|
|---------------------|---------------------|
|---------------------|---------------------|
|---------------------|---------------------|
|--2p0--2p0-----------|--3p0--3p0-----------|
|------------3p0--3p0-|------------2p0--2p0-|
|---------------------|---------------------|
|
|  E E  E E  E E  E E    E E  E E  E E  E E
|---------------------|---------------------|
|---------------------|---------------------|
|---------------------|---------------------|
|---------------------|---------------------|
|-14p0-14p0-----------|-15p0-15p0-----------|
|-----------15p0-15p0-|-----------14p0-14p0-|
|---------------------|---------------------|


   Verse
    Gtrs I, II
    TP   TP TP   TP TP TP TP   TP TP TP TP   TP TP TP  TP
    H    Q  Q    Q  Q  Q  Q    Q  Q  Q  Q    Q  Q  Q   Q
||-------------|-------------|-------------|---------------|
||-------------|-------------|-------------|---------------|
||o------------|-------------|-------------|---------------|
||-------------|-------------|-------------|---------------|
||o------------|-------------|----0--2--3--|----2--3--/6---|
||-------------|-2--3--2-----|-------------|---------------|
||--5----4--5--|----------5--|-0-----------|-1-------------|


  1.
  Gtr I
  TP   TP TP   TP TP TP TP   TP            ~
  H    Q  Q    Q  Q  Q  Q    Q  Q  Q  Q    H    E  Q.
|------------|-------------|-------------|---------------||
|------------|-------------|-------------|---------------||
|------------|-------------|-------------|--------------o||
|------------|-------------|----5--4s=2s=|=1-------------||
|------------|-------------|-------------|--------------o||
|------------|-2--3--2-----|-------------|---------------||
|-5----4--5--|----------5--|-0-----------|------0S12\----||
|
| Gtr II
| TP   TP TP   TP TP TP TP   TP            ~
| H    Q  Q    Q  Q  Q  Q    Q  Q  Q  Q    H    E  Q.
|------------|-------------|-------------|---------------||
|------------|-------------|-------------|---------------||
|------------|-------------|-------------|--------------o||
|------------|-------------|----9--7s=5s=|=4-------------||
|------------|-------------|-------------|--------------o||
|------------|-2--3--2-----|-------------|---------------||
|-5----4--5--|----------5--|-0-----------|------0S12\----||


 Pre-Chorus
  2.
  PM-------------------------------------------------------
  E   E E   E  E    E E   E   E   E  E    E  E    E E   E
|---------------------------|-----------------------------|
|---------------------------|-----------------------------|
|---------------------------|-----------------------------|
|---------------------------|-----------------------------|
|-7---7-9---9-10---10-6---6-|-9---9-10---10-10---10-6---6-|
|---------------------------|-----------------------------|
|---------------------------|-----------------------------|
|
| PM-------------------------------------------------------
| S S E S S E  S S  E S S E   S S E  S S  E  S S  E S S E
|---------------------------|-----------------------------|
|---------------------------|-----------------------------|
|---------------------------|-----------------------------|
|---------------------------|-----------------------------|
|---------------------------|-----------------------------|
|-0-0-0-0-0-0--0-0--0-0-0-0-|-2-2-2--2-2--2--2-2--2-2-2-2-|
|---------------------------|-----------------------------|


 ------------------------------------------------------|
   E    E E   E E   E E   E    E    E E   E E   E  E    E
|---------------------------|--------------------------------|
|---------------------------|--------------------------------|
|---------------------------|--------------------------------|
|---------------9---9-7---7-|-10---10-9---9-7---7------------|
|-10---10-7---7-------------|---------------------10---10----|
|---------------------------|--------------------------------|
|---------------------------|--------------------------------|
|
|------------------------------------------------------|
|  S S  E S S E S S E S S E    S S  E S S E S S E  S S  E
|---------------------------|--------------------------------|
|---------------------------|--------------------------------|
|---------------------------|--------------------------------|
|---------------------------|--------------------------------|
|---------------------------|--------------------------------|
|--3-3--3-3-3-3-3-3-3-3-3-3-|--5-5--5-3-3-3-2-2-2--0-0--0----|
|---------------------------|--------------------------------|


  PM----------------------------------------------------------------------|
  E E E E E E E E    E  E E E E E E E   E E E E E E E E   E E E E  E  E E E
|-----------------|-------------------|-----------------|-------------------|
|-----------------|-------------------|-----------------|-------------------|
|-----------------|-------------------|-----------------|-------------------|
|---------7-7-----|-----------9-9-----|-7-7-----9-9-7-7-|-9-9-7-7-----------|
|-9-9-------------|-10-10-------------|-----------------|---------10-10-6-6-|
|-----7-7-----7-7-|-------7-7-----7-7-|-----7-7---------|-------------------|
|-----------------|-------------------|-----------------|-------------------|
|
| TP      TP         TP       TP  TP    TP      TP  TP    TP  TP   TP   TP
| H       H          H        Q   Q     H       Q   Q     Q   Q    Q    Q
|-----------------|-------------------|-----------------|-------------------|
|-----------------|-------------------|-----------------|-------------------|
|-----------------|-------------------|-----------------|-------------------|
|-----------------|-------------------|-----------------|-------------------|
|-----------------|-------------------|-----------------|-------------------|
|-----------------|-------------------|-----------------|-------------------|
|-4-------7-------|--5--------8---7---|-7-------8---7---|-8---7----5----4---|


   Pre-Verse
                                                            1.
    PM     PM       PM----------------------|      PM
    E Q  E E Q  E   E S S E E S S E S S E   E Q  E E Q  E   E E E E E E E E
||----------------|-----------------------|---------------|------------------||
||----------------|-----------------------|---------------|------------------||
||o---------------|-----------------------|---------------|-----------------o||
||----5--5---4--4-|-----------------------|---2--2---1--1-|------------------||
||o---7--7---6--6-|-----------------------|---3--3---2--2-|-----------------o||
||--0------0------|-0-0-0-0-0-0-0-0-0-0-0-|-0------0------|-3p0-3p0-2p0-2p0--||
||----------------|-----------------------|---------------|------------------||
|
|   PM     PM       PM----------------------|      PM
|   E Q  E E Q  E   E S S E E S S E S S E   E Q  E E Q  E   E E E E E E E E
||----------------|-----------------------|---------------|------------------||
||----------------|-----------------------|---------------|------------------||
||o---------------|-----------------------|---------------|-----------------o||
||----5--5---4--4-|-----------------------|---5--5---4--4-|------------------||
||o---7--7---6--6-|-----------------------|---7--7---6--6-|-----------------o||
||--0------0------|-0-0-0-0-0-0-0-0-0-0-0-|-0------0------|-3p0-3p0-2p0-2p0--||
||----------------|-----------------------|---------------|------------------||


  2.
   E E  E E  E E  E E    E E  E E  E E  E E
|---------------------|---------------------|
|---------------------|---------------------|
|---------------------|---------------------|
|---------------------|---------------------|
|--2p0--2p0-----------|--3p0--3p0-----------|
|------------3p0--3p0-|------------2p0--2p0-|
|---------------------|---------------------|
|
|  E E  E E  E E  E E    E E  E E  E E  E E
|---------------------|---------------------|
|---------------------|---------------------|
|---------------------|---------------------|
|---------------------|---------------------|
|-14p0-14p0-----------|-15p0-15p0-----------|
|-----------15p0-15p0-|-----------14p0-14p0-|
|---------------------|---------------------|


   Verse
    Gtrs I, II
    TP   TP TP   TP TP TP TP   TP TP TP TP   TP TP TP  TP
    H    Q  Q    Q  Q  Q  Q    Q  Q  Q  Q    Q  Q  Q   Q
||-------------|-------------|-------------|---------------|
||-------------|-------------|-------------|---------------|
||o------------|-------------|-------------|---------------|
||-------------|-------------|-------------|---------------|
||o------------|-------------|----0--2--3--|----2--3--/6---|
||-------------|-2--3--2-----|-------------|---------------|
||--5----4--5--|----------5--|-0-----------|-1-------------|


  1.
  Gtr I
  TP   TP TP   TP TP TP TP   TP            ~
  H    Q  Q    Q  Q  Q  Q    Q  Q  Q  Q    H    E  Q.
|------------|-------------|-------------|---------------||
|------------|-------------|-------------|---------------||
|------------|-------------|-------------|--------------o||
|------------|-------------|----5--4s=2s=|=1-------------||
|------------|-------------|-------------|--------------o||
|------------|-2--3--2-----|-------------|---------------||
|-5----4--5--|----------5--|-0-----------|------0S12\----||
|
| Gtr II
| TP   TP TP   TP TP TP TP   TP            ~
| H    Q  Q    Q  Q  Q  Q    Q  Q  Q  Q    H    E  Q.
|------------|-------------|-------------|---------------||
|------------|-------------|-------------|---------------||
|------------|-------------|-------------|--------------o||
|------------|-------------|----9--7s=5s=|=4-------------||
|------------|-------------|-------------|--------------o||
|------------|-2--3--2-----|-------------|---------------||
|-5----4--5--|----------5--|-0-----------|------0S12\----||


 Pre-Chorus
  2.
  PM-----------------------------------------------------------
  E   E  E    E  E    E E   E    E    E  E    E  E    E E   E
|-----------------------------|-------------------------------|
|-----------------------------|-------------------------------|
|-----------------------------|-------------------------------|
|-----------------------------|-------------------------------|
|-7---7--9----9-10---10-6---6-|--9----9-10---10-10---10-6---6-|
|-----------------------------|-------------------------------|
|-----------------------------|-------------------------------|
|
| Gtr III
| PM-----------------------------------------------------------
| E   E  E    E  E    E E   E    E    E  E    E  E    E E   E
|-----------------------------|-------------------------------|
|-----------------------------|-------------------------------|
|-9---9-11---11-12---12-8---8-|-11---11-12---12-12---12-8---8-|
|-----------------------------|-------------------------------|
|-----------------------------|-------------------------------|
|-----------------------------|-------------------------------|
|-----------------------------|-------------------------------|
|
| Gtr II
| PM-----------------------------------------------------------
| S S E  S S  E  S S  E S S E    S S  E  S S  E  S S  E S S E
|-----------------------------|-------------------------------|
|-----------------------------|-------------------------------|
|-----------------------------|-------------------------------|
|-----------------------------|-------------------------------|
|-----------------------------|-------------------------------|
|-0-0-0--0-0--0--0-0--0-0-0-0-|--2-2--2--2-2--2--2-2--2-2-2-2-|
|-----------------------------|-------------------------------|


 --------------------------------------------------------------|
   E    E E   E  E    E  E    E    E    E  E    E  E    E  E    E
|-------------------------------|------------------------------------|
|-------------------------------|------------------------------------|
|-------------------------------|------------------------------------|
|----------------9----9--7----7-|-10---10--9----9--7----7------------|
|-10---10-7---7-----------------|-------------------------10---10----|
|-------------------------------|------------------------------------|
|-------------------------------|------------------------------------|
|
|--------------------------------------------------------------|
|  E    E E   E  E    E  E    E    E    E  E    E  E    E  E    E
|-------------------------------|------------------------------------|
|---------------12---12-10---10-|-13---13-12---12-10---10------------|
|-12---12-9---9-----------------|-------------------------12---12----|
|-------------------------------|------------------------------------|
|-------------------------------|------------------------------------|
|-------------------------------|------------------------------------|
|-------------------------------|------------------------------------|
|
|--------------------------------------------------------------|
|  S S  E S S E  S S  E  S S  E    S S  E  S S  E  S S  E  S S  E
|-------------------------------|------------------------------------|
|-------------------------------|------------------------------------|
|-------------------------------|------------------------------------|
|-------------------------------|------------------------------------|
|-------------------------------|------------------------------------|
|--3-3--3-3-3-3--3-3--3--3-3--3-|--5-5--5--3-3--3--2-2--2--0-0--0----|
|-------------------------------|------------------------------------|


   PM----------------------------------------
   E  E E E  E  E E E    E  E E E  E  E E E
|---------------------|---------------------|
|---------------------|---------------------|
|---------------------|---------------------|
|------------7--7-----|------------9--9-----|
|--9--9---------------|-10-10---------------|
|-------7-7-------7-7-|-------7-7-------7-7-|
|---------------------|---------------------|
|
|  PM----------------------------------------
|  E  E E E  E  E E E    E  E E E  E  E E E
|---------------------|---------------------|
|-----------10-10-----|-----------12-12-----|
|-11-11---------------|-12-12---------------|
|-------9-9-------9-9-|-------9-9-------9-9-|
|---------------------|---------------------|
|---------------------|---------------------|
|---------------------|---------------------|
|
|  TP        TP          TP        TP   TP
|  H         H           H         Q    Q
|---------------------|---------------------|
|---------------------|---------------------|
|---------------------|---------------------|
|---------------------|---------------------|
|---------------------|---------------------|
|---------------------|---------------------|
|--4---------7--------|--5---------8----7---|


 ---------------------------------------------|
   E  E E E  E  E  E  E    E  E  E  E  E  E E E
|-----------------------|-----------------------|
|-----------------------|-----------------------|
|-----------------------|-----------------------|
|--7--7------9--9--7--7-|--9--9--7--7-----------|
|-----------------------|-------------10-10-6-6-|
|-------7-7-------------|-----------------------|
|-----------------------|-----------------------|
|
|---------------------------------------------|
|  E  E E E  E  E  E  E    E  E  E  E  E  E E E
|-----------------------|-----------------------|
|-10-10-----12-12-10-10-|-12-12-10-10-----------|
|-----------------------|-------------12-12-8-8-|
|-------9-9-------------|-----------------------|
|-----------------------|-----------------------|
|-----------------------|-----------------------|
|-----------------------|-----------------------|
|
|  TP        TP    TP      TP    TP    TP   TP
|  H         Q     Q       Q     Q     Q    Q
|-----------------------|-----------------------|
|-----------------------|-----------------------|
|-----------------------|-----------------------|
|-----------------------|-----------------------|
|-----------------------|-----------------------|
|-----------------------|-----------------------|
|--7---------8-----7----|--8-----7-----5----4---|


  TP       TP       TP      TP         TP       TP       TP      TP
  Q        Q        Q       Q          Q        Q        Q       Q
|-----------------------------------|------------------------------------|
|-----------------------------------|------------------------------------|
|-----------------------------------|------------------------------------|
|-----------------------------------|------------------------------------|
|-7--------9-------10-------6-------|--9-------10-------10-------6-------|
|-----------------------------------|------------------------------------|
|-----------------------------------|------------------------------------|
|
| TP       TP       TP      TP         TP       TP       TP      TP
| Q        Q        Q       Q          Q        Q        Q       Q
|-----------------------------------|------------------------------------|
|-----------------------------------|------------------------------------|
|-9-------11-------12-------8-------|-11-------12-------12-------8-------|
|-----------------------------------|------------------------------------|
|-----------------------------------|------------------------------------|
|-----------------------------------|------------------------------------|
|-----------------------------------|------------------------------------|
|
| PM----------------------------------------------------------------------
| S S S S  S S S S  S S S S S S S S    S S S S  S S S S  S S S S S S S S
|-----------------------------------|------------------------------------|
|-----------------------------------|------------------------------------|
|-----------------------------------|------------------------------------|
|-----------------------------------|------------------------------------|
|-----------------------------------|------------------------------------|
|-0-0-0-0--0-0-0-0--0-0-0-0-0-0-0-0-|--2-2-2-2--2-2-2-2--2-2-2-2-2-2-2-2-|
|-----------------------------------|------------------------------------|


   TP      TP       TP       TP         TP       TP       TP       TP
   Q       Q        Q        Q          Q        Q        Q        Q
|------------------------------------|----------------------------------------|
|------------------------------------|----------------------------------------|
|------------------------------------|----------------------------------------|
|-------------------9--------7-------|-10--------9--------7-------------------|
|-10-------7-------------------------|----------------------------10----------|
|------------------------------------|----------------------------------------|
|------------------------------------|----------------------------------------|
|
|  TP      TP       TP       TP         TP       TP       TP       TP
|  Q       Q        Q        Q          Q        Q        Q        Q
|------------------------------------|----------------------------------------|
|------------------12-------10-------|-13-------12-------10-------------------|
|-12-------9-------------------------|----------------------------12----------|
|------------------------------------|----------------------------------------|
|------------------------------------|----------------------------------------|
|------------------------------------|----------------------------------------|
|------------------------------------|----------------------------------------|
|
|------------------------------------------------------------------------|
|  S S S S S S S S  S S S S  S S S S    S S S S  S S S S  S S S S  S S S S
|------------------------------------|----------------------------------------|
|------------------------------------|----------------------------------------|
|------------------------------------|----------------------------------------|
|------------------------------------|----------------------------------------|
|------------------------------------|----------------------------------------|
|--3-3-3-3-3-3-3-3--3-3-3-3--3-3-3-3-|--5-5-5-5--3-3-3-3--2-2-2-2--0-0-0-0----|
|------------------------------------|----------------------------------------|


   TP TP  TP TP    TP TP  TP TP    TP TP  TP  TP    TP  TP  TP TP
   Q  Q   Q  Q     Q  Q   Q  Q     Q  Q   Q   Q     Q   Q   Q  Q
|---------------|---------------|----------------|----------------|
|---------------|---------------|----------------|----------------|
|---------------|---------------|----------------|----------------|
|---------7-----|---------9-----|--7------9---7--|--9---7---------|
|--9------------|-10------------|----------------|---------10--6--|
|-----7------7--|-----7------7--|-----7----------|----------------|
|---------------|---------------|----------------|----------------|
|
|  TP TP  TP TP    TP TP  TP TP    TP TP  TP  TP    TP  TP  TP TP
|  Q  Q   Q  Q     Q  Q   Q  Q     Q  Q   Q   Q     Q   Q   Q  Q
|---------------|---------------|----------------|----------------|
|--------10-----|--------12-----|-10-----12--10--|-12--10---------|
|-11------------|-12------------|----------------|---------12--8--|
|-----9------9--|-----9------9--|-----9----------|----------------|
|---------------|---------------|----------------|----------------|
|---------------|---------------|----------------|----------------|
|---------------|---------------|----------------|----------------|
|
|  TP     TP       TP     TP TP    TP     TP  TP    TP  TP  TP TP
|  H      H        H      Q  Q     H      Q   Q     Q   Q   Q  Q
|---------------|---------------|----------------|----------------|
|---------------|---------------|----------------|----------------|
|---------------|---------------|----------------|----------------|
|---------------|---------------|----------------|----------------|
|---------------|---------------|----------------|----------------|
|---------------|---------------|----------------|----------------|
|--4------7-----|--5------8--7--|--7------8---7--|--8---7---5--4--|


   Chorus
    Q=140
      E  E  E E E E E E     E  E  E E E  E  E  E
||----------------------|------------------------|
||----------------------|------------------------|
||o-/12-12-12-9-9-9-9-9-|-/12-12-12-9-9-12-12-11-|
||----x--x--x-x-x-x-x-x-|---x--x--x-x-x--x--x--x-|
||o-/10-10-10-7-7-7-7-7-|-/10-10-10-7-7-10-10--9-|
||----------------------|------------------------|
||----------------------|------------------------|
|
|     E  E  E E E E E E     E  E  E E E  E  E  E
||----------------------|------------------------|
||----------------------|------------------------|
||o---------------------|------------------------|
||----2--2--2-2-2-2-2-2-|---2--2--2-2-2--2--2--2-|
||o---2--2--2-2-2-2-2-2-|---2--2--2-2-2--2--2--2-|
||----0--0--0-0-0-0-0-0-|---0--0--0-0-0--0--0--0-|
||----------------------|------------------------|


                         PM           PM
   E  E  E E E E E E   E E E E E E  E E
|--------------------|-------------------|
|--------------------|-------------------|
|-11-11-11-8-8-8-8-8-|-8---8-9---9-11----|
|--x--x--x-x-x-x-x-x-|-x---x-x---x--x----|
|--9--9--9-6-6-6-6-6-|-6---6-7---7--9----|
|--------------------|---x-----x------x--|
|--------------------|-------------------|
|
|                        PM    PM     PM
|  E  E  E E E E E E   E E E E E E  E E
|--------------------|-------------------|
|--------------------|-------------------|
|--------------------|-------------------|
|--------------------|-------------------|
|--2--2--2-2-2-2-2-2-|-6---6-7---7--9----|
|--2--2--2-2-2-2-2-2-|----------------7--|
|--0--0--0-0-0-0-0-0-|---7-----0---------|


    E  E  E E E E E E     E  E  E E E  E  E  E
|---------------------|------------------------|
|---------------------|------------------------|
|-/12-12-12-9-9-9-9-9-|-/12-12-12-9-9-12-12-11-|
|---x--x--x-x-x-x-x-x-|---x--x--x-x-x--x--x--x-|
|-/10-10-10-7-7-7-7-7-|-/10-10-10-7-7-10-10--9-|
|---------------------|------------------------|
|---------------------|------------------------|
|
|   E  E  E E E E E E     E  E  E E E  E  E  E
|---------------------|------------------------|
|---------------------|------------------------|
|---------------------|------------------------|
|---2--2--2-2-2-2-2-2-|---2--2--2-2-2--2--2--2-|
|---2--2--2-2-2-2-2-2-|---2--2--2-2-2--2--2--2-|
|---0--0--0-0-0-0-0-0-|---0--0--0-0-0--0--0--0-|
|---------------------|------------------------|


                       1.
   E  E  E E E E E E     Q.    Q.    Q
|--------------------|-------------------||
|--------------------|-------------------||
|-11-11-11-8-8-8-8-8-|-/16----14----11--o||
|--x--x--x-x-x-x-x-x-|---x-----x-----x---||
|--9--9--9-6-6-6-6-6-|-/14----12-----9--o||
|--------------------|-------------------||
|--------------------|-------------------||
|
|  E  E  E E E E E E     Q.    Q.    Q
|--------------------|-------------------||
|--------------------|-------------------||
|--------------------|------------------o||
|--------------------|-------------------||
|--2--2--2-2-2-2-2-2-|-/10-----9-----6--o||
|--2--2--2-2-2-2-2-2-|---x-----x-----x---||
|--0--0--0-0-0-0-0-0-|--/8-----7-----4---||


  2.
   Q.    Q.    Q     Q.    Q.    Q
|-----------------|-----------------|
|-----------------|-----------------|
|-11----11----11--|-11----11----11--|
|--x-----x-----x--|--x-----x-----x--|
|--9-----9-----9--|--9-----9-----9--|
|-----------------|-----------------|
|-----------------|-----------------|
|
|  Q.    Q.    Q     Q.    Q.    Q
|-----------------|-----------------|
|-----------------|-----------------|
|-----------------|-----------------|
|-----------------|-----------------|
|--2-----2-----2--|--6-----6-----6--|
|--2-----2-----2--|--6-----6-----6--|
|--0-----0-----0--|--4-----4-----4--|


 Breakdown
  Q.=86
 6/8
   H.                            +H.
|------------------------------|--------------------------------|
|------------------------------|--------------------------------|
|--9---------------------------|-(9)----------------------------|
|--x---------------------------|-(x)----------------------------|
|--7---------------------------|-(7)----------------------------|
|------------------------------|--------------------------------|
|------------------------------|--------------------------------|
|
|  H.                            +H.
|------------------------------|--------------------------------|
|------------------------------|--------------------------------|
|------------------------------|--------------------------------|
|------------------------------|--------------------------------|
|--7---------------------------|-(7)----------------------------|
|--7---------------------------|-(7)----------------------------|
|--5---------------------------|-(5)----------------------------|
|
| Gtr III
|  S  S S  S S S  S S S  S S S    S  S  S S  S S  S S  S S  S S
|------------------------------|--------------------------------|
|------------------------------|--------------------------------|
|------------------------------|--------------------------------|
|------------------------------|--------------------------------|
|------------------------------|--------------------------------|
|-12--0-0-12-0-0-12-0-0-11-0-0-|-14--0-14-0-14-0-15-0-15-0-15-0-|
|------------------------------|--------------------------------|


  +H.                            +H.
|------------------------------|-----------------------------|
|------------------------------|-----------------------------|
|-(9)--------------------------|-(9)-------------------------|
|-(x)--------------------------|-(x)-------------------------|
|-(7)--------------------------|-(7)-------------------------|
|------------------------------|-----------------------------|
|------------------------------|-----------------------------|
|
| +H.                            +H.
|------------------------------|-----------------------------|
|------------------------------|-----------------------------|
|------------------------------|-----------------------------|
|------------------------------|-----------------------------|
|-(7)--------------------------|-(7)-------------------------|
|-(7)--------------------------|-(7)-------------------------|
|-(5)--------------------------|-(5)-------------------------|
|
|  S  S S  S S S  S S S  S S S    S  S  S S S S  S S S S S S
|------------------------------|-----------------------------|
|------------------------------|-----------------------------|
|------------------------------|-----------------------------|
|------------------------------|-----------------------------|
|------------------------------|-----------------------------|
|-12--0-0-12-0-0-12-0-0-11-0-0-|-12--0-11-0-8-0-11-0-8-0-7-0-|
|------------------------------|-----------------------------|


   S S S  S S S  S S S  S S S    S S  S S  S S  S S  S S  S S
|-----------------------------|-------------------------------|
|-----------------------------|-------------------------------|
|-----------------------------|-------------------------------|
|-----------------------------|-------------------------------|
|-----------------------------|-------------------------------|
|-12-0-0-12-0-0-12-0-0-11-0-0-|-14-0-14-0-14-0-15-0-15-0-15-0-|
|-----------------------------|-------------------------------|
|
|  q        H                    W
|-----------------------------|-------------------------------|
|-----------------------------|-------------------------------|
|-----------------------------|-------------------------------|
|-----------------------------|-------------------------------|
|--7--------------------------|-------------------------------|
|--7--------------------------|-------------------------------|
|--5--------------------------|-------------------------------|


   S S S  S S S  S S S  S S S    S S  S S  S S  S S  S S  S S
|-----------------------------|-------------------------------|
|-----------------------------|-------------------------------|
|-----------------------------|-------------------------------|
|-----------------------------|-------------------------------|
|-----------------------------|-------------------------------|
|-12-0-0-12-0-0-12-0-0-11-0-0-|-12-0-14-0-15-0-14-0-15-0-17-0-|
|-----------------------------|-------------------------------|


   S  S S  S S S  S S S  S S S    S S  S S  S S  S S  S S  S S
|------------------------------|-------------------------------|
|------------------------------|-------------------------------|
|------------------------------|-------------------------------|
|------------------------------|-------------------------------|
|------------------------------|-------------------------------|
|-12--0-0-12-0-0-12-0-0-11-0-0-|-14-0-14-0-14-0-15-0-15-0-15-0-|
|------------------------------|-------------------------------|
|
| Gtr II
|  H.                             e    e    H
|------------------------------|-------------------------------|
|------------------------------|-------------------------------|
|------------------------------|-------------------------------|
|--2---------------------------|--2----2-----------------------|
|--2---------------------------|--2----2-----------------------|
|--0---------------------------|--0----0-----------------------|
|------------------------------|-------------------------------|


   S  S S  S S S  S S S  S S S    S S  S S S S  S S S S S S
|------------------------------|----------------------------|
|------------------------------|----------------------------|
|------------------------------|----------------------------|
|------------------------------|----------------------------|
|------------------------------|----------------------------|
|-12--0-0-12-0-0-12-0-0-11-0-0-|-12-0-11-0-8-0-11-0-8-0-7-0-|
|------------------------------|----------------------------|
|
|  H.                             e    e   E    e   e   E
|------------------------------|----------------------------|
|------------------------------|----------------------------|
|------------------------------|----------------------------|
|--2---------------------------|--2----2--------------------|
|--2---------------------------|--2----2--------2---2-------|
|--0---------------------------|--0----0--------2---2-------|
|------------------------------|----------------0---0-------|


   S  S S  S S S  S S S  S S S    S S  S S  S S  S S  S S  S S
|------------------------------|-------------------------------|
|------------------------------|-------------------------------|
|------------------------------|-------------------------------|
|------------------------------|-------------------------------|
|------------------------------|-------------------------------|
|-12--0-0-12-0-0-12-0-0-11-0-0-|-14-0-14-0-14-0-15-0-15-0-15-0-|
|------------------------------|-------------------------------|
|
|  H.                             e    e    H
|------------------------------|-------------------------------|
|------------------------------|-------------------------------|
|------------------------------|-------------------------------|
|--2---------------------------|--2----2-----------------------|
|--2---------------------------|--2----2-----------------------|
|--0---------------------------|--0----0-----------------------|
|------------------------------|-------------------------------|


   S  S S  S S S  S S S  S S S    S S  S S  S S  S S  S S  S S
|------------------------------|-------------------------------|
|------------------------------|-------------------------------|
|------------------------------|-------------------------------|
|------------------------------|-------------------------------|
|------------------------------|-------------------------------|
|-12--0-0-12-0-0-12-0-0-11-0-0-|-12-0-14-0-15-0-14-0-15-0-17-0-|
|------------------------------|-------------------------------|
|
|  H.                             e    e    E    e    e    E
|------------------------------|-------------------------------|
|------------------------------|-------------------------------|
|------------------------------|-------------------------------|
|--2---------------------------|--2----2-----------------------|
|--2---------------------------|--2----2---------2----2--------|
|--0---------------------------|--0----0---------2----2--------|
|------------------------------|-----------------0----0--------|


 Guitar Solos
    TP              TP   TP           TP   TP   TP   ~~~~~~~
    Q.              E    Q            E    E    E    Q.
|---------------------------------|-------------------------------------|
|-/17-------------/17---16--------|-/17---19---20---19b19.5-------------|
|---------------------------------|-------------------------------------|
|---------------------------------|-------------------------------------|
|---------------------------------|-------------------------------------|
|---------------------------------|-------------------------------------|
|---------------------------------|-------------------------------------|
|
|   S  S S  S S S   S S  S  S S S     S S  S S  S S  S      S  S S  S S
|---------------------------------|-------------------------------------|
|---------------------------------|-------------------------------------|
|---------------------------------|-------------------------------------|
|---------------------------------|-------------------------------------|
|---------------------------------|-------------------------------------|
|--12--0-0-12-0-0--12-0--0-11-0-0-|--14-0-14-0-14-0-15------0-15-0-15-0-|
|---------------------------------|-------------------------------------|
|
| Gtr III
|   H.                                e    e    H
|---------------------------------|-------------------------------------|
|---------------------------------|-------------------------------------|
|---------------------------------|-------------------------------------|
|---2-----------------------------|---2----2----------------------------|
|---2-----------------------------|---2----2----------------------------|
|---0-----------------------------|---0----0----------------------------|
|---------------------------------|-------------------------------------|


   |---3----|  |---3----|  |---3---|  |---3---|  |---3----|  |---3---|
   S   S    S  S  S     S  S  S    S  S  S    S  S  S     S  S  S    S
|-20--19---17----------------------------------------------------------|
|-------------20-19----17-17h19p==17-----------------------------------|
|------------------------------------19-17---16------------------------|
|-----------------------------------------------19-17----16-16h17p==16-|
|----------------------------------------------------------------------|
|----------------------------------------------------------------------|
|----------------------------------------------------------------------|
|
|  S     S     S     S     S    S     S    S     S     S     S    S
|----------------------------------------------------------------------|
|----------------------------------------------------------------------|
|----------------------------------------------------------------------|
|----------------------------------------------------------------------|
|----------------------------------------------------------------------|
|-12-----0-----0----12-----0----0----12----0-----0----11-----0----0----|
|----------------------------------------------------------------------|
|
|  H.
|----------------------------------------------------------------------|
|----------------------------------------------------------------------|
|----------------------------------------------------------------------|
|--2-------------------------------------------------------------------|
|--2-------------------------------------------------------------------|
|--0-------------------------------------------------------------------|
|----------------------------------------------------------------------|


                                    ~~~
   |---3---|  |---3---|  |---3---|
   S  S    S  S  S    S  S  S    S  Q.
|-------------------------------------------------|
|-------------------------------------------------|
|-------------------------------------------------|
|-------------------------------------------------|
|-17-15---14--------------------------------------|
|------------17-15---14-14h15p==14-12-------------|
|-------------------------------------------------|
|
|  S    S     S    S     S    S     S  S S S S S
|-------------------------------------------------|
|-------------------------------------------------|
|-------------------------------------------------|
|-------------------------------------------------|
|-------------------------------------------------|
|-12----0----11----0-----8----0----11--0-8-0-7-0--|
|-------------------------------------------------|
|
|  e          e          E          e    e   E
|-------------------------------------------------|
|-------------------------------------------------|
|-------------------------------------------------|
|--2----------2-----------------------------------|
|--2----------2---------------------2----2--------|
|--0----------0---------------------2----2--------|
|-----------------------------------0----0--------|


    ~~~~
                                           |---3---|
    Q.              E    E     E      E    S  S    S  E    E    E    E
|----------------------------------|--------------------------------------|
|----------------------------------|--------------------------------------|
|----------------------------------|--------------------------------------|
|-/14-------------/16---14----16---|-17---16h17p==16-14---16---17---16----|
|----------------------------------|--------------------------------------|
|----------------------------------|--------------------------------------|
|----------------------------------|--------------------------------------|
|
|   S  S S  S S S   S S  S  S  S S    S S  S    S     S S  S S  S S  S S
|----------------------------------|--------------------------------------|
|----------------------------------|--------------------------------------|
|----------------------------------|--------------------------------------|
|----------------------------------|--------------------------------------|
|----------------------------------|--------------------------------------|
|--12--0-0-12-0-0--12-0--0-11--0-0-|-14-0-14----0----14-0-15-0-15-0-15-0--|
|----------------------------------|--------------------------------------|
|
|   H.                                e    e          H
|----------------------------------|--------------------------------------|
|----------------------------------|--------------------------------------|
|----------------------------------|--------------------------------------|
|---2------------------------------|--2----2------------------------------|
|---2------------------------------|--2----2------------------------------|
|---0------------------------------|--0----0------------------------------|
|----------------------------------|--------------------------------------|


   |---3---|  |---3----|  |---3---|  |---3---|
   S  S    S  S  S     S  S  S    S  S  S    S  S  S  E
|---------------------------------------------------------|
|---------------------------------------------------------|
|-16h17p==16p14h16p===14----14h==16h17p16p==14h16p14------|
|------------------------17--------------------------17---|
|---------------------------------------------------------|
|---------------------------------------------------------|
|---------------------------------------------------------|
|
|  S    S     S     S     S    S     S    S     S  S  S S
|---------------------------------------------------------|
|---------------------------------------------------------|
|---------------------------------------------------------|
|---------------------------------------------------------|
|---------------------------------------------------------|
|-12----0-----0----12-----0----0----12----0-----0-11--0-0-|
|---------------------------------------------------------|
|
|  H.
|---------------------------------------------------------|
|---------------------------------------------------------|
|---------------------------------------------------------|
|--2------------------------------------------------------|
|--2------------------------------------------------------|
|--0------------------------------------------------------|
|---------------------------------------------------------|


   |---3---|  |---3---|  |---3---|  |---3---|  |---3---|
   S  S    S  S  S    S  S  S    S  S  S    S  S  S    S  S  S
|-----------------------15-17---19------------15-17---19-19-17--|
|------------15-17---18------------15-17---18-------------------|
|-14-16---17----------------------------------------------------|
|---------------------------------------------------------------|
|---------------------------------------------------------------|
|---------------------------------------------------------------|
|---------------------------------------------------------------|
|
|  S    S     S    S     S    S     S    S     S    S     S  S
|---------------------------------------------------------------|
|---------------------------------------------------------------|
|---------------------------------------------------------------|
|---------------------------------------------------------------|
|---------------------------------------------------------------|
|-12----0----14----0----15----0----14----0----15----0----17--0--|
|---------------------------------------------------------------|
|
|  e          e          E          e          e          E
|---------------------------------------------------------------|
|---------------------------------------------------------------|
|---------------------------------------------------------------|
|--2----------2-------------------------------------------------|
|--2----------2---------------------2----------2----------------|
|--0----------0---------------------2----------2----------------|
|-----------------------------------0----------0----------------|


   TP      TP TP TP TP      TP TP TP
   E.      S  S  S  E.      S  S  S
|-19------20-19-17-19------20-19-17-|
|-----------------------------------|
|-----------------------------------|
|-----------------------------------|
|-----------------------------------|
|-----------------------------------|
|-----------------------------------|
|
|  PM--------------------------------
|  S  S S  S  S  S  S  S S  S  S  S
|-----------------------------------|
|-----------------------------------|
|-----------------------------------|
|-----------------------------------|
|-----------------------------------|
|-----------------------------------|
|--5--0-0--7--0--0--5--0-0--8--0--0-|


                                           ~~~
   |---3---|  |---3---|  |--3--|  |--3--|
   S  S    S  S  S    S  T  T  T  T  T  T  Q.
|-20-19---17--------------------------------------------|
|------------20p19p==17---------------------------------|
|-----------------------19p17p16----------16------------|
|--------------------------------19p17p16---------------|
|-------------------------------------------------------|
|-------------------------------------------------------|
|-------------------------------------------------------|
|
|-----------------------------------------------------|
|  S    S     S    S     S        S        S  S S S S S
|-------------------------------------------------------|
|-------------------------------------------------------|
|-------------------------------------------------------|
|-------------------------------------------------------|
|-------------------------------------------------------|
|-------------------------------------------------------|
|--8----7-----5----7-----5--------4--------7--5-4-5-4-0-|


    TP   TP TP   TP  TP   TP  TP   TP    TP   TP TP   TP ~~~
    E    S  E    S   E    S   E    S     E    S  E    S  Q.
|------------------------------------|-----------------------------|
|------------------------------------|-----------------------------|
|-/16---14-16---14-/17---14-/16---14-|-/14---12-16---12-14---------|
|------------------------------------|-----------------------------|
|------------------------------------|-----------------------------|
|------------------------------------|-----------------------------|
|------------------------------------|-----------------------------|
|
| Gtr III
|   TP   TP TP   TP  TP   TP  TP   TP    TP   TP TP   TP ~~~
|   E    S  E    S   E    S   E    S     E    S  E    S  Q.
|-/19---17-19---17-/20---17-/19---17-|-/17---15-19---15-17---------|
|------------------------------------|-----------------------------|
|------------------------------------|-----------------------------|
|------------------------------------|-----------------------------|
|------------------------------------|-----------------------------|
|------------------------------------|-----------------------------|
|------------------------------------|-----------------------------|
|
| Gtr II
|   PM---------------------------------------------|            ~~
|   S S  S  S S  S   S S  S   S S  S     S S  S  S S  S  S  S S E.
|------------------------------------|-----------------------------|
|------------------------------------|-----------------------------|
|------------------------------------|-----------------------------|
|------------------------------------|-------------------7---------|
|------------------------------------|-------------7--9-----9-6-7--|
|------------------------------------|--------5--8-----------------|
|---5-0--0--7-0--0---5-0--0---8-0--0-|---4-7-----------------------|


   T       T       T       T       T       T       T        T        T        T        T        T
   |-3--|  |-3--|  |-3--|  |-3--|  |-3--|  |-3--|  |--3--|  |--3--|  |--3--|  |--3--|  |--3--|  |--3--|
   T T  T  T T  T  T T  T  T T  T  T T  T  T T  T  T  T  T  T  T  T  T  T  T  T  T  T  T  T  T  T  T  T
|--------------------------------------------------------------------------------------------------------|
|--------------------------------------------------------------------------------------------------------|
|-12p9h11-12p9h11-12p9h11-12p9h11-12p9h11-12p9h11-14p11h12-14p11h12-14p11h12-14p11h12-14p11h12-14p11h12--|
|--------------------------------------------------------------------------------------------------------|
|--------------------------------------------------------------------------------------------------------|
|--------------------------------------------------------------------------------------------------------|
|--------------------------------------------------------------------------------------------------------|
|
|  PM------------------------------------------------------------------------------------------|
|  S       S       S       S       S       S       S        S        S        S        S        S
|--------------------------------------------------------------------------------------------------------|
|--------------------------------------------------------------------------------------------------------|
|--------------------------------------------------------------------------------------------------------|
|--------------------------------------------------------------------------------------------------------|
|--------------------------------------------------------------------------------------------------------|
|--------------------------------------------------------------------------------------------------------|
|--5-------0-------0-------7-------0-------0-------5--------0--------0--------8--------0--------0--------|


   T        T        T        T        T        T        T        T        T        T        T        T
   |--3--|  |--3--|  |--3--|  |--3--|  |--3--|  |--3--|  |--3--|  |--3--|  |--3--|  |--3--|  |--3--|  |--3--|
   T  T  T  T  T  T  T  T  T  T  T  T  T  T  T  T  T  T  T  T  T  T  T  T  T  T  T  T  T  T  T  T  T  T  T  T
|--------------------------------------------------------------------------------------------------------------|
|--------------------------------------------------------------------------------------------------------------|
|-16p12h14-16p12h14-16p12h14-16p12h14-16p12h14-16p12h14-17p14h16-17p14h16-17p14h16-17p14h16-17p14h16-17p14h16--|
|--------------------------------------------------------------------------------------------------------------|
|--------------------------------------------------------------------------------------------------------------|
|--------------------------------------------------------------------------------------------------------------|
|--------------------------------------------------------------------------------------------------------------|
|
|  PM------------------------------------------------------------------------------------------------|
|  S        S        S        S        S        S        S        S        S        S        S        S
|--------------------------------------------------------------------------------------------------------------|
|--------------------------------------------------------------------------------------------------------------|
|--------------------------------------------------------------------------------------------------------------|
|--------------------------------------------------------------------------------------------------------------|
|--------------------------------------------------------------------------------------------------------------|
|--------------------------------------------------------------------------------------------------------------|
|--8--------7--------5--------7--------5--------4--------7--------5--------4--------5--------4--------0--------|


   T        T        T        T        T        T        T        T        T         T
   |--3--|  |--3--|  |--3--|  |--3--|  |--3--|  |--3--|  |--3--|  |--3--|  |--3--|
   T  T  T  T  T  T  T  T  T  T  T  T  T  T  T  T  T  T  T  T  T  T  T  T  T  T  T   E.
|-15p12h14-15p12h14-15p12h14-15p12h14-15p12h14-15p12h14-20p17h19-20p17h19-20p17h19-/24\-----|
|-------------------------------------------------------------------------------------------|
|-------------------------------------------------------------------------------------------|
|-------------------------------------------------------------------------------------------|
|-------------------------------------------------------------------------------------------|
|-------------------------------------------------------------------------------------------|
|-------------------------------------------------------------------------------------------|
|
|  PM-------------------------------------------------------------------------------------|
|  S        S        S        S        S        S        S        S        S         S  S S
|-------------------------------------------------------------------------------------------|
|-------------------------------------------------------------------------------------------|
|-------------------------------------------------------------------------------------------|
|-------------------------------------------------------------------------------------------|
|-------------------------------------------------------------------------------------------|
|-------------------------------------------------------------------------------------------|
|--5--------0--------0--------7--------0--------0--------5--------0--------0---------8--0-0-|


                                                       |----3-----|
   H                Q       Q.               +E        E     E    E
|--xS===============x----|-12-------------------------12----14---12---|
|------------------------|-15b17------------(15)b17-------------------|
|------------------------|--------------------------------------------|
|------------------------|--------------------------------------------|
|------------------------|--------------------------------------------|
|------------------------|--------------------------------------------|
|------------------------|--------------------------------------------|
|
| Gtr III
|  \1
|  H.                       H.
|------------------------|--------------------------------------------|
|------------------------|--------------------------------------------|
|------------------------|--------------------------------------------|
|------------------------|--2-----------------------------------------|
|------------------------|--2-----------------------------------------|
|-<5>--------------------|--0-----------------------------------------|
|------------------------|--------------------------------------------|
|
| Gtr II
|  PM-------|         ~~
|  S  S S S S S S S S E.    S    S S  S S S   S     S  S  S    S    S
|------------------------|--------------------------------------------|
|------------------------|--------------------------------------------|
|------------------------|--------------------------------------------|
|---------------7--------|--------------------------------------------|
|-----------7-9---9-6-7--|--------------------------------------------|
|-------5-8--------------|-12----0-0-12-0-0--12-----0--0-11----0----0-|
|--4--7------------------|--------------------------------------------|


                |---3---|
   Q            S  S    S  Q.
|-14b15--------12h14p==12-------------------|
|-------------------------15b17-------------|
|-------------------------------------------|
|-------------------------------------------|
|-------------------------------------------|
|-------------------------------------------|
|-------------------------------------------|
|
|  S    S  S S  S    S     S    S  S S  S S
|-------------------------------------------|
|-------------------------------------------|
|-------------------------------------------|
|-------------------------------------------|
|-------------------------------------------|
|-14----0-14-0-14----0----15----0-15-0-15-0-|
|-------------------------------------------|
|
|  e       e    H
|-------------------------------------------|
|-------------------------------------------|
|-------------------------------------------|
|--2-------2--------------------------------|
|--2-------2--------------------------------|
|--0-------0--------------------------------|
|-------------------------------------------|


               |---3---|           |---3---|
   E     e     S  S    S  S  S  S  S  S    S  S
|-15----14----12h14p==12S11-12-------------------|
|------------------------------13-12h13p==12-10--|
|------------------------------------------------|
|------------------------------------------------|
|------------------------------------------------|
|------------------------------------------------|
|------------------------------------------------|
|
|  S  S  S  S  S    S     S  S  S  S    S     S
|------------------------------------------------|
|------------------------------------------------|
|------------------------------------------------|
|------------------------------------------------|
|------------------------------------------------|
|-12--0--0-12--0----0----12--0--0-11----0-----0--|
|------------------------------------------------|
|
|  H.
|------------------------------------------------|
|------------------------------------------------|
|------------------------------------------------|
|--2---------------------------------------------|
|--2---------------------------------------------|
|--0---------------------------------------------|
|------------------------------------------------|


                              ~~~~~~~~~~~~~~~~~~~~~~~~~~~~~~~~~~
   |---3---|  |---3---|
   S  S    S  S  S    S S  S  Q.               Q.            Q.
|------------------------------------------|--/5h============7-------------|
|-12-10------------------------------------|-------------------------------|
|---------12-11h12p==11-9h12--8------------|-/11h===========12-------------|
|------------------------------------------|-------------------------------|
|------------------------------------------|-------------------------------|
|------------------------------------------|-------------------------------|
|------------------------------------------|-------------------------------|
|                                              Q.            Q.
|
|  S    S     S    S    S  S  S  S S S S S     S S S  S S S  S  S S  S S S
|------------------------------------------|-------------------------------|
|------------------------------------------|-------------------------------|
|------------------------------------------|-------------------------------|
|------------------------------------------|-------------------------------|
|------------------------------------------|-------------------------------|
|-12----0----11----0----8--0-11--0-8-0-7-0-|--12-0-0-12-0-0-12--0-0-11-0-0-|
|------------------------------------------|-------------------------------|
|
|  e          e         E     e    e   E       H.
|------------------------------------------|-------------------------------|
|------------------------------------------|-------------------------------|
|------------------------------------------|-------------------------------|
|--2----------2----------------------------|---2---------------------------|
|--2----------2---------------2----2-------|---2---------------------------|
|--0----------0---------------2----2-------|---0---------------------------|
|-----------------------------0----0-------|-------------------------------|


    ~~~~                             ~~~~~
                                                           |----3-----|
    Q.              E    E    E      H                     E     E    E
|-/12--------------11h==12p==11---|-15--------------------14----15---14----|
|-/13--------------12h==13p==12---|-15b17-----------------15----17---15----|
|---------------------------------|----------------------------------------|
|---------------------------------|----------------------------------------|
|---------------------------------|----------------------------------------|
|---------------------------------|----------------------------------------|
|---------------------------------|----------------------------------------|
|   Q.              E    E    E      H                     E     E    E
|                                                          |----3-----|
|
|   S  S  S S  S S  S S  S S  S S    S    S S  S S S  S S  S  S    S    S
|---------------------------------|----------------------------------------|
|---------------------------------|----------------------------------------|
|---------------------------------|----------------------------------------|
|---------------------------------|----------------------------------------|
|---------------------------------|----------------------------------------|
|--14--0-14-0-14-0-15-0-15-0-15-0-|-12----0-0-12-0-0-12-0--0-11----0----0--|
|---------------------------------|----------------------------------------|
|
|   e     e    H                     H.
|---------------------------------|----------------------------------------|
|---------------------------------|----------------------------------------|
|---------------------------------|----------------------------------------|
|---2-----2-----------------------|--2-------------------------------------|
|---2-----2-----------------------|--2-------------------------------------|
|---0-----0-----------------------|--0-------------------------------------|
|---------------------------------|----------------------------------------|


   Q.              +Q.
|-15---------------17b19--------------|
|-17--------------(17)b19-------------|
|-------------------------------------|
|-------------------------------------|
|-------------------------------------|
|-------------------------------------|
|-------------------------------------|
|  Q.               Q.
|
|  S  S  S S  S S   S     S  S S  S S
|-------------------------------------|
|-------------------------------------|
|-------------------------------------|
|-------------------------------------|
|-------------------------------------|
|-12--0-14-0-15-0--14-----0-15-0-17-0-|
|-------------------------------------|
|
|  e     e    E     e        e    E
|-------------------------------------|
|-------------------------------------|
|-------------------------------------|
|--2-----2----------------------------|
|--2-----2----------2--------2--------|
|--0-----0----------2--------2--------|
|-------------------0--------0--------|


                  |---3---|  |---3---|
   S  S  S  S  S  S  S    S  S  S    S  S  S  S
|-----------------------------------------------|
|--------------------------------------------16-|
|-------16-16---------------16-17---19-16-17----|
|-16-17-------17-16-17---19---------------------|
|-----------------------------------------------|
|-----------------------------------------------|
|-----------------------------------------------|
|
|  PM----------------------------------------|
|  S  S  S  S  S  S    S     S    S     S  S  S
|-----------------------------------------------|
|-----------------------------------------------|
|-----------------------------------------------|
|-----------------------------------------------|
|-----------------------------------------------|
|-----------------------------------------------|
|--5--0--0--7--0--0----5-----0----0-----8--0--0-|
|
|  W
|-----------------------------------------------|
|-----------------------------------------------|
|-----------------------------------------------|
|-----------------------------------------------|
|-----------------------------------------------|
|-----------------------------------------------|
|-----------------------------------------------|


      |---3---|  |---3---|                 |---3---|
   S  S  S    S  S  S    S  S  S  S  S  S  S  S    S
|----------------------------------------------------|
|---------------16-17---20-16-17-20-20-17-16-17---20-|
|-17-16-17---19--------------------------------------|
|----------------------------------------------------|
|----------------------------------------------------|
|----------------------------------------------------|
|----------------------------------------------------|
|
|  PM-------------------------------------------------
|  S  S    S     S    S     S  S  S  S  S  S    S
|----------------------------------------------------|
|----------------------------------------------------|
|----------------------------------------------------|
|----------------------------------------------------|
|----------------------------------------------------|
|----------------------------------------------------|
|--8--7----5-----7----5-----4--7--5--4--5--4----0----|


         |---3---|  |---3---|  |---3---|
   S  S  S  S    S  S  S    S  S  S    S  S  S  S  S
|----17-20-17---------17-----------------------------|
|-20------------19-20------19-20-17---19-20-17-------|
|----------------------------------------------17-16-|
|----------------------------------------------------|
|----------------------------------------------------|
|----------------------------------------------------|
|----------------------------------------------------|
|
|-------------------------------------------------|
|  S  S  S    S     S    S     S    S     S  S  S  S
|----------------------------------------------------|
|----------------------------------------------------|
|----------------------------------------------------|
|----------------------------------------------------|
|----------------------------------------------------|
|----------------------------------------------------|
|--5--0--0----7-----0----0-----5----0-----0--8--0--0-|


                              ~~~
   S  S  S  S  S  S  S  S  S  E.     Q.             Q.
|-------------------17-----------|-------------------------------|
|-------------16-19----19-16-17--|-------------------------------|
|----------17--------------------|-/12\-----------/11\-----------|
|----16-19-----------------------|---x-------------/x------------|
|-18-----------------------------|-/10\-------------9\-----------|
|--------------------------------|-------------------------------|
|--------------------------------|-------------------------------|
|
| Gtr II
|  PM---------|               ~~~    PM------------------------|
|  S  S  S  S  S  S  S  S  S  E.     S  S S S S S   S  S S S S S
|--------------------------------|-------------------------------|
|--------------------------------|-------------------------------|
|--------------------------------|-------------------------------|
|--------------------7-----------|-------------------------------|
|--------------7--9-----9--6--7--|-------------------------------|
|--------5--8--------------------|-------------------------------|
|--4--7--------------------------|---5--0-0-7-0-0---5--0-0-8-0-0-|


   Q.            Q.              Q.            Q.
|-----------------------------|-----------------------------|
|-----------------------------|-----------------------------|
|-/9\-----------/8\-----------|-/5\-----------/8\-----------|
|--x-------------x------------|--x-------------x------------|
|-/7\-----------/6\-----------|-/3\-----------/6\-----------|
|-----------------------------|-----------------------------|
|-----------------------------|-----------------------------|
|
|  PM-----------------------------------------------------|
|  S  S S S S S  S  S S S S S    S  S S S S S  S  S S S S S
|-----------------------------|-----------------------------|
|-----------------------------|-----------------------------|
|-----------------------------|-----------------------------|
|-----------------------------|-----------------------------|
|-----------------------------|-----------------------------|
|-----------------------------|-----------------------------|
|--8--7-5-7-5-4--7--5-4-5-4-0-|--5--0-0-7-0-0--5--0-0-8-0-0-|


                                         Q=176
                                        4/4
                                             |--3--|
   E     +H                      +E       E  S  S  S  E  E  E  E  E  E
|--------------------------------------|-------------------------------|
|--------------------------------------|-------------------------------|
|--------------------------------------|-12-11h12p11----------11-12-14-|
|-<7>---(<7>)b9=================(<7>)r-|-------------14-13-14----------|
|--------------------------------------|-------------------------------|
|--------------------------------------|-------------------------------|
|--------------------------------------|-------------------------------|
|
|                                            |--3--|
|  W                                      E  S  S  S  E  E  E  E  E  E
|--------------------------------------|----------------------------17-|
|--------------------------------------|-20-19h20p19-17----17-19-20----|
|--------------------------------------|----------------20-------------|
|--------------------------------------|-------------------------------|
|--------------------------------------|-------------------------------|
|--------------------------------------|-------------------------------|
|--------------------------------------|-------------------------------|
|
| Gtr III
|  PM--------------|         ~~
|  S  S   S      S S S S S S E.           H                 H
|--------------------------------------|-------------------------------|
|--------------------------------------|-------------------------------|
|--------------------------------------|-------------------------------|
|----------------------7---------------|-------------------------------|
|------------------7-9---9-6-7---------|--7-----------------9----------|
|---------5------8---------------------|--x-----------------x----------|
|--4--7--------------------------------|--5-----------------7----------|


   |--3--|  |--3--|  |--3--|  |--3--|    |--3--|  |--3--|  |--3--|  |--3--|
   E  E  E  E  E  E  E  E  E  E  E  E    E  E  E  E  E  E  E  E  E  E  E  E
|-------------------------------------|-------------------------------------|
|-13----------------------------------|-------------------------------------|
|----14-11-14-11----11----------------|-------------------------------------|
|----------------13----13----13-------|-10--9-----------9-10--9-----------9-|
|-------------------------15----15-12-|-------12-11-12----------12-11-12----|
|-------------------------------------|-------------------------------------|
|-------------------------------------|-------------------------------------|
|
|  |--3--|  |--3--|  |--3--|  |--3--|    |--3--|  |--3--|  |--3--|  |--3--|
|  E  E  E  E  E  E  E  E  E  E  E  E    E  E  E  E  E  E  E  E  E  E  E  E
|-20-17----17-------------------------|-------------------------------------|
|-------19----19----19----------------|-------------------------------------|
|----------------20----20-17-20-17----|-17-16----------16-17-16----------16-|
|----------------------------------19-|-------19-18-19----------19-18-19----|
|-------------------------------------|-------------------------------------|
|-------------------------------------|-------------------------------------|
|-------------------------------------|-------------------------------------|
|
|  H                 Q        Q          H                 H
|-------------------------------------|-------------------------------------|
|-------------------------------------|-------------------------------------|
|-------------------------------------|-------------------------------------|
|--------------------7--------9-------|-10----------------14----------------|
|-10-----------------x--------x-------|--x-----------------x----------------|
|--x-----------------5--------7-------|--8----------------12----------------|
|--8----------------------------------|-------------------------------------|


               ~~
                          |--3--|
   Q.    S  S  H       E  S  S  S  E  E  E  E  E  E
|-------------------|-------------------------------|
|-------------------|-------------------------------|
|-------------------|-12-11h12p11----------11-12-14-|
|-14----13h14-13----|-------------14-13-14----------|
|-------------------|-------------------------------|
|-------------------|-------------------------------|
|-------------------|-------------------------------|
|
|              ~~
|                         |--3--|
|  Q.    S  S  H       E  S  S  S  E  E  E  E  E  E
|-------------------|----------------------------17-|
|-17----16h17-16----|-20-19h20p19-17----17-19-20----|
|-------------------|----------------20-------------|
|-------------------|-------------------------------|
|-------------------|-------------------------------|
|-------------------|-------------------------------|
|-------------------|-------------------------------|
|
|  W                   H                 H
|-------------------|-------------------------------|
|-------------------|-------------------------------|
|-------------------|-------------------------------|
|-13----------------|-------------------------------|
|--x----------------|--7-----------------9----------|
|-11----------------|--x-----------------x----------|
|-------------------|--5-----------------7----------|


   |--3--|  |--3--|  |--3--|  |--3--|
   E  E  E  E  E  E  E  E  E  E  E  E
|-------------------------------------|
|-13----------------------------------|
|----14-11-14-11----11----------------|
|----------------13----13----13-------|
|-------------------------15----15-12-|
|-------------------------------------|
|-------------------------------------|
|
|  |--3--|  |--3--|  |--3--|  |--3--|
|  E  E  E  E  E  E  E  E  E  E  E  E
|-------------------------------------|
|-16-13----13-------------------------|
|-------14----14----14----------------|
|----------------16----16-13-16-13----|
|----------------------------------15-|
|-------------------------------------|
|-------------------------------------|
|
|  H                 Q        Q
|-------------------------------------|
|-------------------------------------|
|-------------------------------------|
|--------------------7--------9-------|
|-10-----------------x--------x-------|
|--x-----------------5--------7-------|
|--8----------------------------------|


   |--3--|  |--3--|  |--3--|  |--3--|
   E  E  E  E  E  E  E  E  E  E  E  E
|-------------------------------------|
|-------------------------------------|
|-------------------------------------|
|-------------------------------------|
|-15-12----12-------------------------|
|-------14----14-11-14-11----11-------|
|-------------------------13----13-10-|
|
|  |--3--|  |--3--|  |--3--|  |--3--|
|  E  E  E  E  E  E  E  E  E  E  E  E
|-------------------------------------|
|-------------------------------------|
|-------------------------------------|
|-16-13----13-------------------------|
|-------15----15-12-15-12----12-------|
|-------------------------14----14-11-|
|-------------------------------------|
|
|  H                 H
|-------------------------------------|
|-------------------------------------|
|-------------------------------------|
|-10----------------13----------------|
|--x-----------------x----------------|
|--8----------------11----------------|
|-------------------------------------|


   H         H           H         H
|---------------------|---------------------|
|---------------------|---------------------|
|---------------------|---------------------|
|--9tr10-----7tr9-----|--5tr7------4tr5-----|
|---------------------|---------------------|
|---------------------|---------------------|
|---------------------|---------------------|
|
|  H         H           H         H
|---------------------|---------------------|
|---------------------|---------------------|
|-16tr17----14tr16----|-12tr14----11tr12----|
|---------------------|---------------------|
|---------------------|---------------------|
|---------------------|---------------------|
|---------------------|---------------------|
|
|  W                    +W
|---------------------|---------------------|
|---------------------|---------------------|
|---------------------|---------------------|
|--9------------------|-(9)-----------------|
|--x------------------|-(x)-----------------|
|--7------------------|-(7)-----------------|
|---------------------|---------------------|


   Pre-Verse
    Q=200                                                   1.
    PM     PM       PM----------------------|      PM
    E Q  E E Q  E   E S S E E S S E S S E   E Q  E E Q  E   E E E E E E E E
||----------------|-----------------------|---------------|------------------||
||----------------|-----------------------|---------------|------------------||
||o---------------|-----------------------|---------------|-----------------o||
||----5--5---4--4-|-----------------------|---2--2---1--1-|------------------||
||o---7--7---6--6-|-----------------------|---3--3---2--2-|-----------------o||
||--0------0------|-0-0-0-0-0-0-0-0-0-0-0-|-0------0------|-3p0-3p0-2p0-2p0--||
||----------------|-----------------------|---------------|------------------||
|
|   PM     PM       PM----------------------|      PM
|   E Q  E E Q  E   E S S E E S S E S S E   E Q  E E Q  E   E E E E E E E E
||----------------|-----------------------|---------------|------------------||
||----------------|-----------------------|---------------|------------------||
||o---------------|-----------------------|---------------|-----------------o||
||----5--5---4--4-|-----------------------|---5--5---4--4-|------------------||
||o---7--7---6--6-|-----------------------|---7--7---6--6-|-----------------o||
||--0------0------|-0-0-0-0-0-0-0-0-0-0-0-|-0------0------|-3p0-3p0-2p0-2p0--||
||----------------|-----------------------|---------------|------------------||


  2.
   E E  E E  E E  E E    E E  E E  E E  E E
|---------------------|---------------------|
|---------------------|---------------------|
|---------------------|---------------------|
|---------------------|---------------------|
|--2p0--2p0-----------|--3p0--3p0-----------|
|------------3p0--3p0-|------------2p0--2p0-|
|---------------------|---------------------|
|
|  E E  E E  E E  E E    E E  E E  E E  E E
|---------------------|---------------------|
|---------------------|---------------------|
|---------------------|---------------------|
|---------------------|---------------------|
|-14p0-14p0-----------|-15p0-15p0-----------|
|-----------15p0-15p0-|-----------14p0-14p0-|
|---------------------|---------------------|


   Verse
    Gtrs I, II
    TP   TP TP   TP TP TP TP   TP TP TP TP   TP TP TP  TP
    H    Q  Q    Q  Q  Q  Q    Q  Q  Q  Q    Q  Q  Q   Q
||-------------|-------------|-------------|---------------|
||-------------|-------------|-------------|---------------|
||o------------|-------------|-------------|---------------|
||-------------|-------------|-------------|---------------|
||o------------|-------------|----0--2--3--|----2--3--/6---|
||-------------|-2--3--2-----|-------------|---------------|
||--5----4--5--|----------5--|-0-----------|-1-------------|


  1.
  TP   TP TP   TP TP TP TP   TP            ~
  H    Q  Q    Q  Q  Q  Q    Q  Q  Q  Q    H    E  Q.
|------------|-------------|-------------|---------------||
|------------|-------------|-------------|---------------||
|------------|-------------|-------------|--------------o||
|------------|-------------|----5--4s=2s=|=1-------------||
|------------|-------------|-------------|--------------o||
|------------|-2--3--2-----|-------------|---------------||
|-5----4--5--|----------5--|-0-----------|------0S12\----||
|
| Gtr II
| TP   TP TP   TP TP TP TP   TP            ~
| H    Q  Q    Q  Q  Q  Q    Q  Q  Q  Q    H    E  Q.
|------------|-------------|-------------|---------------||
|------------|-------------|-------------|---------------||
|------------|-------------|-------------|--------------o||
|------------|-------------|----9--7s=5s=|=4-------------||
|------------|-------------|-------------|--------------o||
|------------|-2--3--2-----|-------------|---------------||
|-5----4--5--|----------5--|-0-----------|------0S12\----||


 Pre-Chorus
  2.
  PM-----------------------------------------------------------
  E   E  E    E  E    E E   E    E    E  E    E  E    E E   E
|-----------------------------|-------------------------------|
|-----------------------------|-------------------------------|
|-----------------------------|-------------------------------|
|-----------------------------|-------------------------------|
|-7---7--9----9-10---10-6---6-|--9----9-10---10-10---10-6---6-|
|-----------------------------|-------------------------------|
|-----------------------------|-------------------------------|
|
| Gtr III
| PM-----------------------------------------------------------
| E   E  E    E  E    E E   E    E    E  E    E  E    E E   E
|-----------------------------|-------------------------------|
|-----------------------------|-------------------------------|
|-9---9-11---11-12---12-8---8-|-11---11-12---12-12---12-8---8-|
|-----------------------------|-------------------------------|
|-----------------------------|-------------------------------|
|-----------------------------|-------------------------------|
|-----------------------------|-------------------------------|
|
| Gtr II
| PM-----------------------------------------------------------
| S S E  S S  E  S S  E S S E    S S  E  S S  E  S S  E S S E
|-----------------------------|-------------------------------|
|-----------------------------|-------------------------------|
|-----------------------------|-------------------------------|
|-----------------------------|-------------------------------|
|-----------------------------|-------------------------------|
|-0-0-0--0-0--0--0-0--0-0-0-0-|--2-2--2--2-2--2--2-2--2-2-2-2-|
|-----------------------------|-------------------------------|


 --------------------------------------------------------------|
   E    E E   E  E    E  E    E    E    E  E    E  E    E  E    E
|-------------------------------|------------------------------------|
|-------------------------------|------------------------------------|
|-------------------------------|------------------------------------|
|----------------9----9--7----7-|-10---10--9----9--7----7------------|
|-10---10-7---7-----------------|-------------------------10---10----|
|-------------------------------|------------------------------------|
|-------------------------------|------------------------------------|
|
|--------------------------------------------------------------|
|  E    E E   E  E    E  E    E    E    E  E    E  E    E  E    E
|-------------------------------|------------------------------------|
|---------------12---12-10---10-|-13---13-12---12-10---10------------|
|-12---12-9---9-----------------|-------------------------12---12----|
|-------------------------------|------------------------------------|
|-------------------------------|------------------------------------|
|-------------------------------|------------------------------------|
|-------------------------------|------------------------------------|
|
|--------------------------------------------------------------|
|  S S  E S S E  S S  E  S S  E    S S  E  S S  E  S S  E  S S  E
|-------------------------------|------------------------------------|
|-------------------------------|------------------------------------|
|-------------------------------|------------------------------------|
|-------------------------------|------------------------------------|
|-------------------------------|------------------------------------|
|--3-3--3-3-3-3--3-3--3--3-3--3-|--5-5--5--3-3--3--2-2--2--0-0--0----|
|-------------------------------|------------------------------------|


   PM----------------------------------------
   E  E E E  E  E E E    E  E E E  E  E E E
|---------------------|---------------------|
|---------------------|---------------------|
|---------------------|---------------------|
|------------7--7-----|------------9--9-----|
|--9--9---------------|-10-10---------------|
|-------7-7-------7-7-|-------7-7-------7-7-|
|---------------------|---------------------|
|
|  PM----------------------------------------
|  E  E E E  E  E E E    E  E E E  E  E E E
|---------------------|---------------------|
|-----------10-10-----|-----------12-12-----|
|-11-11---------------|-12-12---------------|
|-------9-9-------9-9-|-------9-9-------9-9-|
|---------------------|---------------------|
|---------------------|---------------------|
|---------------------|---------------------|
|
|  TP        TP          TP        TP   TP
|  H         H           H         Q    Q
|---------------------|---------------------|
|---------------------|---------------------|
|---------------------|---------------------|
|---------------------|---------------------|
|---------------------|---------------------|
|---------------------|---------------------|
|--4---------7--------|--5---------8----7---|


 ---------------------------------------------|
   E  E E E  E  E  E  E    E  E  E  E  E  E E E
|-----------------------|-----------------------|
|-----------------------|-----------------------|
|-----------------------|-----------------------|
|--7--7------9--9--7--7-|--9--9--7--7-----------|
|-----------------------|-------------10-10-6-6-|
|-------7-7-------------|-----------------------|
|-----------------------|-----------------------|
|
|---------------------------------------------|
|  E  E E E  E  E  E  E    E  E  E  E  E  E E E
|-----------------------|-----------------------|
|-10-10-----12-12-10-10-|-12-12-10-10-----------|
|-----------------------|-------------12-12-8-8-|
|-------9-9-------------|-----------------------|
|-----------------------|-----------------------|
|-----------------------|-----------------------|
|-----------------------|-----------------------|
|
|  TP        TP    TP      TP    TP    TP   TP
|  H         Q     Q       Q     Q     Q    Q
|-----------------------|-----------------------|
|-----------------------|-----------------------|
|-----------------------|-----------------------|
|-----------------------|-----------------------|
|-----------------------|-----------------------|
|-----------------------|-----------------------|
|--7---------8-----7----|--8-----7-----5----4---|


  TP     TP     TP    TP       TP     TP     TP    TP
  Q      Q      Q     Q        Q      Q      Q     Q
|---------------------------|----------------------------|
|---------------------------|----------------------------|
|---------------------------|----------------------------|
|---------------------------|----------------------------|
|-7------9-----10-----6-----|--9-----10-----10-----6-----|
|---------------------------|----------------------------|
|---------------------------|----------------------------|
|
| TP     TP     TP    TP       TP     TP     TP    TP
| Q      Q      Q     Q        Q      Q      Q     Q
|---------------------------|----------------------------|
|---------------------------|----------------------------|
|-9-----11-----12-----8-----|-11-----12-----12-----8-----|
|---------------------------|----------------------------|
|---------------------------|----------------------------|
|---------------------------|----------------------------|
|---------------------------|----------------------------|
|
| PM------------------------------------------------------
| S S E  S S E  S S E S S E    S S E  S S E  S S E S S E
|---------------------------|----------------------------|
|---------------------------|----------------------------|
|---------------------------|----------------------------|
|---------------------------|----------------------------|
|---------------------------|----------------------------|
|-0-0-0--0-0-0--0-0-0-0-0-0-|--2-2-2--2-2-2--2-2-2-2-2-2-|
|---------------------------|----------------------------|


   TP    TP     TP     TP       TP     TP     TP     TP
   Q     Q      Q      Q        Q      Q      Q      Q
|----------------------------|--------------------------------|
|----------------------------|--------------------------------|
|----------------------------|--------------------------------|
|---------------9------7-----|-10------9------7---------------|
|-10-----7-------------------|----------------------10--------|
|----------------------------|--------------------------------|
|----------------------------|--------------------------------|
|
|  TP    TP     TP     TP       TP     TP     TP     TP
|  Q     Q      Q      Q        Q      Q      Q      Q
|----------------------------|--------------------------------|
|--------------12-----10-----|-13-----12-----10---------------|
|-12-----9-------------------|----------------------12--------|
|----------------------------|--------------------------------|
|----------------------------|--------------------------------|
|----------------------------|--------------------------------|
|----------------------------|--------------------------------|
|
|--------------------------------------------------------|
|  S S E S S E  S S E  S S E    S S E  S S E  S S E  S S E
|----------------------------|--------------------------------|
|----------------------------|--------------------------------|
|----------------------------|--------------------------------|
|----------------------------|--------------------------------|
|----------------------------|--------------------------------|
|--3-3-3-3-3-3--3-3-3--3-3-3-|--5-5-5--3-3-3--2-2-2--0-0-0----|
|----------------------------|--------------------------------|


   TP TP  TP TP    TP TP  TP TP    TP TP  TP  TP    TP  TP  TP TP
   Q  Q   Q  Q     Q  Q   Q  Q     Q  Q   Q   Q     Q   Q   Q  Q
|---------------|---------------|----------------|----------------|
|---------------|---------------|----------------|----------------|
|---------------|---------------|----------------|----------------|
|---------7-----|---------9-----|--7------9---7--|--9---7---------|
|--9------------|-10------------|----------------|---------10--6--|
|-----7------7--|-----7------7--|-----7----------|----------------|
|---------------|---------------|----------------|----------------|
|
|  TP TP  TP TP    TP TP  TP TP    TP TP  TP  TP    TP  TP  TP TP
|  Q  Q   Q  Q     Q  Q   Q  Q     Q  Q   Q   Q     Q   Q   Q  Q
|---------------|---------------|----------------|----------------|
|--------10-----|--------12-----|-10-----12--10--|-12--10---------|
|-11------------|-12------------|----------------|---------12--8--|
|-----9------9--|-----9------9--|-----9----------|----------------|
|---------------|---------------|----------------|----------------|
|---------------|---------------|----------------|----------------|
|---------------|---------------|----------------|----------------|
|
|  TP     TP       TP     TP TP    TP     TP  TP    TP  TP  TP TP
|  H      H        H      Q  Q     H      Q   Q     Q   Q   Q  Q
|---------------|---------------|----------------|----------------|
|---------------|---------------|----------------|----------------|
|---------------|---------------|----------------|----------------|
|---------------|---------------|----------------|----------------|
|---------------|---------------|----------------|----------------|
|---------------|---------------|----------------|----------------|
|--4------7-----|--5------8--7--|--7------8---7--|--8---7---5--4--|


 Pause
  Wx4
|--------|
|--------|
|--------|
|--------|
|--------|
|--------|
|--------|


   Chorus
    Q=140
      E  E  E E E E E E     E  E  E E E  E  E  E
||----------------------|------------------------|
||----------------------|------------------------|
||o-/12-12-12-9-9-9-9-9-|-/12-12-12-9-9-12-12-11-|
||----x--x--x-x-x-x-x-x-|---x--x--x-x-x--x--x--x-|
||o-/10-10-10-7-7-7-7-7-|-/10-10-10-7-7-10-10--9-|
||----------------------|------------------------|
||----------------------|------------------------|
|
|   Gtr II
|     E  E  E E E E E E     E  E  E E E  E  E  E
||----------------------|------------------------|
||----------------------|------------------------|
||o---------------------|------------------------|
||----2--2--2-2-2-2-2-2-|---2--2--2-2-2--2--2--2-|
||o---2--2--2-2-2-2-2-2-|---2--2--2-2-2--2--2--2-|
||----0--0--0-0-0-0-0-0-|---0--0--0-0-0--0--0--0-|
||----------------------|------------------------|


                         PM           PM
   E  E  E E E E E E   E E E E E E  E E
|--------------------|-------------------|
|--------------------|-------------------|
|-11-11-11-8-8-8-8-8-|-8---8-9---9-11----|
|--x--x--x-x-x-x-x-x-|-x---x-x---x--x----|
|--9--9--9-6-6-6-6-6-|-6---6-7---7--9----|
|--------------------|---x-----x------x--|
|--------------------|-------------------|
|
|                        PM    PM     PM
|  E  E  E E E E E E   E E E E E E  E E
|--------------------|-------------------|
|--------------------|-------------------|
|--------------------|-------------------|
|--------------------|-------------------|
|--2--2--2-2-2-2-2-2-|-6---6-7---7--9----|
|--2--2--2-2-2-2-2-2-|----------------7--|
|--0--0--0-0-0-0-0-0-|---7-----0---------|


    E  E  E E E E E E     E  E  E E E  E  E  E
|---------------------|------------------------|
|---------------------|------------------------|
|-/12-12-12-9-9-9-9-9-|-/12-12-12-9-9-12-12-11-|
|---x--x--x-x-x-x-x-x-|---x--x--x-x-x--x--x--x-|
|-/10-10-10-7-7-7-7-7-|-/10-10-10-7-7-10-10--9-|
|---------------------|------------------------|
|---------------------|------------------------|
|
|   E  E  E E E E E E     E  E  E E E  E  E  E
|---------------------|------------------------|
|---------------------|------------------------|
|---------------------|------------------------|
|---2--2--2-2-2-2-2-2-|---2--2--2-2-2--2--2--2-|
|---2--2--2-2-2-2-2-2-|---2--2--2-2-2--2--2--2-|
|---0--0--0-0-0-0-0-0-|---0--0--0-0-0--0--0--0-|
|---------------------|------------------------|


   E  E  E E E E E E     Q.    Q.    Q
|--------------------|-------------------||
|--------------------|-------------------||
|-11-11-11-8-8-8-8-8-|-/16----14----11--o||
|--x--x--x-x-x-x-x-x-|---x-----x-----x---||
|--9--9--9-6-6-6-6-6-|-/14----12-----9--o||
|--------------------|-------------------||
|--------------------|-------------------||
|
|  E  E  E E E E E E     Q.    Q.    Q
|--------------------|-------------------||
|--------------------|-------------------||
|--------------------|------------------o||
|--------------------|-------------------||
|--2--2--2-2-2-2-2-2-|-/10-----9-----6--o||
|--2--2--2-2-2-2-2-2-|---x-----x-----x---||
|--0--0--0-0-0-0-0-0-|--/8-----7-----4---||


    E  E  E E E E E E     E  E  E E E  E  E  E
|---------------------|------------------------|
|---------------------|------------------------|
|-/12-12-12-9-9-9-9-9-|-/12-12-12-9-9-12-12-11-|
|---x--x--x-x-x-x-x-x-|---x--x--x-x-x--x--x--x-|
|-/10-10-10-7-7-7-7-7-|-/10-10-10-7-7-10-10--9-|
|---------------------|------------------------|
|---------------------|------------------------|
|
|   E  E  E E E E E E     E  E  E E E  E  E  E
|---------------------|------------------------|
|---------------------|------------------------|
|---------------------|------------------------|
|---2--2--2-2-2-2-2-2-|---2--2--2-2-2--2--2--2-|
|---2--2--2-2-2-2-2-2-|---2--2--2-2-2--2--2--2-|
|---0--0--0-0-0-0-0-0-|---0--0--0-0-0--0--0--0-|
|---------------------|------------------------|


                         PM
   E  E  E E E E E E   E E E E E E  E E
|--------------------|------------------|
|--------------------|------------------|
|-11-11-11-8-8-8-8-8-|-8---8-9---9-11---|
|--x--x--x-x-x-x-x-x-|-x---x-x---x--x---|
|--9--9--9-6-6-6-6-6-|-6---6-7---7--9---|
|--------------------|---x-----x------x-|
|--------------------|------------------|
|
|                        PM    PM     PM
|  E  E  E E E E E E   E E E E E E  E E
|--------------------|------------------|
|--------------------|------------------|
|--------------------|------------------|
|--------------------|------------------|
|--2--2--2-2-2-2-2-2-|-6---6-7---7--9---|
|--2--2--2-2-2-2-2-2-|----------------7-|
|--0--0--0-0-0-0-0-0-|---7-----0--------|


    E  E  E E E E E E     E  E  E E E  E  E  E    E  E  E E E E E E
|---------------------|------------------------|--------------------|
|---------------------|------------------------|--------------------|
|-/12-12-12-9-9-9-9-9-|-/12-12-12-9-9-12-12-11-|-11-11-11-8-8-8-8-8-|
|---x--x--x-x-x-x-x-x-|---x--x--x-x-x--x--x--x-|--x--x--x-x-x-x-x-x-|
|-/10-10-10-7-7-7-7-7-|-/10-10-10-7-7-10-10--9-|--9--9--9-6-6-6-6-6-|
|---------------------|------------------------|--------------------|
|---------------------|------------------------|--------------------|
|
|   E  E  E E E E E E     E  E  E E E  E  E  E    E  E  E E E E E E
|---------------------|------------------------|--------------------|
|---------------------|------------------------|--------------------|
|---------------------|------------------------|--------------------|
|---2--2--2-2-2-2-2-2-|---2--2--2-2-2--2--2--2-|--------------------|
|---2--2--2-2-2-2-2-2-|---2--2--2-2-2--2--2--2-|--2--2--2-2-2-2-2-2-|
|---0--0--0-0-0-0-0-0-|---0--0--0-0-0--0--0--0-|--2--2--2-2-2-2-2-2-|
|---------------------|------------------------|--0--0--0-0-0-0-0-0-|


   Q.    Q.    Q     Q.    Q.    Q
|-----------------|-----------------|
|-----------------|-----------------|
|-11----11----11--|-11----11----11--|
|--x-----x-----x--|--x-----x-----x--|
|--9-----9-----9--|--9-----9-----9--|
|-----------------|-----------------|
|-----------------|-----------------|
|
|  Q.    Q.    Q     Q.    Q.    Q
|-----------------|-----------------|
|-----------------|-----------------|
|-----------------|-----------------|
|-----------------|-----------------|
|--2-----2-----2--|--6-----6-----6--|
|--2-----2-----2--|--6-----6-----6--|
|--0-----0-----0--|--4-----4-----4--|


  W          +W           +W           +W
|----------|------------|------------|--------*|
|----------|------------|------------|--------*|
|-9--------|-(9)--------|-(9)--------|-(9)----*|
|-x--------|-(x)--------|-(x)--------|-(x)----*|
|-7--------|-(7)--------|-(7)--------|-(7)----*|
|----------|------------|------------|--------*|
|----------|------------|------------|--------*|
|
| W          +W           +W           +W
|----------|------------|------------|--------*|
|----------|------------|------------|--------*|
|----------|------------|------------|--------*|
|----------|------------|------------|--------*|
|-7--------|-(7)--------|-(7)--------|-(7)----*|
|-7--------|-(7)--------|-(7)--------|-(7)----*|
|-5--------|-(5)--------|-(5)--------|-(5)----*|


Duration Legend
---------------
W - whole; H - half; Q - quarter; E - 8th; S - 16th; T - 32nd; X - 64th; a - acciaccatura
+ - note tied to previous; . - note dotted; .. - note double dotted
Uncapitalized letters represent notes that are staccato (1/2 duration)
Irregular groupings are notated above the duration line
Duration letters will always appear directly above the note/fret number it represents the
duration for.  Duration letters with no fret number below them represent rests.  Multi-
bar rests are notated in the form Wxn, where n is the number of bars to rest for.  Low
melody durations appear below the staff

Tablature Legend
----------------
 h   - hammer-on
 p   - pull-off
 b   - bend
 pb  - pre-bend
 r   - bend release (if no number after the r, then release immediately)
 /\  - slide into or out of (from/to "nowhere")
 s   - legato slide
 S   - shift slide
  - natural harmonic
[n]  - artificial harmonic
n(n) - tapped harmonic
 ~   - vibrato
 tr  - trill
 T   - tap
 TP  - trem. picking
 PM  - palm muting
\n/  - tremolo bar dip; n = amount to dip
 \n  - tremolo bar down
 n/  - tremolo bar up
/n\  - tremolo bar inverted dip
 =   - hold bend; also acts as connecting device for hammers/pulls
 <>  - volume swell (louder/softer)
 x   - on rhythm slash represents muted slash
 o   - on rhythm slash represents single note slash

Misc Legend
-----------
 |  - bar
||  - double bar
||o - repeat start
o|| - repeat end
*|  - double bar (ending)
 :  - bar (freetime)
 $  - Segno
 &  - Coda
Tempo markers -  = BPM(8/16=s8/s16), where s8 = swing 8ths, s16 = swing 16ths
comments
print report bad tab
11 comments total. Showing first comments.
0 reply
Lukige wrote on August 7 2008, 10:29 am

Thanks for crediting me.. although it should really have been me to contribute this.
To everyone else, this is taken from my powertab version on this site which I recommend getting! Please rate =P

0 reply
dandyhandy17 wrote on August 7 2008, 12:18 pm

true that, i promise not to take tabs from you anymore :)

0 reply
Majin Gaara wrote on August 10 2008, 11:01 pm

Alot of it's wrong.

I want to post or [tab]
guest
You may want to rate the tab now too:
select rating
Please do not post tabs as comments. Select "correction" instead!