Oops, an error
Loading. Please wait.

Like Light To Flies Tab

ver2
ver2

Solo

Whole song

More versions @911Tabs.com
8,871 views 1 this week
no commentswrite comment
1 2 3 4 5
worth learning
x 1
Autoscroll
+/-
esc
set tempo
stop
Contributor
Difficulty
advanced
WARNING: You are trying to view
                                    content from Ultimate-Guitar.com
                                    in an unauthorized application,
                                    which is prohibited.

                                    Please use an official Ultimate
                                    Guitar Tabs application for iPhone,
                                    iPad or Android to access legitimate
                                    chords, guitar, bass, and drum tabs
                                    from Ultimate-Guitar.com database.

                                    Type "ultimate guitar tabs" in Apple
                                    App Store's or Android Market's
                                    search to find the application.
Tuning (DADGBE) Drop D


Solo 1

|-----------------------|--------------------|-------------------------10-|
|-----------------------|--------------------|----------------10-11-13----|
|-----------------------|-------------7-10-9-|-(9)-7-9-10-9---------------|
|-----------------------|--------------------|----------------------------|
|-5---7-8-7-(7)-(7)-(7)-|-(7)-5-7-8-7--------|----------------------------|
|-----------------------|--------------------|----------------------------|


|-12-13-12-10---------------------------------------|
|-------------13-11-10-------------------10---------|
|----------------------12-14-12-10-12-12----12-12---|
|---------------------------------------------------|
|---------------------------------------------------|
|---------------------------------------------------|

|-------------------------|------------------------|
|-------------------------|------------------------|
|-15-15-15-15-15-15-14-14-|-(14)-----------(14)-14-|
|-------------------------|------------------------|
|-------------------------|------------------------|
|-------------------------|------------------------|                      

|-17------17----17------15-------|-12-13-12-10-----------------------------------|
|--------------------------------|-------------13-11-10----------------10--------|
|----14------14------14----------|----------------------12-14-15-14-12----12-12--|
|--------------------------------|-----------------------------------------------|
|--------------------------------|-----------------------------------------------|
|--------------------------------|-----------------------------------------------|

                
|--------------------------------|--------------------------------|
|--------------------------------|--------------------------------|
|--------------------------------|--------------------------------|
|-12-(12)-13-12-10-12-(12)-------|-14-(14)-15-14-12-14-(14)-------|
|--------------------------------|--------------------------------|
|--------------------------------|--------------------------------|


|-------------------------------------------|-----------------------------|
|-------------------------------------------|-----------------------------|
|-12-(12)-14---(14)-15-14-(14)-15---(15)-17-|-15-15-14-12-14-15-14---(14)-|
|-------------------------------------------|-----------------------------|
|-------------------------------------------|-----------------------------|
|-------------------------------------------|-----------------------------|


|-17-17-15-13----------13-17-13-|-15-15-13-12----------12-15-12-|
|-------------15----15----------|-------------14----14----------|
|----------------14-------------|----------------15-------------|
|-------------------------------|-------------------------------|
|-------------------------------|-------------------------------|
|-------------------------------|-------------------------------|


|-18-18-17-15----------15-18-15-|-20-18-17----18-17-------17-----------------------|
|-------------18----17----------|----------20-------20-18----20-18-17-20-18-17-----|
|----------------19-------------|----------------------------------------------19--|
|-------------------------------|--------------------------------------------------|
|-------------------------------|--------------------------------------------------|
|-------------------------------|--------------------------------------------------|

Harmonised Solo
           Dm/A                     
 
  Gtr I

|-20b22----------------------|---------------------------------|
|-15-------------------------|-(15)----15-17-18-17-18-17-15-17-|
|----------------------------|------14-------------------------|
|----------------------------|---------------------------------|
|----------------------------|---------------------------------|
|----------------------------|---------------------------------|
|
| Gtr II
|                                        
|  
|----------------------------|---------------------------------|
|----------------------------|---------------------------------|
|----------------------------|---------------------------------|
|-12-------------------------|-(12)----12-14-15-14-15-14-12-14-|
|----------------------------|------12-------------------------|
|----------------------------|---------------------------------|


|  Q     E  E  +E   +E   +E   +E     +E   E  E  E  E  E  E  +E
|-------15-15-(15)-(15)-(15)-(15)-|-(15)-22-22-18-18-20-20-(20)---|
|-18------------------------------|-------------------------------|
|---------------------------------|-------------------------------|
|---------------------------------|-------------------------------|
|---------------------------------|-------------------------------|
|---------------------------------|-------------------------------|
|
|  Q     E  E  +E   +E   +E   +E     +E   E  E  E  E  E  E  +E
|---------------------------------|-------------------------------|
|---------------------------------|-------------------------------|
|-------12-12-(12)-(12)-(12)-(12)-|-(12)-19-19-15-15-17-17-(17)---|
|-15------------------------------|-------------------------------|
|---------------------------------|-------------------------------|
|---------------------------------|-------------------------------|



  Gtr I
                          
|-------------------------|---------------------------------|
|-15----------------------|-(15)----15-17-18-17-18-17-15-17-|
|-------------------------|------14-------------------------|
|-------------------------|---------------------------------|
|-------------------------|---------------------------------|
|-------------------------|---------------------------------|
|
| Gtr II
|                                            
|  
|-------------------------|---------------------------------|
|-------------------------|---------------------------------|
|-------------------------|---------------------------------|
|-12----------------------|-(12)----12-14-15-14-15-14-12-14-|
|-------------------------|------12-------------------------|
|-------------------------|---------------------------------|




| 
|-------15-15-(15)-17-(17)-18-|-18-20-20-22-22-(22)-(22)-(22)---|
|-18--------------------------|---------------------------------|
|-----------------------------|---------------------------------|
|-----------------------------|---------------------------------|
|-----------------------------|---------------------------------|
|-----------------------------|---------------------------------|
|
|-----------------------------|---------------------------------|
|-----------------------------|---------------------------------|
|-------12-12-(12)-14-(14)-15-|-15-17-17-19-19-(19)-(19)-(19)---|
|-15--------------------------|---------------------------------|
|-----------------------------|---------------------------------|
|-----------------------------|---------------------------------|


 Solo 2
  
|---------------------------------------------|
|---------------------------------------------|
|------------------------------------------12-|
|-14-(14)-15-(15)-14-15-14-12-(12)-15-(15)----|
|---------------------------------------------|
|---------------------------------------------|

|-------------13-----------|----------------------------13-15-|
|-13b15--(13)----15--(15)--|----------------------13-15-------|
|--------------------------|-------------12-14-15-------------|
|--------------------------|----12-14-15----------------------|
|--------------------------|-15-------------------------------|
|--------------------------|----------------------------------|

|-17--(17)-17b18-15-(15)-(15)-(15)-|-17-15-17-15-------------15-17-|
|----------------------------------|-------------18-15-17-18-------|
|----------------------------------|-------------------------------|
|----------------------------------|-------------------------------|
|----------------------------------|-------------------------------|
|----------------------------------|-------------------------------|


|-20--(20)-20b21-17-(17)-(17)-(17)--|
|-----------------------------------|
|-----------------------------------|
|-----------------------------------|
|-----------------------------------|
|-----------------------------------|

|-18-17-18-17----17-------------|--------------------------|
|-------------18----18-17-15----|---------15-(15)-18-15----|
|----------------------------14-|-17-(17)------------------|
|-------------------------------|--------------------------|
|-------------------------------|--------------------------|
|-------------------------------|--------------------------|

|---------------------------------------------------|
|-13-15-13-10-13-15-13-10-13-15-13-10-13-15-13-10---|
|---------------------------------------------------|
|---------------------------------------------------|
|---------------------------------------------------|
|---------------------------------------------------|


|-------10-10-------10---10-------10---10-------10---10-|
|-13b15-------13b15---------13b15---------13b15---------|
|-------------------------------------------------------|
|-------------------------------------------------------|
|-------------------------------------------------------|
|-------------------------------------------------------|

|-12-------------13------------------|
|-15b17----------16b18---------------|
|------------------------------------|
|------------------------------------|
|------------------------------------|
|------------------------------------|

|-15----------------17--------(17)\-------|
|-18b20-------------20b22-----(22)\-------|
|-----------------------------------------|
|-----------------------------------------|
|-----------------------------------------|
|-----------------------------------------|

|-20-17----------17-20-17----------18-18-------|
|-------18----18----------18----18-------------|
|----------19----------------19----------------|
|----------------------------------------------|
|----------------------------------------------|
|----------------------------------------------|
  
|-20-17----------17-20-17----------------------|
|-------18----18----------18----18-20-20-------|
|----------19----------------19----------------|
|----------------------------------------------|
|----------------------------------------------|
|----------------------------------------------|
 
|-20-17----------17-20-17----------17-17-------|-20b22-(20)-20---(20)-17---22b24---------------|
|-------18----18----------18----18-------------|-----------------------------------------------|
|----------19----------------19----------------|-----------------------------------------------|
|----------------------------------------------|-----------------------------------------------|
|----------------------------------------------|-----------------------------------------------|
|----------------------------------------------|-----------------------------------------------|


comments
We did not receive enough feedback on this tab! Please rate:
print report bad tab
1 2 3 4 5
I want to post or [tab]
guest
You may want to rate the tab now too:
select rating
Please do not post tabs as comments. Select "correction" instead!