Oops, an error
Loading. Please wait.

Like Light To Flies Tab

ver1
ver1

Solo

Whole song

More versions @911Tabs.com
159,555 views 218 this week
62 commentsread comments
1 2 3 4 5
excellent!
x 81
Autoscroll
+/-
esc
set tempo
stop
WARNING: You are trying to view
                                    content from Ultimate-Guitar.com
                                    in an unauthorized application,
                                    which is prohibited.

                                    Please use an official Ultimate
                                    Guitar Tabs application for iPhone,
                                    iPad or Android to access legitimate
                                    chords, guitar, bass, and drum tabs
                                    from Ultimate-Guitar.com database.

                                    Type "ultimate guitar tabs" in Apple
                                    App Store's or Android Market's
                                    search to find the application.




ARTIST  :TRIVIUM
TITLE   :LIKE LIGHT TO FLIES
TABBED by :charles tristan



Intro

Guitar 1
E|--------|
B|--------|
G|-7----9-|
D|-x----x-|
A|-5----7-|
D|--------|

Guitar 2
E|---------|
B|---------|
G|---------|
D|-8----10-|
A|-8----10-|
D|-8----10-|

Verse
Guitars 1 and 2
E|-------------------------------------|
B|-------------------------------------|
G|-------------------------------------|
D|-------------------------------------|
A|-10--8--7--5--7-8-10--8--7--12--10-8-|
D|---00-00-00-00-0-0--00-00-00--00--0-0|
 pm  .. .. .. .. . .  .. .. ..  ..  . .

Guitar 1
E|-----------------------------------------|
B|-----------------------------------------|
G|-------------------10--9--7---14--12--10-|
D|--------------------x--x--x----x---x---x-|
A|-10--8--7--5--7-8---8--7--5---12--10---8-|
D|---00-00-00-00-0-0-----------------------|
pm   .. .. .. .. . .

Guitar 2
E|------------------------------------|
B|------------------------------------|
G|------------------------------------|
D|-------------------8---------10-----|
A|-10--8--7--5--7-8--8---------10-----|
D|---00-00-00-00-0-0-8---------10-----|
pm   .. .. .. .. . .

Guitars 1 and 2
E|-------------------------------------|
B|-------------------------------------|
G|-------------------------------------|
D|-------------------------------------|
A|-10--8--7--5--7-8-10--8--7--12--10-8-|
D|---00-00-00-00-0-0--00-00-00--00--0-0|
 pm  .. .. .. .. . .  .. .. ..  ..  . .

Guitar 1
E|-----------------------------------------|
B|-----------------------------------------|
G|-------------------10--9--7---14--12--10-|
D|--------------------x--x--x----x---x---x-|
A|-10--8--7--5--7-8---8--7--5---12--10---8-|
D|---00-00-00-00-0-0-----------------------|
pm   .. .. .. .. . .

Guitar 2
E|------------------------------------|
B|------------------------------------|
G|------------------------------------|
D|-------------------8---------10-----|
A|-10--8--7--5--7-8--8---------10-----|
D|---00-00-00-00-0-0-8---------10-----|
pm   .. .. .. .. . .



Verse Pt.2

Guitars 1 and 2                          
E|----------------------------------|     
B|----------------------------------|     
G|----------------------------------|     
D|-8p0------------------3---5---7---|     
A|-8p0--0-0-0-0-0-0-0-0-3-0-5-0-7-0-|     
D|-8p0--0-0-0-0-0-0-0-0-3-0-5-0-7-0-|
   pm   . . . . . . . .   .   .   . 

Guitar 1
E|----------------------------------|
B|----------------------------------|
G|----------------------10--9---7---|
D|-8p0------------------x---x---x---|
A|-8p0--0-0-0-0-0-0-0-0-8-0-7-0-5-0-|
D|-8p0--0-0-0-0-0-0-0-0---0---0---0-|
   pm   . . . . . . . .   .   .   .

Guitar 2
E|----------------------------------|
B|----------------------------------|
G|----------------------------------|
D|-8p0------------------7---5---3---|
A|-8p0--0-0-0-0-0-0-0-0-7-0-5-0-3-0-|
D|-8p0--0-0-0-0-0-0-0-0-7-0-5-0-3-0-|
   pm   . . . . . . . .   .   .   .

Guitars 1 and 2
E|----------------------------------|
B|----------------------------------|
G|----------------------------------| 
D|-8p0------------------3---5---7---|   
A|-8p0--0-0-0-0-0-0-0-0-3-0-5-0-7-0-|
D|-8p0--0-0-0-0-0-0-0-0-3-0-5-0-7-0-|
   pm   . . . . . . . .   .   .   . 

E|----------------------------------|
B|----------------------------------|
G|----------------------------------|
D|----------------------------------|
A|---------5---------------7--------|
D|-8-7-5-7---8-7-5-8-7-5-7---8-7-5--|

Repeat Verse Pt. 2

Prechorus
Guitars 1 and 2
E|------------------------------------|
B|------------------------------------|
G|------------------------------------|
D|----------7-------------------------|
A|-8--8--7-----8--5--8--8--7-8-10-8-7-|
D|--88-88-88-88-------88-88-8-8--8-8--|
 pm .. .. .. ..       .. .. . .  . .

Guitars 1 and 2
E|------------------------------------|
B|------------------------------------|
G|------------------------------------|
D|----------7-------------------------|
A|-8--8--7-----8--5--8--8--7-8-10-8-7-|
D|--00-00-00-00-------00-00-0-0--0-0--|
 pm .. .. .. ..       .. .. . .  . .

Guitar 1
E|------------------------------------|
B|------------------------------------|
G|------------------------------------|
D|----------7-------------------------|
A|-8--8--7-----8--5--8--8--7-8-10-8-7-|
D|--88-88-88-88-------88-88-8-8--8-8--|
 pm .. .. .. ..       .. .. . .  . .

Guitar 2
E|------------------------------------|
B|------------------------------------|
G|----------5-------------------------|
D|-7--7--5-----7--3--7--7--5-7-8--7-5-|
A|------------------------------------|
D|------------------------------------|

Guitar 1
E|------------------------------------|
B|------------------------------------|
G|------------------------------------|
D|----------7-------------------------|
A|-8--8--7-----8--5--8--8--7-8-10-8-7-|
D|--00-00-00-00-------00-00-0-0--0-0--|
 pm .. .. .. ..       .. .. . .  . .

Guitar 2
E|--------------------------------------|
B|--------------------------------------|
G|----------5--------7----9----10----12-|
D|-7--7--5-----7--3--x----x-----x-----x-|
A|-------------------5----7-----8----10-|
D|--------------------------------------|

Prechorus Pt. 2
Guitar 1
E|------------------------------------|
B|------------------------------------|
G|------------------------------------|
D|----------7-------------------------|
A|-8--8--7-----8--5--8--8--7-8-10-8-7-|
D|--88-88-88-88-------88-88-8-8--8-8--|
 pm .. .. .. ..       .. .. . .  . .

Guitar 2
E|-----------------------------------|
B|-----------------------------------|
G|-3-----------5--7------------9--10-|
D|-x-----------x--x------------x--x--|
A|-1-----------3--5------------7--8--|
D|-----------------------------------|

Guitar 1
E|------------------------------------|
B|------------------------------------|
G|------------------------------------|
D|----------7-------------------------|
A|-8--8--7-----8--5--8--8--7-8-10-8-7-|
D|--00-00-00-00-------00-00-0-0--0-0--|
 pm .. .. .. ..       .. .. . .  . .

Guitar 2
E|-----------------------------------|
B|-----------------------------------|
G|-(10)----------0-------------10--9-|
D|-(x)-----------x-------------x---x-|
A|-(8)-----------2-------------9---7-|
D|-----------------------------------|

Guitar 1
E|------------------------------------|
B|------------------------------------|
G|------------------------------------|
D|----------7-------------------------|
A|-8--8--7-----8--5--8--8--7-8-10-8-7-|
D|--88-88-88-88-------88-88-8-8--8-8--|
 pm .. .. .. ..       .. .. . .  . .

Guitar 2
E|-----------------------------------|
B|-----------------------------------|
G|-3-----------5--7------------9--10-|
D|-x-----------x--x------------x--x--|
A|-1-----------3--5------------7--8--|
D|-----------------------------------|

Guitar 1
E|------------------------------------|
B|------------------------------------|
G|------------------------------------|
D|----------7-------------------------|
A|-8--8--7-----8--5--8--8--7-8-10-8-7-|
D|--00-00-00-00-------00-00-0-0--0-0--|
 pm .. .. .. ..       .. .. . .  . .

Guitar 2
E|------------------------------------|
B|------------------------------------|
G|-(10)--------------14---------------|
D|-(x)----------------x---------------|
A|-(8)---------------12---------------|
D|------------------------------------|



Chorus
Guitar 1
E|-----------------------------------|
B|-----------------------------------|
G|-----------------------------------|
D|-------10-------8---------7--------|
A|-8-7-8------8-7-----8-7-8---10-8-7-|
D|-----------------------------------|

Guitar 2
E|-----------------------------------|
B|-----------------------------------|
G|-----------------------------------|
D|-0-----0-0-0-------8------8-8-8----|
A|-0-----0-0-0-------8------8-8-8----|
D|-0-----0-0-0-------8------8-8-8----|
 pm      . .                  . .  

Guitar 1
E|-----------------------------------|
B|-----------------------------------|
G|-----------------------------------|
D|-------10-------8---------7--------|
A|-8-7-8------8-7-----8-7-8---10-8-7-|
D|-----------------------------------|

Guitar 2
E|----------------------------------|
B|----------------------------------|
G|----------------------------------|
D|-3-----3-3-3-------7-------7-7-7--|
A|-3-----3-3-3-------7-------7-7-7--|
D|-3-----3-3-3-------7-------7-7-7--|
 pm      . .                   . .  

Guitar 1
E|-------------------------------------|
B|-------------------------------------|
G|-------------------------------------|
D|-------10---------8---------7--------|
A|-8-7-8------8-7-8-----8-7-8---10-8-7-|
D|-------------------------------------|

Guitar 2
E|-------------------------------------|
B|-------------------------------------|
G|-------------------------------------|
D|-0-----0-0-0---------8------8-8-8----|
A|-0-----0-0-0---------8------8-8-8----|
D|-0-----0-0-0---------8------8-8-8----|
 pm      . .                  . .  

Guitar 1
E|-------------------------------------|
B|-------------------------------------|
G|-------------------------------------|
D|-------10---------8---------7--------|
A|-8-7-8------8-7-8-----8-7-8---10-8-7-|
D|-------------------------------------|

Guitar 2
E|-------------------------------------|
B|-------------------------------------|
G|-------------------------------------|
D|-3-----3-3-3----------7------7-7-7---|
A|-3-----3-3-3----------7------7-7-7---|
D|-3-----3-3-3----------7------7-7-7---|
 pm      . .                   . .  


Repeat Verse Pt. 1 and 2
Repeat Prechorus Pt. 1. and 2
Repeat Chorus


Solo Intro
Guitar 1
E|---------------------------------------------|
B|---------------------------------------------|
G|---------------------------------------------|
D|------7--------5---------5-8---8-7--10-8-7---|
A|--5-8------4-7---7-4---7-------------------8-|
D|-0-0-0--000-0-0-------0-0-0-00----88---------|
pm . . .  ... . .      . . . ..    ..
                                                        x2
Guitar 2
E|---------------------------------------------|
B|---------------------------------------------|
G|---------------------------------------------|
D|-0-------------------------------------------|
A|-0-------------------------------------------|
D|-0-------------------------------------------|


Solo

Guitar 2 plays this underneath solo
E|---------------------------------------------|
B|---------------------------------------------|
G|---------------------------------------------|
D|------7--------5---------5-8---8-7--10-8-7---|  4x
A|--5-8------4-7---7-4---7-------------------8-|
D|-0-0-0--000-0-0-------0-0-0-00----88---------|
pm . . .  ... . .      . . . ..    ..

Guitar 1
E|-------------------------------------------10h12h13-12-10-------------------------------|
B|-----------------------------------10h11h13--------------13p11p10---------------10------|
G|----------------7-10-9--7-9-10-9----------------------------------12h14h12p10-12--12-12-|
D|----------------------------------------------------------------------------------------|
A|-5--7-8-7--5-7--------------------------------------------------------------------------|
D|----------------------------------------------------------------------------------------|

E|--------------------------17--17--15-12h13p12p10------------------------------|
B|------------------------------------------------13p11p10--------------10------|
G|-15-15-15-15-15-14-14~~-14--14--14----------------------12h14h12p10-12--12-12-|
D|------------------------------------------------------------------------------|
A|------------------------------------------------------------------------------|
D|------------------------------------------------------------------------------|

E|-------------------------------------------------------------------------|
B|-------------------------------------------------------------------------|
G|---------------------------------12-14-15-14-15-17-15p14h15-12-14-15-14~-|
D|-12h13p12-10-12--14h15p14-12-14------------------------------------------|
A|-------------------------------------------------------------------------|
D|-------------------------------------------------------------------------|

E|-17p15p13------13-17-13--15p13p12------12-15-12--18p17p15------15-18-15-|
B|---------15--15------------------14--14------------------17--17---------|
G|-----------14----------------------15----------------------18-----------|
D|------------------------------------------------------------------------|
A|------------------------------------------------------------------------|
D|------------------------------------------------------------------------|

E|-20-18-17--18-17-----17-------------------22---|
B|---------20-----20-18--20-18-17-20-18-17-------|
G|----------------------------------------19-----|
D|-----------------------------------------------|
A|-----------------------------------------------|
D|-----------------------------------------------|  



Guitar 2 (Clean)

E|-------13-13--------12-12--------10-10--------12-|
B|----15-15-15-----13-13-13-----11-11-10-----13-13-|
G|-14----14-14--12----12-12--10----10-10--12----12-|
D|-------------------------------------------------|               2x
A|-------------------------------------------------|
D|-------------------------------------------------|

Guitar 1
E|------------------------------15-15---22-22-18-18-20-20-|
B|---15-17-18-17h18p17-15-17-18---------------------------|
G|-14-----------------------------------------------------|
D|--------------------------------------------------------|
A|--------------------------------------------------------|
D|--------------------------------------------------------|

E|-----------------------------------15-15--17--18-18-20-20-22-22-|
B|-15------15-17-18-17h18p17-15-17-18-----------------------------|
G|-------14-------------------------------------------------------|
D|----------------------------------------------------------------|
A|----------------------------------------------------------------|
D|----------------------------------------------------------------|



Guitar 2
E|--------------------------------------------|
B|--------------------------------------------|
G|--------------------------------------------|
D|-0----------3------------5-----------8----7-|  4x
A|-0----------3------------5-----------8----7-|
D|-0----------3------------5-----------8----7-|

E|------------------------------------------------------13-15-17b(18)r17-15-|
B|-----------------------15-18-15------------------13-15--------------------|
G|---------------------12------------------12-14-15-------------------------|
D|-14-15-14h15p14-12-15------------12-14-15---------------------------------|
A|-------------------------------15-----------------------------------------|
D|--------------------------------------------------------------------------|

E|-17-15h17p15-----------15-17-20--22-17--18-17h18p17--17----------------------|
B|------------17-15-17-18----------------------------18--18-17-15-----15-18-15-|
G|---------------------------------------------------------------14-17---------|
D|-----------------------------------------------------------------------------|
A|-----------------------------------------------------------------------------|
D|-----------------------------------------------------------------------------|

E|------------------------------------10-10-------10-10-------10-10-------10-10-|
B|-13b(15)r13p10-13b(15)r13p10-13b(15)-----13b(15)-----13b(15)-----13b(15)------|
G|------------------------------------------------------------------------------|
D|------------------------------------------------------------------------------|
A|------------------------------------------------------------------------------|
D|------------------------------------------------------------------------------|

E|-12--13--15--17---20-17------17-20-17------18--20-17------17-20----------|
B|-----------------------18--18--------18--18---------18--18-----18--18-20-|
G|-------------------------19------------19-------------19---------19------|
D|-------------------------------------------------------------------------|
A|-------------------------------------------------------------------------|
D|-------------------------------------------------------------------------|

E|-20-17------17-20-17------17---20b(22)r20-17-24~~~-|
B|------18--18--------18--18-------------------------|
G|--------19------------19---------------------------|
D|---------------------------------------------------|
A|---------------------------------------------------|
D|---------------------------------------------------|


Bridge

Guitar 1
E|-------------------------------------|
B|-------------------------------------|
G|-------------------------------------|
D|-------------------------------------|
A|-10--8--7--5--7-8-10--8--7--12--10-8-|
D|---00-00-00-00-0-0--00-00-00--00--0-0|
 pm  .. .. .. .. . .  .. .. ..  ..  . .

Guitar 2
E|-------------------------------------|
B|-------------------------------------|
G|-------------------------------------|
D|-0----------------0------------------|
A|-0----------------0------------------|
D|-0----------------0------------------|

Guitar 1
E|-----------------------------------------|
B|-----------------------------------------|
G|-------------------10--9--7---14--12--10-|
D|--------------------x--x--x----x---x---x-|
A|-10--8--7--5--7-8---8--7--5---12--10---8-|
D|---00-00-00-00-0-0-----------------------|
pm   .. .. .. .. . .

Guitar 2
E|------------------------------------|
B|------------------------------------|
G|------------------------------------|
D|-------------------8---------10-----|
A|-10--8--7--5--7-8--8---------10-----|
D|---00-00-00-00-0-0-8---------10-----|
pm   .. .. .. .. . .


Prechorus
Guitar 1
E|------------------------------------|
B|------------------------------------|
G|------------------------------------|
D|----------7-------------------------|
A|-8--8--7-----8--5--8--8--7-8-10-8-7-|
D|--88-88-88-88-------88-88-8-8--8-8--|
 pm .. .. .. ..       .. .. . .  . .

Guitar 2
E|-----------------------------------|
B|-----------------------------------|
G|-3-----------5--7------------9--10-|
D|-x-----------x--x------------x--x--|
A|-1-----------3--5------------7--8--|
D|-----------------------------------|

Guitar 1
E|------------------------------------|
B|------------------------------------|
G|------------------------------------|
D|----------7-------------------------|
A|-8--8--7-----8--5--8--8--7-8-10-8-7-|
D|--00-00-00-00-------00-00-0-0--0-0--|
 pm .. .. .. ..       .. .. . .  . .

Guitar 2
E|-----------------------------------|
B|-----------------------------------|
G|-(10)----------0-------------10--9-|
D|-(x)-----------x-------------x---x-|
A|-(8)-----------2-------------9---7-|
D|-----------------------------------|

Guitar 1
E|------------------------------------|
B|------------------------------------|
G|------------------------------------|
D|----------7-------------------------|
A|-8--8--7-----8--5--8--8--7-8-10-8-7-|
D|--88-88-88-88-------88-88-8-8--8-8--|
 pm .. .. .. ..       .. .. . .  . .

Guitar 2
E|-----------------------------------|
B|-----------------------------------|
G|-3-----------5--7------------9--10-|
D|-x-----------x--x------------x--x--|
A|-1-----------3--5------------7--8--|
D|-----------------------------------|

Guitar 1
E|------------------------------------|
B|------------------------------------|
G|------------------------------------|
D|----------7-------------------------|
A|-8--8--7-----8--5--8--8--7-8-10-8-7-|
D|--00-00-00-00-------00-00-0-0--0-0--|
 pm .. .. .. ..       .. .. . .  . .

Guitar 2
E|------------------------------------|
B|------------------------------------|
G|-(10)--------------14---------------|
D|-(x)----------------x---------------|
A|-(8)---------------12---------------|
D|------------------------------------|

Repeat Chorus

Octave Chorus
Guitar 1
E|-------8--------6----------5-------|      
B|-6-5-6------6-5------6-5-6---8-6-5-|
G|-----------------------------------|
D|-----------------------------------|
A|-----------------------------------|
D|-----------------------------------|

Guitar 2
E|-----------------------------------|
B|-----------------------------------|
G|-----------------------------------|
D|-0-----0-0-0-------8------8-8-8----|
A|-0-----0-0-0-------8------8-8-8----|
D|-0-----0-0-0-------8------8-8-8----|

Guitar 1
E|-------8--------6----------5-------|      
B|-6-5-6------6-5------6-5-6---8-6-5-|
G|-----------------------------------|
D|-----------------------------------|
A|-----------------------------------|
D|-----------------------------------|

Guitar 2
E|-----------------------------------|
B|-----------------------------------|
G|-----------------------------------|
D|-3-----3-3-3--------7------7-7-7---|
A|-3-----3-3-3--------7------7-7-7---|
D|-3-----3-3-3--------7------7-7-7---|
 pm      . .                   . .  

Guitar 1
E|-------8--------6----------5-------|      
B|-6-5-6------6-5------6-5-6---8-6-5-|
G|-----------------------------------|
D|-----------------------------------|
A|-----------------------------------|
D|-----------------------------------|

Guitar 2
E|-----------------------------------|
B|-----------------------------------|
G|-----------------------------------|
D|-0-----0-0-0-------8------8-8-8----|
A|-0-----0-0-0-------8------8-8-8----|
D|-0-----0-0-0-------8------8-8-8----|

Guitar 1
E|-------8--------6----------5-------|      
B|-6-5-6------6-5------6-5-6---8-6-5-|
G|-----------------------------------|
D|-----------------------------------|
A|-----------------------------------|
D|-----------------------------------|

Guitar 2
E|-----------------------------------|
B|-----------------------------------|
G|-----------------------------------|
D|-3-----3-3-3--------7------7-7-7---|
A|-3-----3-3-3--------7------7-7-7---|
D|-3-----3-3-3--------7------7-7-7---|
 pm      . .                   . .  


Last Note
Guitar 1
E|-10----|
B|-x-----|
G|-7-----|
D|-------|
A|-------|
D|-------|

Guitar 2
E|-------|
B|-------|
G|-------|
D|-0-----|
A|-0-----|
D|-0-----|

Done.
comments
print report bad tab
62 comments total. Showing first comments.
0 reply
TheFranMan wrote on December 20 2004, 12:00 am

excuse me. at least give me credit for that one man. posted at mxtabs.net. check the date.

0 reply
SexyJonisaJon wrote on December 24 2004, 12:00 am

good job man i like the tab

0 reply
TheFranMan wrote on January 1 2005, 12:00 am

give me my credit. spending 7 hours tabbing it out is a lot harder than copying and pasting it and putting your name on it. put my name on it man! i did this! gosh

I want to post or [tab]
guest
You may want to rate the tab now too:
select rating
Please do not post tabs as comments. Select "correction" instead!