Oops, an error
Loading. Please wait.

Like Light To The Flies Bass Tab

ver1
ver1

Whole song

More versions @911Tabs.com
391 views 1 this week
1 commentread comment
1 2 3 4 5
accurate
x 2
add to favorites launch autoscroll
font size
0
reset
Autoscroll
+/-
esc
set tempo
stop
Contributor
WARNING: You are trying to view
                                    content from Ultimate-Guitar.com
                                    in an unauthorized application,
                                    which is prohibited.

                                    Please use an official Ultimate
                                    Guitar Tabs application for iPhone,
                                    iPad or Android to access legitimate
                                    chords, guitar, bass, and drum tabs
                                    from Ultimate-Guitar.com database.

                                    Type "ultimate guitar tabs" in Apple
                                    App Store's or Android Market's
                                    search to find the application.
Intro (0:00)
G|---------------------------------|
D|---------------------------------|
A|---------------------------------|
D|-8---------------10--------------|
A|---------------------------------|
   1 + 2 + 3 + 4 + 1 + 2 + 3 + 4 +

G|------------------------------------------------------------------------------|
D|o-----------------------------------------------------------------------------|
A|o-----------------------------------------------------------------------------|
D|--17-0-0-15-0-0-14-0-0-12-0-0-14-0-15-0-17-0-0-15-0-0-14-0-0-19-0-0-17-0-15-0-|
A|------------------------------------------------------------------------------|
    1  + 2 +  3 + 4  + 1 +  2 + 3  + 4  + 1  + 2 +  3 + 4  + 1 +  2 + 3  + 4  +

G|--------------------------------------------------------------------------------|
D|-------------------------------------------------------------------------------o|
A|-------------------------------------------------------------------------------o|
D|-17-0-0-15-0-0-14-0-0-12-0-0-14-0-15-0-8-8-8-8-8-8-8-8-10-10-10-10-10-10-10-10--|
A|--------------------------------------------------------------------------------|
   1  + 2 +  3 + 4  + 1 +  2 + 3  + 4  + 1 + 2 + 3 + 4 + 1  +  2  +  3  +  4  +

0:20
G|------------------------------------------------------------------|
D|o-----------------------------------------------------------------|
A|o-----------------------------------------------------------------|
D|--8-0-0-0-0-0-0-0-0-0-3-0-5-0-7-0-8-0-0-0-0-0-0-0-0-0-8-0-5-0-7-0-|
A|------------------------------------------------------------------|
    1 + 2 + 3 + 4 + 1 + 2 + 3 + 4 + 1 + 2 + 3 + 4 + 1 + 2 + 3 + 4 +

G|-------------------------------------------------------------------------|
D|------------------------------------------------------------------------o|
A|-----------------------------------------8-------------------10---------o|
D|-8-0-0-0-0-0-0-0-0-0-3-0-5-0-7-0-8-8-8-8---8-7-8-10-10-10-10----10-9-10--|
A|-------------------------------------------------------------------------|
   1 + 2 + 3 + 4 + 1 + 2 + 3 + 4 + 1 + 2 + 3 + 4 + 1  +  2  +  3  +  4 +

0:38
G|----------------------------------------------------------------------|
D|----------------------------------------------------------------------|
A|-10-----8-----7-----12---10---8-----10-----8-----7--------------------|
D|----8-8---8-8---8-8----8----8----------8-8---8-8-----8-8-10--8-8-10---|
A|----------------------------------------------------------------------|
   1  + 2 + 3 + 4 + 1 +  2 +  3 + 4 + 1  + 2 + 3 + 4 + 1 + 2 + 3 + 4  +

G|---------------------------------------------------------------------------|
D|---------------------------------------------------------------------------|
A|----------------------------------------------------------5-7-8-7----------|
D|-17-0-0-15-0-0-14-0-0-19-0-0-17-0-15-0-17-0-0-15-0-0-14-0---------10-8-7---|
A|---------------------------------------------------------------------------|
   1  + 2 +  3 + 4  + 1 +  2 + 3  + 4  + 1  + 2 +  3 + 4  + 1 + 2 + 3  + 4 +

G|----------------------------------------------------------------------|
D|----------------------------------------------------------------------|
A|-10-----8-----7-----12---10---8-----10-----8-----7--------------------|
D|----8-8---8-8---8-8----8----8----------8-8---8-8-----8-8-10--8-8-10---|
A|----------------------------------------------------------------------|
   1  + 2 + 3 + 4 + 1 +  2 +  3 + 4 + 1  + 2 + 3 + 4 + 1 + 2 + 3 + 4  +

G|-----------------------------------------------------------------------|
D|-----------------------------------------------------------------------|
A|-----------------------------------------------------------------------|
D|-17-0-0-15-0-0-14-0-0-19-0-0-17-0-15-0-0-------0-------0---0---0---0---|
A|-----------------------------------------------------------------------|
   1  + 2 +  3 + 4  + 1 +  2 + 3  + 4  + 1 + 2 + 3 + 4 + 1 + 2 + 3 + 4 +

0:56
G|-----------------------------------------------------------------|
D|-----------------------------------------------------------------|
A|-------------------0---------------------------------------------|
D|-5-----3-----2---------5---3-----5-----3-----2-------------------|
A|---1-1---1-1---1-1---1---1---------1-1---1-1-----1-1-3---1-1-3---|
   1 + 2 + 3 + 4 + 1 + 2 + 3 + 4 + 1 + 2 + 3 + 4 + 1 + 2 + 3 + 4 +

G|--------------------------------------------------------------------------|
D|--------------------------------------------------------------------------|
A|--------------------------------------------------------------------------|
D|-17-0-0-15-0-0-14-0-0-19-0-0-17-0-15-0-17-0-0-15-0-0-14-0-----------------|
A|----------------------------------------------------------5---5---3---3---|
   1  + 2 +  3 + 4  + 1 +  2 + 3  + 4  + 1  + 2 +  3 + 4  + 1 + 2 + 3 + 4 +

G|-----------------------------------------------------------------|
D|-----------------------------------------------------------------|
A|-------------------0---------------------------------------------|
D|-5-----3-----2---------5---3-----5-----3-----2-------------------|
A|---1-1---1-1---1-1---1---1---------1-1---1-1-----1-1-3---1-1-3---|
   1 + 2 + 3 + 4 + 1 + 2 + 3 + 4 + 1 + 2 + 3 + 4 + 1 + 2 + 3 + 4 +

G|-----------------------------------------------------------------------|
D|-----------------------------------------------------------------------|
A|-----------------------------------------------------------------------|
D|-17-0-0-15-0-0-14-0-0-19-0-0-17-0-15-0-0-------0-------0---0---0---0---|
A|-----------------------------------------------------------------------|
   1  + 2 +  3 + 4  + 1 +  2 + 3  + 4  + 1 + 2 + 3 + 4 + 1 + 2 + 3 + 4 +

1:14
G|-----------------------------------------------------------------|
D|-----------------------------------------------------------------|
A|-5---5---5-5-5---5---5---5---5-----------------------------------|
D|---------------------------------8---8---8-8-8---8---8---8---8---|
A|-----------------------------------------------------------------|
   1 + 2 + 3 + 4 + 1 + 2 + 3 + 4 + 1 + 2 + 3 + 4 + 1 + 2 + 3 + 4 +

G|-----------------------------------------------------------------|
D|-----------------------------------------------------------------|
A|-----------------------------------------------------------------|
D|-3---3---3---3---3---3---3---3---7---7---7---7---7---7---7---7---|
A|-----------------------------------------------------------------|
   1 + 2 + 3 + 4 + 1 + 2 + 3 + 4 + 1 + 2 + 3 + 4 + 1 + 2 + 3 + 4 +

G|-----------------------------------------------------------------|
D|-----------------------------------------------------------------|
A|-5---5---5-5-5---5---5---5---5-----------------------------------|
D|---------------------------------8---8---8-8-8---8---8---8---8---|
A|-----------------------------------------------------------------|
   1 + 2 + 3 + 4 + 1 + 2 + 3 + 4 + 1 + 2 + 3 + 4 + 1 + 2 + 3 + 4 +

G|-----------------------------------------------------------------|
D|-----------------------------------------------------------------|
A|-----------------------------------------------------------------|
D|-3---3---3---3---3---3---3---3-----------------------------------|
A|---------------------------------0---0---8---7---8---7---5---3---|
   1 + 2 + 3 + 4 + 1 + 2 + 3 + 4 + 1 + 2 + 3 + 4 + 1 + 2 + 3 + 4 +

1:32
G|------------------------------------------------------------------------------|
D|o-----------------------------------------------------------------------------|
A|o-----------------------------------------------------------------------------|
D|--17-0-0-15-0-0-14-0-0-12-0-0-14-0-15-0-17-0-0-15-0-0-14-0-0-19-0-0-17-0-15-0-|
A|------------------------------------------------------------------------------|
    1  + 2 +  3 + 4  + 1 +  2 + 3  + 4  + 1  + 2 +  3 + 4  + 1 +  2 + 3  + 4  +

G|--------------------------------------------------------------------------------|
D|-------------------------------------------------------------------------------o|
A|-------------------------------------------------------------------------------o|
D|-17-0-0-15-0-0-14-0-0-12-0-0-14-0-15-0-8-8-8-8-8-8-8-8-10-10-10-10-10-10-10-10--|
A|--------------------------------------------------------------------------------|
   1  + 2 +  3 + 4  + 1 +  2 + 3  + 4  + 1 + 2 + 3 + 4 + 1  +  2  +  3  +  4  +

1:51
G|------------------------------------------------------------------|
D|o-----------------------------------------------------------------|
A|o-----------------------------------------------------------------|
D|--8-0-0-0-0-0-0-0-0-0-3-0-5-0-7-0-8-0-0-0-0-0-0-0-0-0-8-0-5-0-7-0-|
A|------------------------------------------------------------------|
    1 + 2 + 3 + 4 + 1 + 2 + 3 + 4 + 1 + 2 + 3 + 4 + 1 + 2 + 3 + 4 +

G|-------------------------------------------------------------------------|
D|------------------------------------------------------------------------o|
A|-----------------------------------------8-------------------10---------o|
D|-8-0-0-0-0-0-0-0-0-0-3-0-5-0-7-0-8-8-8-8---8-7-8-10-10-10-10----10-9-10--|
A|-------------------------------------------------------------------------|
   1 + 2 + 3 + 4 + 1 + 2 + 3 + 4 + 1 + 2 + 3 + 4 + 1  +  2  +  3  +  4 +

2:09
G|----------------------------------------------------------------------|
D|----------------------------------------------------------------------|
A|-10-----8-----7-----12---10---8-----10-----8-----7--------------------|
D|----8-8---8-8---8-8----8----8----------8-8---8-8-----8-8-10--8-8-10---|
A|----------------------------------------------------------------------|
   1  + 2 + 3 + 4 + 1 +  2 +  3 + 4 + 1  + 2 + 3 + 4 + 1 + 2 + 3 + 4  +

G|---------------------------------------------------------------------------|
D|---------------------------------------------------------------------------|
A|----------------------------------------------------------5-7-8-7----------|
D|-17-0-0-15-0-0-14-0-0-19-0-0-17-0-15-0-17-0-0-15-0-0-14-0---------10-8-7---|
A|---------------------------------------------------------------------------|
   1  + 2 +  3 + 4  + 1 +  2 + 3  + 4  + 1  + 2 +  3 + 4  + 1 + 2 + 3  + 4 +

G|----------------------------------------------------------------------|
D|----------------------------------------------------------------------|
A|-10-----8-----7-----12---10---8-----10-----8-----7--------------------|
D|----8-8---8-8---8-8----8----8----------8-8---8-8-----8-8-10--8-8-10---|
A|----------------------------------------------------------------------|
   1  + 2 + 3 + 4 + 1 +  2 +  3 + 4 + 1  + 2 + 3 + 4 + 1 + 2 + 3 + 4  +

G|-----------------------------------------------------------------------|
D|-----------------------------------------------------------------------|
A|-----------------------------------------------------------------------|
D|-17-0-0-15-0-0-14-0-0-19-0-0-17-0-15-0-0-------0-------0---0---0---0---|
A|-----------------------------------------------------------------------|
   1  + 2 +  3 + 4  + 1 +  2 + 3  + 4  + 1 + 2 + 3 + 4 + 1 + 2 + 3 + 4 +

2:27
G|-----------------------------------------------------------------|
D|-----------------------------------------------------------------|
A|-------------------0---------------------------------------------|
D|-5-----3-----2---------5---3-----5-----3-----2-------------------|
A|---1-1---1-1---1-1---1---1---------1-1---1-1-----1-1-3---1-1-3---|
   1 + 2 + 3 + 4 + 1 + 2 + 3 + 4 + 1 + 2 + 3 + 4 + 1 + 2 + 3 + 4 +

G|--------------------------------------------------------------------------|
D|--------------------------------------------------------------------------|
A|--------------------------------------------------------------------------|
D|-17-0-0-15-0-0-14-0-0-19-0-0-17-0-15-0-17-0-0-15-0-0-14-0-----------------|
A|----------------------------------------------------------5---5---3---3---|
   1  + 2 +  3 + 4  + 1 +  2 + 3  + 4  + 1  + 2 +  3 + 4  + 1 + 2 + 3 + 4 +

G|-----------------------------------------------------------------|
D|-----------------------------------------------------------------|
A|-------------------0---------------------------------------------|
D|-5-----3-----2---------5---3-----5-----3-----2-------------------|
A|---1-1---1-1---1-1---1---1---------1-1---1-1-----1-1-3---1-1-3---|
   1 + 2 + 3 + 4 + 1 + 2 + 3 + 4 + 1 + 2 + 3 + 4 + 1 + 2 + 3 + 4 +

G|-----------------------------------------------------------------------|
D|-----------------------------------------------------------------------|
A|-----------------------------------------------------------------------|
D|-17-0-0-15-0-0-14-0-0-19-0-0-17-0-15-0-0-------0-------0---0---0---0---|
A|-----------------------------------------------------------------------|
   1  + 2 +  3 + 4  + 1 +  2 + 3  + 4  + 1 + 2 + 3 + 4 + 1 + 2 + 3 + 4 +

2:45
G|-----------------------------------------------------------------|
D|-----------------------------------------------------------------|
A|-5---5---5-5-5---5---5---5---5-----------------------------------|
D|---------------------------------8---8---8-8-8---8---8---8---8---|
A|-----------------------------------------------------------------|
   1 + 2 + 3 + 4 + 1 + 2 + 3 + 4 + 1 + 2 + 3 + 4 + 1 + 2 + 3 + 4 +

G|-----------------------------------------------------------------|
D|-----------------------------------------------------------------|
A|-----------------------------------------------------------------|
D|-3---3---3---3---3---3---3---3---7---7---7---7---7---7---7---7---|
A|-----------------------------------------------------------------|
   1 + 2 + 3 + 4 + 1 + 2 + 3 + 4 + 1 + 2 + 3 + 4 + 1 + 2 + 3 + 4 +

G|-----------------------------------------------------------------|
D|-----------------------------------------------------------------|
A|-5---5---5-5-5---5---5---5---5-----------------------------------|
D|---------------------------------8---8---8-8-8---8---8---8---8---|
A|-----------------------------------------------------------------|
   1 + 2 + 3 + 4 + 1 + 2 + 3 + 4 + 1 + 2 + 3 + 4 + 1 + 2 + 3 + 4 +

G|-----------------------------------------------------------------|
D|-----------------------------------------------------------------|
A|-----------------------------------------------------------------|
D|-3---3---3---3---3---3---3---3-----------------------------------|
A|---------------------------------0---0---8---7---8---7---5---3---|
   1 + 2 + 3 + 4 + 1 + 2 + 3 + 4 + 1 + 2 + 3 + 4 + 1 + 2 + 3 + 4 +

3:03
G|-----------------------------------------------------------------|
D|-----------------------------------------------------------------|
A|-----------------------------------------------------------------|
D|-0---------------------------------------------------------------|
A|-----------------------------------------------------------------|
   1 + 2 + 3 + 4 + 1 + 2 + 3 + 4 + 1 + 2 + 3 + 4 + 1 + 2 + 3 + 4 +

G|-----------------------------------------------------------------|
D|-----------------------------------------------------------------|
A|---------------------------------------------------------3-1---3-|
D|-0-----------------------------------------------8-7-5-------3---|
A|-----------------------------------------------------------------|
   1 + 2 + 3 + 4 + 1 + 2 + 3 + 4 + 1 + 2 + 3 + 4 + 1 + 2 + 3 + 4 +

3:16
G|-----------------------------------------------------------------|
D|-----------------------------------------------------7-----------|
A|-5-----5-5-----5-4-4-4-4-4-4-4-4-------------------7---7---------|
D|---------------------------------8-8---8---8---8-7-------7-8-7-5-|
A|-----------------------------------------------------------------|
   1 + 2 + 3 + 4 + 1 + 2 + 3 + 4 + 1 + 2 + 3 + 4 + 1 + 2 + 3 + 4 +

G|-----------------------------------------------------------------|
D|-----------------------------------------------------7-----------|
A|---------------------------------------------------7---7---------|
D|---------------------------------8-8---8---8---8-7-------7-8-5---|
A|-5-----5-5-----5-4-4-4-4-4-4-4-4---------------------------------|
   1 + 2 + 3 + 4 + 1 + 2 + 3 + 4 + 1 + 2 + 3 + 4 + 1 + 2 + 3 + 4 +

G|-----------------------------------------------------------------|
D|-----------------------------------------------------7-----------|
A|-5-5---5---5----5-4-4---4---4--4-------------------7---7---------|
D|---------------------------------8-8---8---8---8-7-------7-8-7-5-|
A|-----------------------------------------------------------------|
   1 + 2 + 3 + 4 + 1 + 2 + 3 + 4 + 1 + 2 + 3 + 4 + 1 + 2 + 3 + 4 +

G|-----------------------------------------------------------------|
D|-----------------------------------------------------7-----------|
A|---------------------------------------------------7---7---------|
D|---------------------------------8-8---8---8---8-7-------7-8-5---|
A|-5-5---5---5---5-4-4---4---4---4---------------------------------|
   1 + 2 + 3 + 4 + 1 + 2 + 3 + 4 + 1 + 2 + 3 + 4 + 1 + 2 + 3 + 4 +

3:41
G|------------------------------------------------------------------|
D|-----0-----0-----0-----0-----0-------5-----5-----5-5-----3---5----|
A|---0-----0-----0-----0-----0---0---5-----5-----5-------3----------|
D|-0-----0-----0-----0-----0-------5-----5-----5--------------------|
A|------------------------------------------------------------------|
   1 + 2 + 3 + 4 + 1 + 2 + 3 + 4 + 1 + 2 + 3 + 4 + 1 + 2 + 3 + 4  +

G|--------------------------------------------------------------------|
D|-----0-----0-----0-----0-----0-------5-------5-------8---------10---|
A|---0-----0-----0-----0-----0---0---5---5---5---5---8--------10------|
D|-0-----0-----0-----0-----0-------5-------5-------8-------10---------|
A|--------------------------------------------------------------------|
   1 + 2 + 3 + 4 + 1 + 2 + 3 + 4 + 1 + 2 + 3 + 4 + 1 + 2 + 3  +  4  +

G|-----------------------------------------------------------------|
D|-----------------------------------------------------------------|
A|-----------------------------------------------------------------|
D|-0---------------3---------------5---------------8-------7-------|
A|-----------------------------------------------------------------|
   1 + 2 + 3 + 4 + 1 + 2 + 3 + 4 + 1 + 2 + 3 + 4 + 1 + 2 + 3 + 4 +

G|-----------------------------------------------------------------|
D|-----------------------------------------------------------------|
A|-----------------------------------------------------------------|
D|-0---------------3---------------5---------------8-8-8-8-7-7-7-7-|
A|-----------------------------------------------------------------|
   1 + 2 + 3 + 4 + 1 + 2 + 3 + 4 + 1 + 2 + 3 + 4 + 1 + 2 + 3 + 4 +

G|--------------------------------------------------------------------|
D|o------------------------------------------------------------------o|
A|--------------------------------------------------------------------|
D|o-0000000000000000333333333333333355555555555555558888888877777777-o|
A|--------------------------------------------------------------------|
    1 + 2 + 3 + 4 + 1 + 2 + 3 + 4 + 1 + 2 + 3 + 4 + 1 + 2 + 3 + 4 +

G|-----------------------------------------------------------------|
D|-----------------------------------------------------------------|
A|-----------------------------------------------------------------|
D|-0-r-----------------------------0-----------------------------/-|
A|-----------------------------------------------------------------|
   1 + 2 + 3 + 4 + 1 + 2 + 3 + 4 + 1 + 2 + 3 + 4 + 1 + 2 + 3 + 4 +

G|-----------------------------------------------------------------------|
D|-----------------------------------------------------------------------|
A|-----------------------------------------------------------------------|
D|-17-0-0-15-0-0-14-0-0-12-0-0-14-0-15-0-8---------------10--------------|
A|-----------------------------------------------------------------------|
   1  + 2 +  3 + 4  + 1 +  2 + 3  + 4  + 1 + 2 + 3 + 4 + 1 + 2 + 3 + 4 +

4:26
G|-----------------------------------------------------------------|
D|-----------------------------------------------------------------|
A|-------------------0---------------------------------------------|
D|-5-----3-----2---------5---3-----5-----3-----2-------------------|
A|---1-1---1-1---1-1---1---1---------1-1---1-1-----1-1-3---1-1-3---|
   1 + 2 + 3 + 4 + 1 + 2 + 3 + 4 + 1 + 2 + 3 + 4 + 1 + 2 + 3 + 4 +

G|--------------------------------------------------------------------------|
D|--------------------------------------------------------------------------|
A|--------------------------------------------------------------------------|
D|-17-0-0-15-0-0-14-0-0-19-0-0-17-0-15-0-17-0-0-15-0-0-14-0-----------------|
A|----------------------------------------------------------5---5---3---3---|
   1  + 2 +  3 + 4  + 1 +  2 + 3  + 4  + 1  + 2 +  3 + 4  + 1 + 2 + 3 + 4 +

G|-----------------------------------------------------------------|
D|-----------------------------------------------------------------|
A|-------------------0---------------------------------------------|
D|-5-----3-----2---------5---3-----5-----3-----2-------------------|
A|---1-1---1-1---1-1---1---1---------1-1---1-1-----1-1-3---1-1-3---|
   1 + 2 + 3 + 4 + 1 + 2 + 3 + 4 + 1 + 2 + 3 + 4 + 1 + 2 + 3 + 4 +

G|-----------------------------------------------------------------------|
D|-----------------------------------------------------------------------|
A|-----------------------------------------------------------------------|
D|-17-0-0-15-0-0-14-0-0-19-0-0-17-0-15-0-0-------0-------0---0---0---0---|
A|-----------------------------------------------------------------------|
   1  + 2 +  3 + 4  + 1 +  2 + 3  + 4  + 1 + 2 + 3 + 4 + 1 + 2 + 3 + 4 +

4:45
G|-----------------------------------------------------------------|
D|-----------------------------------------------------------------|
A|-5---5---5-5-5---5---5---5---5-----------------------------------|
D|---------------------------------8---8---8-8-8---8---8---8---8---|
A|-----------------------------------------------------------------|
   1 + 2 + 3 + 4 + 1 + 2 + 3 + 4 + 1 + 2 + 3 + 4 + 1 + 2 + 3 + 4 +

G|-----------------------------------------------------------------|
D|-----------------------------------------------------------------|
A|-----------------------------------------------------------------|
D|-3---3---3---3---3---3---3---3---7---7---7---7---7---7---7---7---|
A|-----------------------------------------------------------------|
   1 + 2 + 3 + 4 + 1 + 2 + 3 + 4 + 1 + 2 + 3 + 4 + 1 + 2 + 3 + 4 +

G|-----------------------------------------------------------------|
D|-----------------------------------------------------------------|
A|-5---5---5-5-5---5---5---5---5-----------------------------------|
D|---------------------------------8---8---8-8-8---8---8---8---8---|
A|-----------------------------------------------------------------|
   1 + 2 + 3 + 4 + 1 + 2 + 3 + 4 + 1 + 2 + 3 + 4 + 1 + 2 + 3 + 4 +

G|-----------------------------------------------------------------|
D|-----------------------------------------------------------------|
A|-----------------------------------------------------------------|
D|-3---3---3---3---3---3---3---3-----------------------------------|
A|---------------------------------0---0---0---0---0---0---0---0---|
   1 + 2 + 3 + 4 + 1 + 2 + 3 + 4 + 1 + 2 + 3 + 4 + 1 + 2 + 3 + 4 +

G|-----------------------------------------------------------------|
D|-----------------------------------------------------------------|
A|-5---5---5-5-5---5---5---5---5-----------------------------------|
D|---------------------------------8---8---8-8-8---8---8---8---8---|
A|-----------------------------------------------------------------|
   1 + 2 + 3 + 4 + 1 + 2 + 3 + 4 + 1 + 2 + 3 + 4 + 1 + 2 + 3 + 4 +

G|-----------------------------------------------------------------|
D|-----------------------------------------------------------------|
A|-----------------------------------------------------------------|
D|-3---3---3---3---3---3---3---3---7---7---7---7---7---7---7---7---|
A|-----------------------------------------------------------------|
   1 + 2 + 3 + 4 + 1 + 2 + 3 + 4 + 1 + 2 + 3 + 4 + 1 + 2 + 3 + 4 +

G|-----------------------------------------------------------------|
D|-----------------------------------------------------------------|
A|-5---5---5-5-5---5---5---5---5-----------------------------------|
D|---------------------------------8---8---8-8-8---8---8---8---8---|
A|-----------------------------------------------------------------|
   1 + 2 + 3 + 4 + 1 + 2 + 3 + 4 + 1 + 2 + 3 + 4 + 1 + 2 + 3 + 4 +

G|-----------------------------------------------------------------|
D|-----------------------------------------------------------------|
A|-----------------------------------------------------------------|
D|-3---3---3---3---3---3---3---3-----------------------------------|
A|---------------------------------0---0---8---7---8---7---5---3---|
   1 + 2 + 3 + 4 + 1 + 2 + 3 + 4 + 1 + 2 + 3 + 4 + 1 + 2 + 3 + 4 +

G|-----------------------------------------------------------------|
D|-----------------------------------------------------------------|
A|-----------------------------------------------------------------|
D|-0---------------------------------------------------------------|
A|-----------------------------------------------------------------|
   1 + 2 + 3 + 4 + 1 + 2 + 3 + 4 + 1 + 2 + 3 + 4 + 1 + 2 + 3 + 4 +
comments
We did not receive enough feedback on this tab! Please rate:
print report bad tab
1 2 3 4 5
1 comment total.
0 reply
henrihell wrote on April 29 2013, 05:24 pm

The notes are mostly right, but it could be played much easier without going to those highest frets on the D-string.
In many parts you have put the bass to play the same thing as the guitar even if it shouldn't. For instance the pre-chorus is just the root note.

I want to post or [tab]
guest
You may want to rate the tab now too:
select rating
Please do not post tabs as comments. Select "correction" instead!