Oops, an error
Loading. Please wait.

Like Light To The Flies Tab

ver1
ver1

Whole song

More versions @911Tabs.com
30,333 views 42 this week
6 commentsread comments
1 2 3 4 5
accurate
x 11
Autoscroll
+/-
esc
set tempo
stop
Contributor
Difficulty
Tuning
advanced
D A D G B E
Hey! There's an official Ultimate Guitar app which is ideal
for learning songs when you're away from computer. Get the app
WARNING: You are trying to view
                                    content from Ultimate-Guitar.com
                                    in an unauthorized application,
                                    which is prohibited.

                                    Please use an official Ultimate
                                    Guitar Tabs application for iPhone,
                                    iPad or Android to access legitimate
                                    chords, guitar, bass, and drum tabs
                                    from Ultimate-Guitar.com database.

                                    Type "ultimate guitar tabs" in Apple
                                    App Store's or Android Market's
                                    search to find the application.
TRIVIUM – LIKE LIGHT TO THE FLIES
ASCENDANCY

E, B, G, D, A, D

Intro:
|-----------------------------------|
|-----------------------------------|
|-----------------------------------|
|--8~~~~~~~~~~~~~~10~~~~~~~~~~~~~~--|
|--8~~~~~~~~~~~~~~10~~~~~~~~~~~~~~--|
|--8~~~~~~~~~~~~~~10~~~~~~~~~~~~~~--|
|
|
|-----------------------------------|
|-----------------------------------|
|--7~~~~~~~~~~~~~~-9~~~~~~~~~~~~~~--|
|--x---------------x----------------|
|--5~~~~~~~~~~~~~~-7~~~~~~~~~~~~~~--|
|-----------------------------------|

Verse:
|-------------------------------------------------------------------|
|-------------------------------------------------------------------|
|o------------------------------------------------------------------|
|o------------------------------------------------------------------|
|-10-----8-----7-----5-----7---8--10-----8-----7----12----10---8----|
|----0-0---0-0---0-0---0-0---0---0---0-0---0-0---0-0---0-0---0---0--|
     ...   ...   ...   ...   .   .   ...   ...   ...   ...   .   .

|-------------------------------------------------------------------|
|-------------------------------------------------------------------|
|------------------------------------------------------------------o|
|----------------------------------8~~~~~~~~~~~~~~10~~~~~~~~~~~~~~-o|
|-10-----8-----7-----5-----7---8---8~~~~~~~~~~~~~~10~~~~~~~~~~~~~~--|
|----0-0---0-0---0-0---0-0---0---0-8~~~~~~~~~~~~~~10~~~~~~~~~~~~~~--|
|    ...   ...   ...   ...   .   .
|
|-------------------------------------------------------------------|
|-------------------------------------------------------------------|
|---------------------------------10~~~~-9~~~~-7~~14~~~~12~~~~10~~-o|
|----------------------------------x-----x-----x---x-----x-----x---o|
|-10-----8-----7-----5-----7---8---8~~~~-7~~~~-5~~12~~~~10~~~~-8~~--|
|----0-0---0-0---0-0---0-0---0---0----------------------------------|
     ...   ...   ...   ...   .   .

|-------------------------------------------------------------------|
|-------------------------------------------------------------------|
|o--------------------------------------------------10-----9---7----|
|o-8p0---------------3-----5---7---8p0---------------x-----x---x----|
|--8p0-0-0-0-0-0-0-0-3-0-0-5-0-7-0-8p0-0-0-0-0-0-0-0-8-----7---5----|
|--8p0-0-0-0-0-0-0-0-3-0-0-5-0-7-0-8p0-0-0-0-0-0-0-0---0-0---0---0--|
       .............   ...   .   .     .............   ...   .   .

|-------------------------------------------------------------------|
|-------------------------------------------------------------------|
|------------------------------------------------------------------o|
|--8p0---------------3-----5---7-----------------------------------o|
|--8p0-0-0-0-0-0-0-0-3-0-0-5-0-7-0---------7---------------7--------|
|--8p0-0-0-0-0-0-0-0-3-0-0-5-0-7-0-8-7-810--10-8-7-8-7-810--10-8-7--|
|      .............   ...   .   .
|
|-------------------------------------------------------------------|
|-------------------------------------------------------------------|
|------------------------------------------------------------------o|
|--8p0---------------3-----5---7-----------------------------------o|
|--8p0-0-0-0-0-0-0-0-3-0-0-5-0-7-0---------8--------------10--------|
|--8p0-0-0-0-0-0-0-0-3-0-0-5-0-7-0-8-0-810--10-8-010-01012--1210-0--|
       .............   ...   .   .

Pre-chorus:
|-------------------------------------------------------------------|
|-------------------------------------------------------------------|
|-------------------------------------------------------------------|
|--------------------7------------------------------------------hp--|
|--8-----8-----7-----------8---5---8-----8-----7---8--10---8---787--|
|----8-8---8-8---8-8---8-8---8---8---8-8---8-8---8---8---8---8------|
     ...   ...   ...   ...   .   .   ...   ...   .   .   .   .

|-------------------------------------------------------------------|
|-------------------------------------------------------------------|
|-------------------------------------------------------------------|
|--------------------7------------------------------------------hp--|
|--8-----8-----7-----------8---5---8-----8-----7---8--10---8---787--|
|----0-0---0-0---0-0---0-0---0---0---0-0---0-0---0---0---0---0------|
     ...   ...   ...   ...   .   .   ...   ...   .   .   .   .

|-------------------------------------------------------------------|
|-------------------------------------------------------------------|
|--------------------5------------------------------------------hp--|
|--7-----7-----5-----------7-------7-----7-----5---7---8---7---575--|
|------------------------------8------------------------------------|
|----8-8---8-8---8-8---8-8---8---8---8-8---8-8---8---8---8---8------|
|    ...   ...   ...   ...   .   .   ...   ...   .   .   .   .
|
|-------------------------------------------------------------------|
|-------------------------------------------------------------------|
|-------------------------------------------------------------------|
|--------------------7------------------------------------------hp--|
|--8-----8-----7-----------8---5---8-----8-----7---8--10---8---787--|
|----8-8---8-8---8-8---8-8---8---8---8-8---8-8---8---8---8---8------|
     ...   ...   ...   ...   .   .   ...   ...   .   .   .   .

|-------------------------------------------------------------------|
|-------------------------------------------------------------------|
|--------------------5-------------7-7-7-7-9-9-9-91010101012121212--|
|--7-----7-----5-----------7-------x-x-x-x-x-x-x-x-x-x-x-x-x-x-x-x--|
|------------------------------8---5-5-5-5-7-7-7-7-8-8-8-810101010--|
|----0-0---0-0---0-0---0-0---0---0----------------------------------|
|    ...   ...   ...   ...   .   .
|
|-------------------------------------------------------------------|
|-------------------------------------------------------------------|
|-------------------------------------------------------------------|
|--------------------7------------------------------------------hp--|
|--8-----8-----7-----------8---5---8-----8-----7---8--10---8---787--|
|----8-8---8-8---8-8---8-8---8---8---8-8---8-8---8---8---8---8------|
     ...   ...   ...   ...   .   .   ...   ...   .   .   .   .

|-------------------------------------------------------------------|
|-------------------------------------------------------------------|
|--3~~~~~~~~~~~~~~~~~~~~~~-5~~~~~~-7~~~~~~~~~~~~~~~~~~~~~~-9~~~~~~--|
|--x-----------------------x-------x-----------------------x--------|
|--1~~~~~~~~~~~~~~~~~~~~~~-3~~~~~~-5~~~~~~~~~~~~~~~~~~~~~~-7~~~~~~--|
|-------------------------------------------------------------------|
|
|
|-------------------------------------------------------------------|
|-------------------------------------------------------------------|
|-------------------------------------------------------------------|
|--------------------7------------------------------------------hp--|
|--8-----8-----7-----------8---5---8-----8-----7---8--10---8---787--|
|----8-8---8-8---8-8---8-8---8---8---8-8---8-8---8---8---8---8------|
     ...   ...   ...   ...   .   .   ...   ...   .   .   .   .

|-------------------------------------------------------------------|
|-------------------------------------------------------------------|
|-10~~~~~~~~~~~~~~~~~~~~~~~~~~~~~~-2~~~~~~~~~~~~~~10~~~~~~-9~~~~~~--|
|--x-------------------------------x---------------x-------x--------|
|--8~~~~~~~~~~~~~~~~~~~~~~~~~~~~~~-0~~~~~~~~~~~~~~-8~~~~~~-7~~~~~~--|
|-------------------------------------------------------------------|
|
|
|-------------------------------------------------------------------|
|-------------------------------------------------------------------|
|-------------------------------------------------------------------|
|--------------------7------------------------------------------hp--|
|--8-----8-----7-----------8---5---8-----8-----7---8--10---8---787--|
|----8-8---8-8---8-8---8-8---8---8---8-8---8-8---8---8---8---8------|
     ...   ...   ...   ...   .   .   ...   ...   .   .   .   .

|-------------------------------------------------------------------|
|-------------------------------------------------------------------|
|--3~~~~~~~~~~~~~~~~~~~~~~-5~~~~~~-7~~~~~~~~~~~~~~~~~~~~~~-9~~~~~~--|
|--x-----------------------x-------x-----------------------x--------|
|--1~~~~~~~~~~~~~~~~~~~~~~-3~~~~~~-5~~~~~~~~~~~~~~~~~~~~~~-7~~~~~~--|
|-------------------------------------------------------------------|
|
|
|-------------------------------------------------------------------|
|-------------------------------------------------------------------|
|-------------------------------------------------------------------|
|--------------------7------------------------------------------hp--|
|--8-----8-----7-----------8---5---8-----8-----7---8--10---8---787--|
|----8-8---8-8---8-8---8-8---8---8---8-8---8-8---8---8---8---8------|
     ...   ...   ...   ...   .   .   ...   ...   .   .   .   .

|-------------------------------------------------------------------|
|-------------------------------------------------------------------|
|-10~~~~~~~~~~~~~~~~~~~~~~~~~~~~~~141414141414141414141414141414\\--|
|--x-------------------------------x-x-x-x-x-x-x-x-x-x-x-x-x-x-x----|
|--8~~~~~~~~~~~~~~~~~~~~~~~~~~~~~~121212121212121212121212121212\\--|
|-------------------------------------------------------------------|
|
|
|-------------------------------------------------------------------|
|-------------------------------------------------------------------|
|-------------------------------------------------------------------|
|--------------------7------------------------------------------hp--|
|--8-----8-----7-----------8---5---8-----8-----7---8--10---8---787--|
|----8-8---8-8---8-8---8-8---8---8---8-8---8-8---8---8---8---8------|
     ...   ...   ...   ...   .   .   ...   ...   .   .   .   .

Chorus:
|--5~~~~~~-----5~~~~~~~~~~~~~~~~~~-1~~~~~~-----1~~~~~~~~~~~~~~~~~~--|
|--5~~~~~~-----5~~~~~~~~~~~~~~~~~~-1~~~~~~-----1~~~~~~~~~~~~~~~~~~--|
|o-7~~~~~~-----7~~~~~~~~~~~~~~~~~~-3~~~~~~-----3~~~~~~~~~~~~~~~~~~--|
|o-7~~~~~~-----7~~~~~~~~~~~~~~~~~~-3~~~~~~-----3~~~~~~~~~~~~~~~~~~--|
|--5~~~~~~-0-0-5~~~~~~~~~~~~~~~~~~-1~~~~~~-0-0-1~~~~~~~~~~~~~~~~~~--|
|----------0-0-----------------------------0-0----------------------|
|          ...                             ...
|
|-------------------------------------------------------------------|
|-------------------------------------------------------------------|
|o------------------------------------------------------------------|
|o------------10~~~~~~---------8~~~~~~-------------7~~--------------|
|--8~~-7~~-8~~---------7~~-8~~---------8~~-7~~-8~~----10~~-8~~-7~~--|
|-------------------------------------------------------------------|


|-------------------------------------------------------------------|
|-------------------------------------------------------------------|
|------------------------------------------------------------------o|
|--3~~-3~~-3~~-3~~-3~~-3~~-3~~-3~~-7~~-7~~-7~~-7~~-7~~-7~~-7~~-7~~-o|
|--3~~-3~~-3~~-3~~-3~~-3~~-3~~-3~~-7~~-7~~-7~~-7~~-7~~-7~~-7~~-7~~--|
|--3~~-3~~-3~~-3~~-3~~-3~~-3~~-3~~-7~~-7~~-7~~-7~~-7~~-7~~-7~~-7~~--|
|
|
|-------------------------------------------------------------------|
|-------------------------------------------------------------------|
|------------------------------------------------------------------o|
|-------------10~~~~~~---------8~~~~~~-------------7~~-------------o|
|--8~~-7~~-8~~---------7~~-8~~---------8~~-7~~-8~~----10~~-8~~-7~~--|
|-------------------------------------------------------------------|

Verse:
|-------------------------------------------------------------------|
|-------------------------------------------------------------------|
|o------------------------------------------------------------------|
|o------------------------------------------------------------------|
|-10-----8-----7-----5-----7---8--10-----8-----7----12----10---8----|
|----0-0---0-0---0-0---0-0---0---0---0-0---0-0---0-0---0-0---0---0--|
     ...   ...   ...   ...   .   .   ...   ...   ...   ...   .   .

|-------------------------------------------------------------------|
|-------------------------------------------------------------------|
|------------------------------------------------------------------o|
|----------------------------------8~~~~~~~~~~~~~~10~~~~~~~~~~~~~~-o|
|-10-----8-----7-----5-----7---8---8~~~~~~~~~~~~~~10~~~~~~~~~~~~~~--|
|----0-0---0-0---0-0---0-0---0---0-8~~~~~~~~~~~~~~10~~~~~~~~~~~~~~--|
|    ...   ...   ...   ...   .   .
|
|-------------------------------------------------------------------|
|-------------------------------------------------------------------|
|---------------------------------10~~~~-9~~~~-7~~14~~~~12~~~~10~~-o|
|----------------------------------x-----x-----x---x-----x-----x---o|
|-10-----8-----7-----5-----7---8---8~~~~-7~~~~-5~~12~~~~10~~~~-8~~--|
|----0-0---0-0---0-0---0-0---0---0----------------------------------|
     ...   ...   ...   ...   .   .

|-------------------------------------------------------------------|
|-------------------------------------------------------------------|
|o--------------------------------------------------10-----9---7----|
|o-8p0---------------3-----5---7---8p0---------------x-----x---x----|
|--8p0-0-0-0-0-0-0-0-3-0-0-5-0-7-0-8p0-0-0-0-0-0-0-0-8-----7---5----|
|--8p0-0-0-0-0-0-0-0-3-0-0-5-0-7-0-8p0-0-0-0-0-0-0-0---0-0---0---0--|
       .............   ...   .   .     .............   ...   .   .

|-------------------------------------------------------------------|
|-------------------------------------------------------------------|
|------------------------------------------------------------------o|
|--8p0---------------3-----5---7-----------------------------------o|
|--8p0-0-0-0-0-0-0-0-3-0-0-5-0-7-0---------7---------------7--------|
|--8p0-0-0-0-0-0-0-0-3-0-0-5-0-7-0-8-7-810--10-8-7-8-7-810--10-8-7--|
|      .............   ...   .   .
|
|-------------------------------------------------------------------|
|-------------------------------------------------------------------|
|------------------------------------------------------------------o|
|--8p0---------------3-----5---7-----------------------------------o|
|--8p0-0-0-0-0-0-0-0-3-0-0-5-0-7-0---------8--------------10--------|
|--8p0-0-0-0-0-0-0-0-3-0-0-5-0-7-0-8-0-810--10-8-010-01012--1210-0--|
       .............   ...   .   .

Pre-chorus:
|-------------------------------------------------------------------|
|-------------------------------------------------------------------|
|-------------------------------------------------------------------|
|--------------------7------------------------------------------hp--|
|--8-----8-----7-----------8---5---8-----8-----7---8--10---8---787--|
|----8-8---8-8---8-8---8-8---8---8---8-8---8-8---8---8---8---8------|
     ...   ...   ...   ...   .   .   ...   ...   .   .   .   .

|-------------------------------------------------------------------|
|-------------------------------------------------------------------|
|-------------------------------------------------------------------|
|--------------------7------------------------------------------hp--|
|--8-----8-----7-----------8---5---8-----8-----7---8--10---8---787--|
|----0-0---0-0---0-0---0-0---0---0---0-0---0-0---0---0---0---0------|
     ...   ...   ...   ...   .   .   ...   ...   .   .   .   .

|-------------------------------------------------------------------|
|-------------------------------------------------------------------|
|--------------------5------------------------------------------hp--|
|--7-----7-----5-----------7-------7-----7-----5---7---8---7---575--|
|------------------------------8------------------------------------|
|----8-8---8-8---8-8---8-8---8---8---8-8---8-8---8---8---8---8------|
|    ...   ...   ...   ...   .   .   ...   ...   .   .   .   .
|
|-------------------------------------------------------------------|
|-------------------------------------------------------------------|
|-------------------------------------------------------------------|
|--------------------7------------------------------------------hp--|
|--8-----8-----7-----------8---5---8-----8-----7---8--10---8---787--|
|----8-8---8-8---8-8---8-8---8---8---8-8---8-8---8---8---8---8------|
     ...   ...   ...   ...   .   .   ...   ...   .   .   .   .

|-------------------------------------------------------------------|
|-------------------------------------------------------------------|
|--------------------5-------------7-7-7-7-9-9-9-91010101012121212--|
|--7-----7-----5-----------7-------x-x-x-x-x-x-x-x-x-x-x-x-x-x-x-x--|
|------------------------------8---5-5-5-5-7-7-7-7-8-8-8-810101010--|
|----0-0---0-0---0-0---0-0---0---0----------------------------------|
|    ...   ...   ...   ...   .   .
|
|-------------------------------------------------------------------|
|-------------------------------------------------------------------|
|-------------------------------------------------------------------|
|--------------------7------------------------------------------hp--|
|--8-----8-----7-----------8---5---8-----8-----7---8--10---8---787--|
|----8-8---8-8---8-8---8-8---8---8---8-8---8-8---8---8---8---8------|
     ...   ...   ...   ...   .   .   ...   ...   .   .   .   .

|-------------------------------------------------------------------|
|-------------------------------------------------------------------|
|--3~~~~~~~~~~~~~~~~~~~~~~-5~~~~~~-7~~~~~~~~~~~~~~~~~~~~~~-9~~~~~~--|
|--x-----------------------x-------x-----------------------x--------|
|--1~~~~~~~~~~~~~~~~~~~~~~-3~~~~~~-5~~~~~~~~~~~~~~~~~~~~~~-7~~~~~~--|
|-------------------------------------------------------------------|
|
|
|-------------------------------------------------------------------|
|-------------------------------------------------------------------|
|-------------------------------------------------------------------|
|--------------------7------------------------------------------hp--|
|--8-----8-----7-----------8---5---8-----8-----7---8--10---8---787--|
|----8-8---8-8---8-8---8-8---8---8---8-8---8-8---8---8---8---8------|
     ...   ...   ...   ...   .   .   ...   ...   .   .   .   .

|-------------------------------------------------------------------|
|-------------------------------------------------------------------|
|-10~~~~~~~~~~~~~~~~~~~~~~~~~~~~~~-2~~~~~~~~~~~~~~10~~~~~~-9~~~~~~--|
|--x-------------------------------x---------------x-------x--------|
|--8~~~~~~~~~~~~~~~~~~~~~~~~~~~~~~-0~~~~~~~~~~~~~~-8~~~~~~-7~~~~~~--|
|-------------------------------------------------------------------|
|
|
|-------------------------------------------------------------------|
|-------------------------------------------------------------------|
|-------------------------------------------------------------------|
|--------------------7------------------------------------------hp--|
|--8-----8-----7-----------8---5---8-----8-----7---8--10---8---787--|
|----8-8---8-8---8-8---8-8---8---8---8-8---8-8---8---8---8---8------|
     ...   ...   ...   ...   .   .   ...   ...   .   .   .   .

|-------------------------------------------------------------------|
|-------------------------------------------------------------------|
|--3~~~~~~~~~~~~~~~~~~~~~~-5~~~~~~-7~~~~~~~~~~~~~~~~~~~~~~-9~~~~~~--|
|--x-----------------------x-------x-----------------------x--------|
|--1~~~~~~~~~~~~~~~~~~~~~~-3~~~~~~-5~~~~~~~~~~~~~~~~~~~~~~-7~~~~~~--|
|-------------------------------------------------------------------|
|
|
|-------------------------------------------------------------------|
|-------------------------------------------------------------------|
|-------------------------------------------------------------------|
|--------------------7------------------------------------------hp--|
|--8-----8-----7-----------8---5---8-----8-----7---8--10---8---787--|
|----8-8---8-8---8-8---8-8---8---8---8-8---8-8---8---8---8---8------|
     ...   ...   ...   ...   .   .   ...   ...   .   .   .   .

|-------------------------------------------------------------------|
|-------------------------------------------------------------------|
|-10~~~~~~~~~~~~~~~~~~~~~~~~~~~~~~141414141414141414141414141414\\--|
|--x-------------------------------x-x-x-x-x-x-x-x-x-x-x-x-x-x-x----|
|--8~~~~~~~~~~~~~~~~~~~~~~~~~~~~~~121212121212121212121212121212\\--|
|-------------------------------------------------------------------|
|
|
|-------------------------------------------------------------------|
|-------------------------------------------------------------------|
|-------------------------------------------------------------------|
|--------------------7------------------------------------------hp--|
|--8-----8-----7-----------8---5---8-----8-----7---8--10---8---787--|
|----8-8---8-8---8-8---8-8---8---8---8-8---8-8---8---8---8---8------|
     ...   ...   ...   ...   .   .   ...   ...   .   .   .   .

Chorus:
|--5~~~~~~-----5~~~~~~~~~~~~~~~~~~-1~~~~~~-----1~~~~~~~~~~~~~~~~~~--|
|--5~~~~~~-----5~~~~~~~~~~~~~~~~~~-1~~~~~~-----1~~~~~~~~~~~~~~~~~~--|
|o-7~~~~~~-----7~~~~~~~~~~~~~~~~~~-3~~~~~~-----3~~~~~~~~~~~~~~~~~~--|
|o-7~~~~~~-----7~~~~~~~~~~~~~~~~~~-3~~~~~~-----3~~~~~~~~~~~~~~~~~~--|
|--5~~~~~~-0-0-5~~~~~~~~~~~~~~~~~~-1~~~~~~-0-0-1~~~~~~~~~~~~~~~~~~--|
|----------0-0-----------------------------0-0----------------------|
|          ...                             ...
|
|-------------------------------------------------------------------|
|-------------------------------------------------------------------|
|o------------------------------------------------------------------|
|o------------10~~~~~~---------8~~~~~~-------------7~~--------------|
|--8~~-7~~-8~~---------7~~-8~~---------8~~-7~~-8~~----10~~-8~~-7~~--|
|-------------------------------------------------------------------|


|-------------------------------------------------------------------|
|-------------------------------------------------------------------|
|------------------------------------------------------------------o|
|--3~~-3~~-3~~-3~~-3~~-3~~-3~~-3~~-7~~-7~~-7~~-7~~-7~~-7~~-7~~-7~~-o|
|--3~~-3~~-3~~-3~~-3~~-3~~-3~~-3~~-7~~-7~~-7~~-7~~-7~~-7~~-7~~-7~~--|
|--3~~-3~~-3~~-3~~-3~~-3~~-3~~-3~~-7~~-7~~-7~~-7~~-7~~-7~~-7~~-7~~--|
|
|
|-------------------------------------------------------------------|
|-------------------------------------------------------------------|
|------------------------------------------------------------------o|
|-------------10~~~~~~---------8~~~~~~-------------7~~-------------o|
|--8~~-7~~-8~~---------7~~-8~~---------8~~-7~~-8~~----10~~-8~~-7~~--|
|-------------------------------------------------------------------|

Interlude:
|-------------------------------------------------------------------|
|-------------------------------------------------------------------|
|-------------------------------------------------------------------|
|------------7---------------5-----------5---8-----8-7----10-8-7----|
|----5---8-----------4---7-----7-4---7------------------------------|
|--0---0---0---0-0-0---0---0-------0---0---0---0-0-----8-8------10--|
|  .   .   .   .....   .   .       .   .   .   ...     ...       .
|
|-------------------------------------------------------------------|
|-------------------------------------------------------------------|
|-------------------------------------------------------------------|
|--0~~~~~~~~~~~~~~~~~~~~~~~~~~~~~~~~~~~~~~~~~~~~~~~~~~~~~~~~~~~~~~--|
|--0~~~~~~~~~~~~~~~~~~~~~~~~~~~~~~~~~~~~~~~~~~~~~~~~~~~~~~~~~~~~~~--|
|--0~~~~~~~~~~~~~~~~~~~~~~~~~~~~~~~~~~~~~~~~~~~~~~~~~~~~~~~~~~~~~~--|


|-------------------------------------------------------------------|
|-------------------------------------------------------------------|
|-------------------------------------------------------------------|
|------------7---------------5-----------5---8-----8-7----10-8-7----|
|----5---8-----------4---7-----7-4---7------------------------------|
|--0---0---0---0-0-0---0---0-------0---0---0---0-0-----8-8------10--|
|  .   .   .   .....   .   .       .   .   .   ...     ...       .
|
|-------------------------------------------------------------------|
|-------------------------------------------------------------------|
|-------------------------------------------------------------------|
|--0~~~~~~~~~~~~~~~~~~~~~~~~~~~~~~~~~~~~~~~~~~~~~~-8-7----10-8-7----|
|--0~~~~~~~~~~~~~~~~~~~~~~~~~~~~~~~~~~~~~~~~~~~~~~------------------|
|--0~~~~~~~~~~~~~~~~~~~~~~~~~~~~~~~~~~~~~~~~~~~~~~-----8-8------10--|
                                                       ...       .

Solo - Guitar 1:
                                                            (Play 4x)
|-------------------------------------------------------------------|
|-------------------------------------------------------------------|
|-------------------------------------------------------------------|
|------------7---------------5-----------5---8-----8-7----10-8-7----|
|----5---8-----------4---7-----7-4---7------------------------------|
|--0---0---0---0-0-0---0---0-------0---0---0---0-0-----8-8------10--|
   .   .   .   .....   .   .       .   .   .   ...     ...       .

Solo - Guitar 2:
|--------------------------------------------10h12h13-12-10--------------------------------|
|------------------------------------10h11h13--------------13p11p10---------------10-------|
|-----------------7-10-9--7-9h10-9----------------------------------12h14h12p10-12--12-12--|
|------------------------------------------------------------------------------------------|
|--5--7-8-7--5-7---------------------------------------------------------------------------|
|------------------------------------------------------------------------------------------|


|--------------------------17--17--15-12h13p12p10-------------------------------|
|------------------------------------------------13p11p10--------------10-------|
|-15-15-15-15-15-14-14~~-14--14--14----------------------12h14h12p10-12--12-12--|
|-------------------------------------------------------------------------------|
|-------------------------------------------------------------------------------|
|-------------------------------------------------------------------------------|


|--------------------------------------------------------------------------|
|--------------------------------------------------------------------------|
|---------------------------------12-14-15-14-15-17-15p14h15-12-14-15-14~--|
|-12h13p12-10-12--14h15p14-12-14-------------------------------------------|
|--------------------------------------------------------------------------|
|--------------------------------------------------------------------------|


|-17p15p13------13-17-13--15p13p12------12-15-12--18p17p15------15-18-15--|
|---------15--15------------------14--14------------------17--17----------|
|-----------14----------------------15----------------------18------------|
|-------------------------------------------------------------------------|
|-------------------------------------------------------------------------|
|-------------------------------------------------------------------------|


|-20-18-17--18-17-----17-------------------22--|
|---------20-----20-18--20-18-17-20-18-17------|
|----------------------------------------19----|
|----------------------------------------------|
|----------------------------------------------|
|----------------------------------------------|

Guitar 1: (3:48) Slow classical part
|-------13-13--------12-12--------10-10--------12--|
|----15-15-15-----13-13-13-----11-11-10-----13-13--|
|o14----14-14--12----12-12--10----10-10--12----12-o|
|o------------------------------------------------o|
|--------------------------------------------------|
|--------------------------------------------------|


|------------------------------15-15---22-22-18-18-20-20--|
|---15-17-18-17h18p17-15-17-18----------------------------|
|-14------------------------------------------------------|
|---------------------------------------------------------|
|---------------------------------------------------------|
|---------------------------------------------------------|


|-----------------------------------15-15--17--18-18-20-20-22-22--|
|-15------15-17-18-17h18p17-15-17-18------------------------------|
|-------14--------------------------------------------------------|
|-----------------------------------------------------------------|
|-----------------------------------------------------------------|
|-----------------------------------------------------------------|

Guitar 1 Solo:
|------------------------------------------------------13-15-17b(18)r17-15--|
|-----------------------15-18-15------------------13-15---------------------|
|---------------------12------------------12-14-15--------------------------|
|-14-15-14h15p14-12-15------------12-14-15----------------------------------|
|-------------------------------15------------------------------------------|
|---------------------------------------------------------------------------|


|-17-15h17p15-----------15-17-20--22-17--18-17h18p17--17-----------------------|
|------------17-15-17-18----------------------------18--18-17-15-----15-18-15--|
|---------------------------------------------------------------14-17----------|
|------------------------------------------------------------------------------|
|------------------------------------------------------------------------------|
|------------------------------------------------------------------------------|


|------------------------------------10-10-------10-10-------10-10-------10-10--|
|-13b(15)r13p10-13b(15)r13p10-13b(15)-----13b(15)-----13b(15)-----13b(15)-------|
|-------------------------------------------------------------------------------|
|-------------------------------------------------------------------------------|
|-------------------------------------------------------------------------------|
|-------------------------------------------------------------------------------|


|-12--13--15--17---20-17------17-20-17------18--20-17------17-20-----------|
|-----------------------18--18--------18--18---------18--18-----18--18-20--|
|-------------------------19------------19-------------19---------19-------|
|--------------------------------------------------------------------------|
|--------------------------------------------------------------------------|
|--------------------------------------------------------------------------|


|-20-17------17-20-17------17---20b(22)r20-17-24~~~--|
|------18--18--------18--18--------------------------|
|--------19------------19----------------------------|
|----------------------------------------------------|
|----------------------------------------------------|
|----------------------------------------------------|

Guitar 2:
|-------------------------------------------------------------------|
|-------------------------------------------------------------------|
|o------------------------------------------------------------------|
|o-0~~~~~~~~~~~~~~~~~~~~~~~~~~~~~~-3~~~~~~~~~~~~~~~~~~~~~~~~~~~~~~--|
|--0~~~~~~~~~~~~~~~~~~~~~~~~~~~~~~-3~~~~~~~~~~~~~~~~~~~~~~~~~~~~~~--|
|--0~~~~~~~~~~~~~~~~~~~~~~~~~~~~~~-3~~~~~~~~~~~~~~~~~~~~~~~~~~~~~~--|


|-------------------------------------------------------------------|
|-------------------------------------------------------------------|
|------------------------------------------------------------------o|
|--5~~~~~~~~~~~~~~~~~~~~~~~~~~~~~~-8~~~~~~~~~~~~~~-7~~~~~~~~~~~~~~-o|
|--5~~~~~~~~~~~~~~~~~~~~~~~~~~~~~~-8~~~~~~~~~~~~~~-7~~~~~~~~~~~~~~--|
|--5~~~~~~~~~~~~~~~~~~~~~~~~~~~~~~-8~~~~~~~~~~~~~~-7~~~~~~~~~~~~~~--|

PM        |-----------------------|       |-----------------------|
|-------------------------------------------------------------------|
|-------------------------------------------------------------------|
|o------------------------------------------------------------------|
|o-0~~~~~~-------------------------3~~~~~~--------------------------|
|--0~~~~~~-0-0-0-0-0-0-0-0-0-0-0-0-3~~~~~~-3-3-3-3-3-3-3-3-3-3-3-3--|
|--0~~~~~~-0-0-0-0-0-0-0-0-0-0-0-0-3~~~~~~-3-3-3-3-3-3-3-3-3-3-3-3--|


PM        |-----------------------|       |-----------------------|
|-------------------------------------------------------------------|
|-------------------------------------------------------------------|
|------------------------------------------------------------------o|
|--5~~~~~~-------------------------8~~~~~~---------7~~~~~~---------o|
|--5~~~~~~-5-5-5-5-5-5-5-5-5-5-5-5-8~~~~~~-8-8-8-8-7~~~~~~-7-7-7-7--|
|--5~~~~~~-5-5-5-5-5-5-5-5-5-5-5-5-8~~~~~~-8-8-8-8-7~~~~~~-7-7-7-7--|

Bridge:
|-------------------------------------------------------------------|
|-------------------------------------------------------------------|
|-------------------------------------------------------------------|
|-------------------------------------------------------------------|
|-10-----8-----7-----5-----7---8--10-----8-----7----12----10---8----|
|----0-0---0-0---0-0---0-0---0---0---0-0---0-0---0-0---0-0---0---0--|
|    ...   ...   ...   ...   .   .   ...   ...   ...   ...   .   .
|
|-------------------------------------------------------------------|
|-------------------------------------------------------------------|
|-------------------------------------------------------------------|
|--0-------------------------------0~~~~~~~~~~~~~~~~~~~~~~~~~~~~~~--|
|--0-------------------------------0~~~~~~~~~~~~~~~~~~~~~~~~~~~~~~--|
|--0-------------------------------0~~~~~~~~~~~~~~~~~~~~~~~~~~~~~~--|


|-------------------------------------------------------------------|
|-------------------------------------------------------------------|
|-------------------------------------------------------------------|
|----------------------------------8~~~~~~~~~~~~~~10~~~~~~~~~~~~~~--|
|-10-----8-----7-----5-----7---8---8~~~~~~~~~~~~~~10~~~~~~~~~~~~~~--|
|----0-0---0-0---0-0---0-0---0---0-8~~~~~~~~~~~~~~10~~~~~~~~~~~~~~--|
|    ...   ...   ...   ...   .   .
|
|-------------------------------------------------------------------|
|-------------------------------------------------------------------|
|---------------------------------10~~~~-9~~~~-7~~14~~~~12~~~~10~~--|
|----------------------------------x-----x-----x---x-----x-----x----|
|-10-----8-----7-----5-----7---8---8~~~~-7~~~~-5~~12~~~~10~~~~-8~~--|
|----0-0---0-0---0-0---0-0---0---0----------------------------------|
     ...   ...   ...   ...   .   .

Pre-chorus:
|-------------------------------------------------------------------|
|-------------------------------------------------------------------|
|--3~~~~~~~~~~~~~~~~~~~~~~-5~~~~~~-7~~~~~~~~~~~~~~~~~~~~~~-9~~~~~~--|
|--x-----------------------x-------x-----------------------x--------|
|--1~~~~~~~~~~~~~~~~~~~~~~-3~~~~~~-5~~~~~~~~~~~~~~~~~~~~~~-7~~~~~~--|
|-------------------------------------------------------------------|
|
|
|-------------------------------------------------------------------|
|-------------------------------------------------------------------|
|-------------------------------------------------------------------|
|--------------------7------------------------------------------hp--|
|--8-----8-----7-----------8---5---8-----8-----7---8--10---8---787--|
|----8-8---8-8---8-8---8-8---8---8---8-8---8-8---8---8---8---8------|
     ...   ...   ...   ...   .   .   ...   ...   .   .   .   .

|-------------------------------------------------------------------|
|-------------------------------------------------------------------|
|-10~~~~~~~~~~~~~~~~~~~~~~~~~~~~~~-2~~~~~~~~~~~~~~10~~~~~~-9~~~~~~--|
|--x-------------------------------x---------------x-------x--------|
|--8~~~~~~~~~~~~~~~~~~~~~~~~~~~~~~-0~~~~~~~~~~~~~~-8~~~~~~-7~~~~~~--|
|-------------------------------------------------------------------|
|
|
|-------------------------------------------------------------------|
|-------------------------------------------------------------------|
|-------------------------------------------------------------------|
|--------------------7------------------------------------------hp--|
|--8-----8-----7-----------8---5---8-----8-----7---8--10---8---787--|
|----8-8---8-8---8-8---8-8---8---8---8-8---8-8---8---8---8---8------|
     ...   ...   ...   ...   .   .   ...   ...   .   .   .   .

|-------------------------------------------------------------------|
|-------------------------------------------------------------------|
|--3~~~~~~~~~~~~~~~~~~~~~~-5~~~~~~-7~~~~~~~~~~~~~~~~~~~~~~-9~~~~~~--|
|--x-----------------------x-------x-----------------------x--------|
|--1~~~~~~~~~~~~~~~~~~~~~~-3~~~~~~-5~~~~~~~~~~~~~~~~~~~~~~-7~~~~~~--|
|-------------------------------------------------------------------|
|
|
|-------------------------------------------------------------------|
|-------------------------------------------------------------------|
|-------------------------------------------------------------------|
|--------------------7------------------------------------------hp--|
|--8-----8-----7-----------8---5---8-----8-----7---8--10---8---787--|
|----8-8---8-8---8-8---8-8---8---8---8-8---8-8---8---8---8---8------|
     ...   ...   ...   ...   .   .   ...   ...   .   .   .   .

|-------------------------------------------------------------------|
|-------------------------------------------------------------------|
|-10~~~~~~~~~~~~~~~~~~~~~~~~~~~~~~141414141414141414141414141414\\--|
|--x-------------------------------x-x-x-x-x-x-x-x-x-x-x-x-x-x-x----|
|--8~~~~~~~~~~~~~~~~~~~~~~~~~~~~~~121212121212121212121212121212\\--|
|-------------------------------------------------------------------|
|
|
|-------------------------------------------------------------------|
|-------------------------------------------------------------------|
|-------------------------------------------------------------------|
|--------------------7------------------------------------------hp--|
|--8-----8-----7-----------8---5---8-----8-----7---8--10---8---787--|
|----8-8---8-8---8-8---8-8---8---8---8-8---8-8---8---8---8---8------|
     ...   ...   ...   ...   .   .   ...   ...   .   .   .   .

Chorus:
|--5~~~~~~-----5~~~~~~~~~~~~~~~~~~-1~~~~~~-----1~~~~~~~~~~~~~~~~~~--|
|--5~~~~~~-----5~~~~~~~~~~~~~~~~~~-1~~~~~~-----1~~~~~~~~~~~~~~~~~~--|
|o-7~~~~~~-----7~~~~~~~~~~~~~~~~~~-3~~~~~~-----3~~~~~~~~~~~~~~~~~~--|
|o-7~~~~~~-----7~~~~~~~~~~~~~~~~~~-3~~~~~~-----3~~~~~~~~~~~~~~~~~~--|
|--5~~~~~~-0-0-5~~~~~~~~~~~~~~~~~~-1~~~~~~-0-0-1~~~~~~~~~~~~~~~~~~--|
|----------0-0-----------------------------0-0----------------------|
|          ...                             ...
|
|-------------------------------------------------------------------|
|-------------------------------------------------------------------|
|o------------------------------------------------------------------|
|o------------10~~~~~~---------8~~~~~~-------------7~~--------------|
|--8~~-7~~-8~~---------7~~-8~~---------8~~-7~~-8~~----10~~-8~~-7~~--|
|-------------------------------------------------------------------|


|-------------------------------------------------------------------|
|-------------------------------------------------------------------|
|------------------------------------------------------------------o|
|--3~~-3~~-3~~-3~~-3~~-3~~-3~~-3~~-7~~-7~~-7~~-7~~-7~~-7~~-7~~-7~~-o|
|--3~~-3~~-3~~-3~~-3~~-3~~-3~~-3~~-7~~-7~~-7~~-7~~-7~~-7~~-7~~-7~~--|
|--3~~-3~~-3~~-3~~-3~~-3~~-3~~-3~~-7~~-7~~-7~~-7~~-7~~-7~~-7~~-7~~--|
|
|
|-------------------------------------------------------------------|
|-------------------------------------------------------------------|
|------------------------------------------------------------------o|
|-------------10~~~~~~---------8~~~~~~-------------7~~-------------o|
|--8~~-7~~-8~~---------7~~-8~~---------8~~-7~~-8~~----10~~-8~~-7~~--|
|-------------------------------------------------------------------|


|--5~~~~~~-----5~~~~~~~~~~~~~~~~~~-1~~~~~~-----1~~~~~~~~~~~~~~~~~~--|
|--5~~~~~~-----5~~~~~~~~~~~~~~~~~~-1~~~~~~-----1~~~~~~~~~~~~~~~~~~--|
|o-7~~~~~~-----7~~~~~~~~~~~~~~~~~~-3~~~~~~-----3~~~~~~~~~~~~~~~~~~--|
|o-7~~~~~~-----7~~~~~~~~~~~~~~~~~~-3~~~~~~-----3~~~~~~~~~~~~~~~~~~--|
|--5~~~~~~-0-0-5~~~~~~~~~~~~~~~~~~-1~~~~~~-0-0-1~~~~~~~~~~~~~~~~~~--|
|----------0-0-----------------------------0-0----------------------|
|          ...                             ...
|
|-------------------------------------------------------------------|
|-------------------------------------------------------------------|
|o------------17~~~~~~--------17~~~~~~------------14~~--------------|
|o15~~14~~15~~--------14~~15~~--------15~~14~~15~~----17~~15~~14~~--|
|-------------------------------------------------------------------|
|-------------------------------------------------------------------|


|-------------------------------------------------------------------|
|-------------------------------------------------------------------|
|------------------------------------------------------------------o|
|--3~~-3~~-3~~-3~~-3~~-3~~-3~~-3~~-7~~-7~~-7~~-7~~-7~~-7~~-7~~-7~~-o|
|--3~~-3~~-3~~-3~~-3~~-3~~-3~~-3~~-7~~-7~~-7~~-7~~-7~~-7~~-7~~-7~~--|
|--3~~-3~~-3~~-3~~-3~~-3~~-3~~-3~~-7~~-7~~-7~~-7~~-7~~-7~~-7~~-7~~--|
|
|
|-------------------------------------------------------------------|
|-------------------------------------------------------------------|
|-------------17~~~~~~--------17~~~~~~------------14~~-------------o|
|-15~~14~~15~~--------14~~15~~--------15~~14~~15~~----17~~15~~14~~-o|
|-------------------------------------------------------------------|
|-------------------------------------------------------------------|


|-------------------------------------------------------------------|
|-------------------------------------------------------------------|
|-------------------------------------------------------------------|
|--0~~~~~~~~~~~~~~~~~~~~~~~~~~~~~~~~~~~~~~~~~~~~~~~~~~~~~~~~~~~~~~--|
|--0~~~~~~~~~~~~~~~~~~~~~~~~~~~~~~~~~~~~~~~~~~~~~~~~~~~~~~~~~~~~~~--|
|--0~~~~~~~~~~~~~~~~~~~~~~~~~~~~~~~~~~~~~~~~~~~~~~~~~~~~~~~~~~~~~~--|
|
|
|-------------------------------------------------------------------|
|-15~~~~~~~~~~~~~~~~~~~~~~~~~~~~~~~~~~~~~~~~~~~~~~~~~~~~~~~~~~~~~~--|
|--x----------------------------------------------------------------|
|-12~~~~~~~~~~~~~~~~~~~~~~~~~~~~~~~~~~~~~~~~~~~~~~~~~~~~~~~~~~~~~~--|
|-------------------------------------------------------------------|
|-------------------------------------------------------------------|
comments
print report bad tab
6 comments total. Showing first comments.
0 reply
chimaira_kid wrote on December 6 2005, 01:05 pm

nice job..man

0 reply
shotgunjoe wrote on December 6 2005, 02:32 pm

wow great tab! 5 stars!

0 reply
Mr.Jack_SG wrote on December 25 2005, 01:48 pm

why does tha solo look exactly the same as the other like light to flies tab?
anyways who cares

I want to post or [tab]
guest
You may want to rate the tab now too:
select rating
Please do not post tabs as comments. Select "correction" instead!