Oops, an error
Loading. Please wait.

Like Light To The Flies Tab

ver3
ver3

Whole song

More versions @911Tabs.com
5,441 views 18 this week
no commentswrite comment
1 2 3 4 5
excellent!
x 2
Autoscroll
+/-
esc
set tempo
stop
Contributor
Tuning
D A D G B E
Hey! There's an official Ultimate Guitar app which is ideal
for learning songs when you're away from computer. Get the app
WARNING: You are trying to view
                                    content from Ultimate-Guitar.com
                                    in an unauthorized application,
                                    which is prohibited.

                                    Please use an official Ultimate
                                    Guitar Tabs application for iPhone,
                                    iPad or Android to access legitimate
                                    chords, guitar, bass, and drum tabs
                                    from Ultimate-Guitar.com database.

                                    Type "ultimate guitar tabs" in Apple
                                    App Store's or Android Market's
                                    search to find the application.
#----------------------------------PLEASE NOTE---------------------------------#
#This file is the author's own work and represents their interpretation of the #
#song. You may only use this file for private study, scholarship, or research. #
#------------------------------------------------------------------------------#

LIKE LIGHT TO THE FLIES
As recorded by Trivium
(From the 2005 Album ASCENDANCY)

Transcribed by Andreas Folkeson (Solos Starscream Carcass)
        

Words and Music by Trivium
Arranged by Trivium

Gtr I (D A D G B E) - 'Untitled'
Gtr II (D A D G B E) - 'Untitled'
Gtr III (D A D G B E) - 'Untitled'

 Intro          Pre-Verse
  Q=107
  D    E         N.C.
 4/4
  Gtr I
                    PM|   PM|   PM|   PM|   PM  PM
  H     H         S S S S S S S S S S S S S S S S
|------------||-----------------------------------|
|------------||o----------------------------------|
|-7-----9----||-----------------------------------|
|-x-----x----||-----------------------------------|
|-5-----7----||o-10-----8-----7-----5-----7---8---|
|------------||-----0-0---0-0---0-0---0-0---0---0-|
|
| Gtr II
|                   PM|   PM|   PM|   PM|   PM  PM
| H     H         S S S S S S S S S S S S S S S S
|------------||-----------------------------------|
|------------||o----------------------------------|
|------------||-----------------------------------|
|-8----10----||-----------------------------------|
|-8----10----||o-10-----8-----7-----5-----7---8---|
|-8----10----||-----0-0---0-0---0-0---0-0---0---0-|


     PM|   PM|   PM|    PM|    PM  PM
   S S S S S S S S S  S S S  S S S S
|------------------------------------|
|------------------------------------|
|------------------------------------|
|------------------------------------|
|-10-----8-----7-----12-----10---8---|
|----0-0---0-0---0-0----0-0----0---0-|
|
|    PM|   PM|   PM|    PM|    PM  PM
|  S S S S S S S S S  S S S  S S S S
|------------------------------------|
|------------------------------------|
|------------------------------------|
|------------------------------------|
|-10-----8-----7-----12-----10---8---|
|----0-0---0-0---0-0----0-0----0---0-|


                                     F        E     D A        G       F
  Gtr I
     PM|   PM|   PM|   PM|   PM  PM
   S S S S S S S S S S S S S S S S     E  +S  E +S  E   E  +S   E  +S   E
|----------------------------------|---------------------------------------||
|----------------------------------|--------------------------------------o||
|----------------------------------|-/10-(10)-9-(9)-7-/14-(14)-12-(12)-10--||
|----------------------------------|---x--(x)-x-(x)-x---x--(x)--x--(x)--x--||
|-10-----8-----7-----5-----7---8---|--/8--(8)-7-(7)-5-/12-(12)-10-(10)--8-o||
|----0-0---0-0---0-0---0-0---0---0-|---------------------------------------||
|
| Gtr II
|    PM|   PM|   PM|   PM|   PM  PM
|  S S S S S S S S S S S S S S S S     H                H
|----------------------------------|---------------------------------------||
|----------------------------------|--------------------------------------o||
|----------------------------------|---------------------------------------||
|----------------------------------|---8---------------10------------------||
|-10-----8-----7-----5-----7---8---|---8---------------10-----------------o||
|----0-0---0-0---0-0---0-0---0---0-|---8---------------10------------------||


   Verse
    BbD5              F5D5  G5D5A5D5  BbD5              F  D5  E D5D D5
    Gtr I
    S S S S S S S S S S S S S S S S   S S S S S S S S S  S S S S S S S
||----------------------------------|-----------------------------------|
||o---------------------------------|-----------------------------------|
||----------------------------------|-------------------10-----9---7----|
||--8-0---------------3-----5---7---|-8-0----------------x-----x---x----|
||o-8-0-0-0-0-0-0-0-0-3-0-0-5-0-7-0-|-8-0-0-0-0-0-0-0-0--8-0-0-7-0-5-0--|
||--8p0-0-0-0-0-0-0-0-3-0-0-5-0-7-0-|-8p0-0-0-0-0-0-0-0----0-0---0---0--|
|
|   Gtr II
|   S S S S S S S S S S S S S S S S   S S S S S S S S S  S S S S S S S
||----------------------------------|-----------------------------------|
||o---------------------------------|-----------------------------------|
||----------------------------------|-----------------------------------|
||--8-0---------------3-----5---7---|-8-0----------------7-----5---3----|
||o-8-0-0-0-0-0-0-0-0-3-0-0-5-0-7-0-|-8-0-0-0-0-0-0-0-0--7-0-0-5-0-3-0--|
||--8p0-0-0-0-0-0-0-0-3-0-0-5-0-7-0-|-8p0-0-0-0-0-0-0-0--7-0-0-5-0-3-0--|


  BbD5              F5D5  G5D5A5D5  N.C.
  S S S S S S S S S S S S S S S S   S S S  S  S  S S S  S S  S  S  S  S  S S
|---------------------------------|-------------------------------------------||
|---------------------------------|------------------------------------------o||
|---------------------------------|-------------------------------------------||
|-8-0---------------3-----5---7---|-------------------------------------------||
|-8-0-0-0-0-0-0-0-0-3-0-0-5-0-7-0-|------------------------------------------o||
|-8p0-0-0-0-0-0-0-0-3-0-0-5-0-7-0-|-8-7-8-10-12-10-8-7-10-8-10-12-14-12-10-8--||
|
| S S S S S S S S S S S S S S S S   S S S  S  S  S S S  S S  S  S  S  S  S S
|---------------------------------|-------------------------------------------||
|---------------------------------|------------------------------------------o||
|---------------------------------|-------------------------------------------||
|-8-0---------------3-----5---7---|-------------------------------------------||
|-8-0-0-0-0-0-0-0-0-3-0-0-5-0-7-0-|-----------5--------------------7---------o||
|-8p0-0-0-0-0-0-0-0-3-0-0-5-0-7-0-|-5-0-5--7-----7-5-0--7-0--7--8-----8--7-0--||


 Pre-Chorus 1
  N.C.
  Gtrs I, II
  S S S S S S S S S S S S S S S S   S S S S S S S S S S  S S S S T T S
|---------------------------------|-------------------------------------|
|---------------------------------|-------------------------------------|
|---------------------------------|-------------------------------------|
|-------------------7-------------|-------------------------------------|
|-8-----8-----7-----------8---5---|-8-----8-----7---8---10---8---7h8p7--|
|---8-8---8-8---8-8---8-8---8---8-|---8-8---8-8---8---8----8---8--------|


  S S S S S S S S S S S S S S S S   S S S S S S S S S S  S S S S T T S
|---------------------------------|-------------------------------------|
|---------------------------------|-------------------------------------|
|---------------------------------|-------------------------------------|
|-------------------7-------------|-------------------------------------|
|-8-----8-----7-----------8---5---|-8-----8-----7---8---10---8---7h8p7--|
|---0-0---0-0---0-0---0-0---0---0-|---0-0---0-0---0---0----0---0--------|


  Gtr I
  S S S S S S S S S S S S S S S S   S S S S S S S S S S  S S S S T T S
|---------------------------------|-------------------------------------|
|---------------------------------|-------------------------------------|
|---------------------------------|-------------------------------------|
|-------------------7-------------|-------------------------------------|
|-8-----8-----7-----------8---5---|-8-----8-----7---8---10---8---7h8p7--|
|---8-8---8-8---8-8---8-8---8---8-|---8-8---8-8---8---8----8---8--------|
|
| Gtr II
| S S S S S S S S S S S S S S S S   S S S S S S S S S S  S S S S T T S
|---------------------------------|-------------------------------------|
|---------------------------------|-------------------------------------|
|-------------------5-------------|-------------------------------------|
|-7-----7-----5-----------7---3---|-7-----7-----5---7----8---7---5h7p5--|
|---------------------------------|-------------------------------------|
|---8-8---8-8---8-8---8-8---8---8-|---8-8---8-8---8---8----8---8--------|


                                    D       E       F           G
  Gtr I
  S S S S S S S S S S S S S S S S   S S S S S S S S  S  S  S  S  S  S  T T  S
|---------------------------------|--------------------------------------------|
|---------------------------------|--------------------------------------------|
|---------------------------------|--------------------------------------------|
|-------------------7-------------|--------------------------------------------|
|-8-----8-----7-----------8---5---|-8-----8-----7----8----10-----8-----7h8p=7--|
|---0-0---0-0---0-0---0-0---0---0-|---0-0---0-0---0-----0-----0-----0----------|
|
| Gtr II
| S S S S S S S S S S S S S S S S   S S S S S S S S  S  S  S  S  S  S  S    S
|---------------------------------|--------------------------------------------|
|---------------------------------|--------------------------------------------|
|-------------------5-------------|-7-7-7-7-9-9-9-9-10-10-10-10-12-12-12---12--|
|-7-----7-----5-----------7-------|-x-x-x-x-x-x-x-x--x--x--x--x--x--x--x----x--|
|-----------------------------8---|-5-5-5-5-7-7-7-7--8--8--8--8-10-10-10---10--|
|---0-0---0-0---0-0---0-0---0---0-|--------------------------------------------|


 Pre-Chorus 2
  Bb                        C         D                          E
  Gtr I
  S S S S S S S S  S  S S S S S S S   S S S S S S S S  S  S  S S S S T T S
|-----------------------------------|---------------------------------------|
|-----------------------------------|---------------------------------------|
|-----------------------------------|---------------------------------------|
|---------------------7-------------|---------------------------------------|
|-8-----8-----7-------------8---5---|-8-----8-----7----8----10---8---7h8p7--|
|---8-8---8-8---8--8----8-8---8---8-|---8-8---8-8---8-----8----8---8--------|
|
| H               +Q        Q         H               +Q         Q
|-----------------------------------|---------------------------------------|
|-----------------------------------|---------------------------------------|
|-3---------------(3)-------5-------|-7---------------(7)--------9----------|
|-x---------------(x)-------x-------|-x---------------(x)--------x----------|
|-1---------------(1)-------3-------|-5---------------(5)--------7----------|
|-----------------------------------|---------------------------------------|


  F                                  A               F         E
  Gtr I
   S S S S S S S S S S S S S S S S   S S S S S S S S  S S  S S S S T T S
|----------------------------------|--------------------------------------|
|----------------------------------|--------------------------------------|
|----------------------------------|--------------------------------------|
|--------------------7-------------|--------------------------------------|
|--8-----8-----7-----------8---5---|-8-----8-----7----8---10---8---7h8p7--|
|----0-0---0-0---0-0---0-0---0---0-|---0-0---0-0---0----0----0---0--------|
|
|  W                                 H                Q        Q
|----------------------------------|--------------------------------------|
|----------------------------------|--------------------------------------|
|-10-------------------------------|-2---------------10--------9----------|
|--x-------------------------------|-x----------------x--------x----------|
|--8-------------------------------|-0----------------8--------7----------|
|----------------------------------|--------------------------------------|


  Bb                        C         D                          E
  S S S S S S S S  S  S S S S S S S   S S S S S S S S  S  S  S S S S T T S
|-----------------------------------|---------------------------------------|
|-----------------------------------|---------------------------------------|
|-----------------------------------|---------------------------------------|
|---------------------7-------------|---------------------------------------|
|-8-----8-----7-------------8---5---|-8-----8-----7----8----10---8---7h8p7--|
|---8-8---8-8---8--8----8-8---8---8-|---8-8---8-8---8-----8----8---8--------|
|
| H               +Q        Q         H               +Q         Q
|-----------------------------------|---------------------------------------|
|-----------------------------------|---------------------------------------|
|-3---------------(3)-------5-------|-7---------------(7)--------9----------|
|-x---------------(x)-------x-------|-x---------------(x)--------x----------|
|-1---------------(1)-------3-------|-5---------------(5)--------7----------|
|-----------------------------------|---------------------------------------|


  F                                  A
   S S S S S S S S S S S S S S S S    S S S S S S S S S S  S S S S T T S
|----------------------------------|--------------------------------------|
|----------------------------------|--------------------------------------|
|----------------------------------|--------------------------------------|
|--------------------7-------------|--------------------------------------|
|--8-----8-----7-----------8---5---|--8-----8-----7---8---10---8---7h8p7--|
|----0-0---0-0---0-0---0-0---0---0-|----0-0---0-0---0---0----0---0--------|
|
|  W                                  W
|----------------------------------|--------------------------------------|
|----------------------------------|--------------------------------------|
|-10-------------------------------|-14-----------------------------------|
|--x-------------------------------|--x-----------------------------------|
|--8-------------------------------|-12-----------------------------------|
|----------------------------------|--------------------------------------|


   Chorus
    D5                      Bb5
    Gtr I
    E E E    E  +E  E E E   +E  E E   E  E   E E E
||------------------------|------------------------|
||o-----------------------|------------------------|
||------------------------|------------------------|
||----------10-(10)-----8-|-(8)----------7---------|
||o-8-7-8-----------8-7---|-----8-7---8-----10-8-7-|
||------------------------|------------------------|
|
|   Gtr II
|       PM|                       PM|
|   Q   S S  E  +H           Q    S S E +H
||------------------------|------------------------|
||o-----------------------|------------------------|
||------------------------|------------------------|
||--0--------0--(0)-------|--8--------8-(8)--------|
||o-0---0-0--0--(0)-------|--8----8-8-8-(8)--------|
||--0---0-0--0--(0)-------|--8----8-8-8-(8)--------|


  F5                      A5
  E E E    E  +E  E E E   +E  E E   E  E   E E E
|-----------------------|-------------------------||
|-----------------------|------------------------o||
|-----------------------|-------------------------||
|---------10-(10)-----8-|-(8)----------7----------||
|-8-7-8-----------8-7---|-----8-7---8-----10-8-7-o||
|-----------------------|-------------------------||
|
|     PM|                       PM|
| Q   S S  E  +H           Q    S S E +H
|-----------------------|-------------------------||
|-----------------------|------------------------o||
|-----------------------|-------------------------||
|-3--------3--(3)-------|--7--------7-(7)---------||
|-3---3-3--3--(3)-------|--7----7-7-7-(7)--------o||
|-3---3-3--3--(3)-------|--7----7-7-7-(7)---------||


   Pre-Verse 2
    N.C.
    Gtrs I, II
       PM|   PM|   PM|   PM|   PM  PM     PM|   PM|   PM|    PM|    PM  PM
     S S S S S S S S S S S S S S S S    S S S S S S S S S  S S S  S S S S
||-----------------------------------|-------------------------------------|
||o----------------------------------|-------------------------------------|
||-----------------------------------|-------------------------------------|
||-----------------------------------|-------------------------------------|
||o-10-----8-----7-----5-----7---8---|-10-----8-----7-----12-----10---8----|
||-----0-0---0-0---0-0---0-0---0---0-|----0-0---0-0---0-0----0-0----0---0--|


                                     F        E     D A        G       F
  Gtr I
     PM|   PM|   PM|   PM|   PM  PM
   S S S S S S S S S S S S S S S S     E  +S  E +S  E   E  +S   E  +S   E
|----------------------------------|---------------------------------------||
|----------------------------------|--------------------------------------o||
|----------------------------------|-/10-(10)-9-(9)-7-/14-(14)-12-(12)-10--||
|----------------------------------|---x--(x)-x-(x)-x---x--(x)--x--(x)--x--||
|-10-----8-----7-----5-----7---8---|--/8--(8)-7-(7)-5-/12-(12)-10-(10)--8-o||
|----0-0---0-0---0-0---0-0---0---0-|---------------------------------------||
|
| Gtr II
|    PM|   PM|   PM|   PM|   PM  PM
|  S S S S S S S S S S S S S S S S     H                H
|----------------------------------|---------------------------------------||
|----------------------------------|--------------------------------------o||
|----------------------------------|---------------------------------------||
|----------------------------------|---8---------------10------------------||
|-10-----8-----7-----5-----7---8---|---8---------------10-----------------o||
|----0-0---0-0---0-0---0-0---0---0-|---8---------------10------------------||


   Verse
    BbD5              F5D5  G5D5A5D5  BbD5              F  D5  E D5D D5
    Gtr I
    S S S S S S S S S S S S S S S S   S S S S S S S S S  S S S S S S S
||----------------------------------|-----------------------------------|
||o---------------------------------|-----------------------------------|
||----------------------------------|-------------------10-----9---7----|
||--8-0---------------3-----5---7---|-8-0----------------x-----x---x----|
||o-8-0-0-0-0-0-0-0-0-3-0-0-5-0-7-0-|-8-0-0-0-0-0-0-0-0--8-0-0-7-0-5-0--|
||--8p0-0-0-0-0-0-0-0-3-0-0-5-0-7-0-|-8p0-0-0-0-0-0-0-0----0-0---0---0--|
|
|   Gtr II
|   S S S S S S S S S S S S S S S S   S S S S S S S S S  S S S S S S S
||----------------------------------|-----------------------------------|
||o---------------------------------|-----------------------------------|
||----------------------------------|-----------------------------------|
||--8-0---------------3-----5---7---|-8-0----------------7-----5---3----|
||o-8-0-0-0-0-0-0-0-0-3-0-0-5-0-7-0-|-8-0-0-0-0-0-0-0-0--7-0-0-5-0-3-0--|
||--8p0-0-0-0-0-0-0-0-3-0-0-5-0-7-0-|-8p0-0-0-0-0-0-0-0--7-0-0-5-0-3-0--|


  BbD5              F5D5  G5D5A5D5  N.C.
  S S S S S S S S S S S S S S S S   S S S  S  S  S S S  S S  S  S  S  S  S S
|---------------------------------|-------------------------------------------||
|---------------------------------|------------------------------------------o||
|---------------------------------|-------------------------------------------||
|-8-0---------------3-----5---7---|-------------------------------------------||
|-8-0-0-0-0-0-0-0-0-3-0-0-5-0-7-0-|------------------------------------------o||
|-8p0-0-0-0-0-0-0-0-3-0-0-5-0-7-0-|-8-7-8-10-12-10-8-7-10-8-10-12-14-12-10-8--||
|
| S S S S S S S S S S S S S S S S   S S S  S  S  S S S  S S  S  S  S  S  S S
|---------------------------------|-------------------------------------------||
|---------------------------------|------------------------------------------o||
|---------------------------------|-------------------------------------------||
|-8-0---------------3-----5---7---|-------------------------------------------||
|-8-0-0-0-0-0-0-0-0-3-0-0-5-0-7-0-|-----------5--------------------7---------o||
|-8p0-0-0-0-0-0-0-0-3-0-0-5-0-7-0-|-5-0-5--7-----7-5-0--7-0--7--8-----8--7-0--||


 Pre-Chorus 3
  N.C.
  Gtrs I, II
  S S S S S S S S S S S S S S S S   S S S S S S S S S S  S S S S T T S
|---------------------------------|-------------------------------------|
|---------------------------------|-------------------------------------|
|---------------------------------|-------------------------------------|
|-------------------7-------------|-------------------------------------|
|-8-----8-----7-----------8---5---|-8-----8-----7---8---10---8---7h8p7--|
|---8-8---8-8---8-8---8-8---8---8-|---8-8---8-8---8---8----8---8--------|


  S S S S S S S S S S S S S S S S   S S S S S S S S S S  S S S S T T S
|---------------------------------|-------------------------------------|
|---------------------------------|-------------------------------------|
|---------------------------------|-------------------------------------|
|-------------------7-------------|-------------------------------------|
|-8-----8-----7-----------8---5---|-8-----8-----7---8---10---8---7h8p7--|
|---0-0---0-0---0-0---0-0---0---0-|---0-0---0-0---0---0----0---0--------|


  Gtr I
  S S S S S S S S S S S S S S S S   S S S S S S S S S S  S S S S T T S
|---------------------------------|-------------------------------------|
|---------------------------------|-------------------------------------|
|---------------------------------|-------------------------------------|
|-------------------7-------------|-------------------------------------|
|-8-----8-----7-----------8---5---|-8-----8-----7---8---10---8---7h8p7--|
|---8-8---8-8---8-8---8-8---8---8-|---8-8---8-8---8---8----8---8--------|
|
| Gtr II
| S S S S S S S S S S S S S S S S   S S S S S S S S S S  S S S S T T S
|---------------------------------|-------------------------------------|
|---------------------------------|-------------------------------------|
|-------------------5-------------|-------------------------------------|
|-7-----7-----5-----------7---3---|-7-----7-----5---7----8---7---5h7p5--|
|---------------------------------|-------------------------------------|
|---8-8---8-8---8-8---8-8---8---8-|---8-8---8-8---8---8----8---8--------|


                                    D       E       F           G
  Gtr I
  S S S S S S S S S S S S S S S S   S S S S S S S S  S  S  S  S  S  S  T T  S
|---------------------------------|--------------------------------------------|
|---------------------------------|--------------------------------------------|
|---------------------------------|--------------------------------------------|
|-------------------7-------------|--------------------------------------------|
|-8-----8-----7-----------8---5---|-8-----8-----7----8----10-----8-----7h8p=7--|
|---0-0---0-0---0-0---0-0---0---0-|---0-0---0-0---0-----0-----0-----0----------|
|
| Gtr II
| S S S S S S S S S S S S S S S S   S S S S S S S S  S  S  S  S  S  S  S    S
|---------------------------------|--------------------------------------------|
|---------------------------------|--------------------------------------------|
|-------------------5-------------|-7-7-7-7-9-9-9-9-10-10-10-10-12-12-12---12--|
|-7-----7-----5-----------7-------|-x-x-x-x-x-x-x-x--x--x--x--x--x--x--x----x--|
|-----------------------------8---|-5-5-5-5-7-7-7-7--8--8--8--8-10-10-10---10--|
|---0-0---0-0---0-0---0-0---0---0-|--------------------------------------------|


 Pre-Chorus 4
  Bb                        C         D                          E
  Gtr I
  S S S S S S S S  S  S S S S S S S   S S S S S S S S  S  S  S S S S T T S
|-----------------------------------|---------------------------------------|
|-----------------------------------|---------------------------------------|
|-----------------------------------|---------------------------------------|
|---------------------7-------------|---------------------------------------|
|-8-----8-----7-------------8---5---|-8-----8-----7----8----10---8---7h8p7--|
|---8-8---8-8---8--8----8-8---8---8-|---8-8---8-8---8-----8----8---8--------|
|
| H               +Q        Q         H               +Q         Q
|-----------------------------------|---------------------------------------|
|-----------------------------------|---------------------------------------|
|-3---------------(3)-------5-------|-7---------------(7)--------9----------|
|-x---------------(x)-------x-------|-x---------------(x)--------x----------|
|-1---------------(1)-------3-------|-5---------------(5)--------7----------|
|-----------------------------------|---------------------------------------|


  F                                  A               F         E
  Gtr I
   S S S S S S S S S S S S S S S S   S S S S S S S S  S S  S S S S T T S
|----------------------------------|--------------------------------------|
|----------------------------------|--------------------------------------|
|----------------------------------|--------------------------------------|
|--------------------7-------------|--------------------------------------|
|--8-----8-----7-----------8---5---|-8-----8-----7----8---10---8---7h8p7--|
|----0-0---0-0---0-0---0-0---0---0-|---0-0---0-0---0----0----0---0--------|
|
|  W                                 H                Q        Q
|----------------------------------|--------------------------------------|
|----------------------------------|--------------------------------------|
|-10-------------------------------|-2---------------10--------9----------|
|--x-------------------------------|-x----------------x--------x----------|
|--8-------------------------------|-0----------------8--------7----------|
|----------------------------------|--------------------------------------|


  Bb                        C         D                          E
  S S S S S S S S  S  S S S S S S S   S S S S S S S S  S  S  S S S S T T S
|-----------------------------------|---------------------------------------|
|-----------------------------------|---------------------------------------|
|-----------------------------------|---------------------------------------|
|---------------------7-------------|---------------------------------------|
|-8-----8-----7-------------8---5---|-8-----8-----7----8----10---8---7h8p7--|
|---8-8---8-8---8--8----8-8---8---8-|---8-8---8-8---8-----8----8---8--------|
|
| H               +Q        Q         H               +Q         Q
|-----------------------------------|---------------------------------------|
|-----------------------------------|---------------------------------------|
|-3---------------(3)-------5-------|-7---------------(7)--------9----------|
|-x---------------(x)-------x-------|-x---------------(x)--------x----------|
|-1---------------(1)-------3-------|-5---------------(5)--------7----------|
|-----------------------------------|---------------------------------------|


  F                                  A
   S S S S S S S S S S S S S S S S    S S S S S S S S S S  S S S S T T S
|----------------------------------|--------------------------------------|
|----------------------------------|--------------------------------------|
|----------------------------------|--------------------------------------|
|--------------------7-------------|--------------------------------------|
|--8-----8-----7-----------8---5---|--8-----8-----7---8---10---8---7h8p7--|
|----0-0---0-0---0-0---0-0---0---0-|----0-0---0-0---0---0----0---0--------|
|
|  W                                  W
|----------------------------------|--------------------------------------|
|----------------------------------|--------------------------------------|
|-10-------------------------------|-14-----------------------------------|
|--x-------------------------------|--x-----------------------------------|
|--8-------------------------------|-12-----------------------------------|
|----------------------------------|--------------------------------------|


   Chorus 2
    D5                      Bb5
    Gtr I
    E E E    E  +E  E E E   +E  E E   E  E   E E E
||------------------------|------------------------|
||o-----------------------|------------------------|
||------------------------|------------------------|
||----------10-(10)-----8-|-(8)----------7---------|
||o-8-7-8-----------8-7---|-----8-7---8-----10-8-7-|
||------------------------|------------------------|
|
|   Gtr II
|       PM|                       PM|
|   Q   S S  E  +H           Q    S S E +H
||------------------------|------------------------|
||o-----------------------|------------------------|
||------------------------|------------------------|
||--0--------0--(0)-------|--8--------8-(8)--------|
||o-0---0-0--0--(0)-------|--8----8-8-8-(8)--------|
||--0---0-0--0--(0)-------|--8----8-8-8-(8)--------|


  F5                      A5
  E E E    E  +E  E E E   +E  E E   E  E   E E E
|-----------------------|-------------------------||
|-----------------------|------------------------o||
|-----------------------|-------------------------||
|---------10-(10)-----8-|-(8)----------7----------||
|-8-7-8-----------8-7---|-----8-7---8-----10-8-7-o||
|-----------------------|-------------------------||
|
|     PM|                       PM|
| Q   S S  E  +H           Q    S S E +H
|-----------------------|-------------------------||
|-----------------------|------------------------o||
|-----------------------|-------------------------||
|-3--------3--(3)-------|--7--------7-(7)---------||
|-3---3-3--3--(3)-------|--7----7-7-7-(7)--------o||
|-3---3-3--3--(3)-------|--7----7-7-7-(7)---------||


 Break
  Q=150
  D5
  E E E E E E E E    E  E E E E E E E    E  E E E E E E E    E  E E E  E E E E
|-----------------|-------------------|-------------------|--------------------|
|-----------------|-------------------|-------------------|--------------------|
|-----------------|-------------------|-------------------|--------------------|
|-----------7-----|-------------5-----|---------5---8-----|--8--7-----10-8-7---|
|---5---8---------|-----4---7-----7-4-|-----7-------------|------------------8-|
|-0---0---0---0-0-|--0----0---0-------|--0----0---0---0-0-|-------8-8----------|
|
| W                 +W                  +W                  +W
|-----------------|-------------------|-------------------|--------------------|
|-----------------|-------------------|-------------------|--------------------|
|-----------------|-------------------|-------------------|--------------------|
|-0---------------|-(0)---------------|-(0)---------------|-(0)----------------|
|-0---------------|-(0)---------------|-(0)---------------|-(0)----------------|
|-0---------------|-(0)---------------|-(0)---------------|-(0)----------------|


  E E E E E E E E    E  E E E E E E E    E  E E E E E E E   E E E E  E E E E
|-----------------|-------------------|-------------------|------------------|
|-----------------|-------------------|-------------------|------------------|
|-----------------|-------------------|-------------------|------------------|
|-----------7-----|-------------5-----|---------5---8-----|-8-7-----10-8-7---|
|---5---8---------|-----4---7-----7-4-|-----7-------------|----------------8-|
|-0---0---0---0-0-|--0----0---0-------|--0----0---0---0-0-|-----8-8----------|
|
| W                 +W                  +W                  E E E E  E E E E
|-----------------|-------------------|-------------------|------------------|
|-----------------|-------------------|-------------------|------------------|
|-----------------|-------------------|-------------------|------------------|
|-0---------------|-(0)---------------|-(0)---------------|-8-7-----10-8-7---|
|-0---------------|-(0)---------------|-(0)---------------|----------------8-|
|-0---------------|-(0)---------------|-(0)---------------|-----8-8----------|


 Solo 1
  N.C.
  E E E E E  E   E   E     E  E E E E E  E E    E  E E  E E E  E     E
|-----------------------|--------------------|----------------------------|
|-----------------------|--------------------|----------------------------|
|-----------------------|--------------------|----------------------------|
|------------7----------|-------------5------|----------5---8-------------|
|---5---8---------------|-----4---7------7-4-|-----7----------------------|
|-0---0---0------0---0--|--0----0---0--------|--0----0----0----0-----0----|
|
| Q   E E E +E  +E  +E    +E  E E E E E  E E   +E  E E  E Q    S  S  S  S
|-----------------------|--------------------|-------------------------10-|
|-----------------------|--------------------|----------------10-11-13----|
|-----------------------|-------------7-10-9-|-(9)-7-9-10-9---------------|
|-----------------------|--------------------|----------------------------|
|-5---7-8-7-(7)-(7)-(7)-|-(7)-5-7-8-7--------|----------------------------|
|-----------------------|--------------------|----------------------------|


   E     E     E     E     E     E     E     E
|---------------------------------------------------|
|---------------------------------------------------|
|---------------------------------------------------|
|--8-----7----------------10-----8-----7------------|
|--------------------------------------------8------|
|--------------8-----8------------------------------|
|
|  S  S  S  S  S  S  S  S  S  S  S  S  S  S  S  S
|-12-13-12-10---------------------------------------|
|-------------13-11-10-------------------10---------|
|----------------------12-14-12-10-12-12----12-12---|
|---------------------------------------------------|
|---------------------------------------------------|
|---------------------------------------------------|


   E  E  E  E  E  E  E  E     E  E E E E E   E   E
|-------------------------|------------------------|
|-------------------------|------------------------|
|-------------------------|------------------------|
|-----------------7-------|--------------5---------|
|-----5-----8-------------|------4---7-------7---4-|
|--0-----0-----0-----0--0-|---0----0---0-----------|
|
|                       ~~
|  E  E  E  E  E  E  E  E    +H.            +E   E
|-------------------------|------------------------|
|-------------------------|------------------------|
|-15-15-15-15-15-15-14-14-|-(14)-----------(14)-14-|
|-------------------------|------------------------|
|-------------------------|------------------------|
|-------------------------|------------------------|


   E    E     E    E     E E E E    E     E     E     E     E     E     E     E
|--------------------------------|-----------------------------------------------|
|--------------------------------|-----------------------------------------------|
|--------------------------------|-----------------------------------------------|
|------------------5-------8-----|--8-----7----------------10-----8-----7--------|
|-------7------------------------|--------------------------------------------8--|
|--0----------0----------0---0-0-|--------------8-----8--------------------------|
|
|                        ~~
|  |---3---|  |---3---|
|  E  E    E  E  E    E  H          S  S  S  S  S  S  S  S  S  S  S  S  S  S  E
|-17------17----17------15-------|-12-13-12-10-----------------------------------|
|--------------------------------|-------------13-11-10----------------10--------|
|----14------14------14----------|----------------------12-14-15-14-12----12-12--|
|--------------------------------|-----------------------------------------------|
|--------------------------------|-----------------------------------------------|
|--------------------------------|-----------------------------------------------|


   E   E      E     E   E  E E E    E   E      E     E   E  E E E
|--------------------------------|--------------------------------|
|--------------------------------|--------------------------------|
|--------------------------------|--------------------------------|
|--------------------------7-----|--------------------------5-----|
|------5------------8------------|------4------------7--------7-4-|
|--0----------0---------0----0-0-|--0----------0---------0--------|
|
|                   ~~
|  E  +S   S  S  S  E  +H           E  +S   S  S  S  E  +H
|--------------------------------|--------------------------------|
|--------------------------------|--------------------------------|
|--------------------------------|--------------------------------|
|-12-(12)-13-12-10-12-(12)-------|-14-(14)-15-14-12-14-(14)-------|
|--------------------------------|--------------------------------|
|--------------------------------|--------------------------------|


   E   E     E       E  E   E     E       E    E  E     E  E  E  E E   E
|-------------------------------------------|-----------------------------|
|-------------------------------------------|-----------------------------|
|-------------------------------------------|-----------------------------|
|--------------------5------8---------------|--8--7----------10--8-7------|
|------7------------------------------------|--------------------------8--|
|--0---------0----------0---------0-------0-|-----------8--8--------------|
|
|  E  +S   E    +S   E  E  +S   E    +S   E    E  S  S  E  E  E  Q    +E
|-------------------------------------------|-----------------------------|
|-------------------------------------------|-----------------------------|
|-12-(12)-14---(14)-15-14-(14)-15---(15)-17-|-15-15-14-12-14-15-14---(14)-|
|-------------------------------------------|-----------------------------|
|-------------------------------------------|-----------------------------|
|-------------------------------------------|-----------------------------|


   E  E        E  E  E  E  E  E    E  E        E  E  E  E  E  E
|-------------------------------|-------------------------------|
|-------------------------------|-------------------------------|
|-------------------------------|-------------------------------|
|-----------------------7-------|-----------------------5-------|
|-----5-----------8-------------|-----4-----------7--------7--4-|
|--0-----------0-----0-----0--0-|--0-----------0-----0----------|
|
|     |--3--|                         |--3--|
|  E  S  S  S  E  E  E  E  E  E    E  S  S  S  E  E  E  E  E  E
|-17-17-15-13----------13-17-13-|-15-15-13-12----------12-15-12-|
|-------------15----15----------|-------------14----14----------|
|----------------14-------------|----------------15-------------|
|-------------------------------|-------------------------------|
|-------------------------------|-------------------------------|
|-------------------------------|-------------------------------|


   E  E        E  E  E  E  E  E    E     E     E     E     E     E     E     E
|-------------------------------|--------------------------------------------------|
|-------------------------------|--------------------------------------------------|
|-------------------------------|--------------------------------------------------|
|-----------------5-----8-------|--8-----7----------------10-----8-----7-----------|
|-----7-------------------------|--------------------------------------------8-----|
|--0-----------0-----0-----0--0-|--------------8-----8-----------------------------|
|
|     |--3--|
|  E  S  S  S  E  E  E  E  E  E    S  S  S  S  S  S  S  S  S  S  S  S  S  S  S  S
|-18-18-17-15----------15-18-15-|-20-18-17----18-17-------17-----------------------|
|-------------18----17----------|----------20-------20-18----20-18-17-20-18-17-----|
|----------------19-------------|----------------------------------------------19--|
|-------------------------------|--------------------------------------------------|
|-------------------------------|--------------------------------------------------|
|-------------------------------|--------------------------------------------------|


 Solo 2
           Dm/A                        C/G
  Gtr III
   E     E  E  E  E  E  E  E     E   E  E  E  E  E        E  E
|----------13-------13----13-|---------12-------12----------12-|
|-------15-15----15-15-15-15-|------13-13----13-13-------13-13-|
|-14-------14-14----14----14-|--12-----12-12----12----------12-|
|----------------------------|---------------------------------|
|----------------------------|---------------------------------|
|----------------------------|---------------------------------|
|
| Gtr I
|                                                |--3--|
|  W                            +E   E  E  E  E  S  S  S  E  E
|-20b22----------------------|---------------------------------|
|-15-------------------------|-(15)----15-17-18-17-18-17-15-17-|
|----------------------------|------14-------------------------|
|----------------------------|---------------------------------|
|----------------------------|---------------------------------|
|----------------------------|---------------------------------|
|
| Gtr II
|                                                |--3--|
|  W                            +E   E  E  E  E  S  S  S  E  E
|----------------------------|---------------------------------|
|----------------------------|---------------------------------|
|----------------------------|---------------------------------|
|-12-------------------------|-(12)----12-14-15-14-15-14-12-14-|
|----------------------------|------12-------------------------|
|----------------------------|---------------------------------|


        Bb/F                                C/G
   E  E  E  E   E    E    E    E      E   E  E  E  E  E  E   E
|-------10----------10--------10--|---------12-------12-----12----|
|----11-11-----11---11---11---11--|------13-13----13-13-13--13----|
|-10----10-10-------10--------10--|--12-----12-12----12-----12----|
|---------------------------------|-------------------------------|
|---------------------------------|-------------------------------|
|---------------------------------|-------------------------------|
|
|  Q     E  E  +E   +E   +E   +E     +E   E  E  E  E  E  E  +E
|-------15-15-(15)-(15)-(15)-(15)-|-(15)-22-22-18-18-20-20-(20)---|
|-18------------------------------|-------------------------------|
|---------------------------------|-------------------------------|
|---------------------------------|-------------------------------|
|---------------------------------|-------------------------------|
|---------------------------------|-------------------------------|
|
|  Q     E  E  +E   +E   +E   +E     +E   E  E  E  E  E  E  +E
|---------------------------------|-------------------------------|
|---------------------------------|-------------------------------|
|-------12-12-(12)-(12)-(12)-(12)-|-(12)-19-19-15-15-17-17-(17)---|
|-15------------------------------|-------------------------------|
|---------------------------------|-------------------------------|
|---------------------------------|-------------------------------|


        Dm/A                        C/G
  Gtr III
   E  E  E  E  E  E  E  E     E   E  E  E  E  E        E  E
|-------13-------13----13-|---------12-------12----------12-|
|----15-15----15-15-15-15-|------13-13----13-13-------13-13-|
|-14----14-14----14----14-|--12-----12-12----12----------12-|
|-------------------------|---------------------------------|
|-------------------------|---------------------------------|
|-------------------------|---------------------------------|
|
| Gtr I
|                                             |--3--|
|  W                         +E   E  E  E  E  S  S  S  E  E
|-------------------------|---------------------------------|
|-15----------------------|-(15)----15-17-18-17-18-17-15-17-|
|-------------------------|------14-------------------------|
|-------------------------|---------------------------------|
|-------------------------|---------------------------------|
|-------------------------|---------------------------------|
|
| Gtr II
|                                             |--3--|
|  W                         +E   E  E  E  E  S  S  S  E  E
|-------------------------|---------------------------------|
|-------------------------|---------------------------------|
|-------------------------|---------------------------------|
|-12----------------------|-(12)----12-14-15-14-15-14-12-14-|
|-------------------------|------12-------------------------|
|-------------------------|---------------------------------|


        Bb/F                          C/G
   E  E  E  E   E   E   E   E    E  E  E  E  E   E    E    E
|-------10---------10------10-|-------12--------12--------12----|
|----11-11-----11--11--11--11-|----13-13----13--13---13---13----|
|-10----10-10------10------10-|-12----12-12-----12--------12----|
|-----------------------------|---------------------------------|
|-----------------------------|---------------------------------|
|-----------------------------|---------------------------------|
|
|  Q     E  E  +E   E  +E   E    E  E  E  E  E  +E   +E   +E
|-------15-15-(15)-17-(17)-18-|-18-20-20-22-22-(22)-(22)-(22)---|
|-18--------------------------|---------------------------------|
|-----------------------------|---------------------------------|
|-----------------------------|---------------------------------|
|-----------------------------|---------------------------------|
|-----------------------------|---------------------------------|
|
|  Q     E  E  +E   E  +E   E    E  E  E  E  E  +E   +E   +E
|-----------------------------|---------------------------------|
|-----------------------------|---------------------------------|
|-------12-12-(12)-14-(14)-15-|-15-17-17-19-19-(19)-(19)-(19)---|
|-15--------------------------|---------------------------------|
|-----------------------------|---------------------------------|
|-----------------------------|---------------------------------|


 Solo 3
  D5
  Gtr I
                   |--3--|
   E  +S   E  +S   S  S  S  E  +S   E  +S   E
|---------------------------------------------|
|---------------------------------------------|
|------------------------------------------12-|
|-14-(14)-15-(15)-14-15-14-12-(12)-15-(15)----|
|---------------------------------------------|
|---------------------------------------------|
|
| Gtr II
|  W
|---------------------------------------------|
|---------------------------------------------|
|---------------------------------------------|
|--0------------------------------------------|
|--0------------------------------------------|
|--0------------------------------------------|


  F5                         G5
                              |--3--|  |--3--|  |--3--|
   Q      +E   E  Q   +Q      E  E  E  E  E  E  E  E  E  E  E
|-------------13-----------|----------------------------13-15-|
|-13b15--(13)----15--(15)--|----------------------13-15-------|
|--------------------------|-------------12-14-15-------------|
|--------------------------|----12-14-15----------------------|
|--------------------------|-15-------------------------------|
|--------------------------|----------------------------------|
|
|  W                          W
|--------------------------|----------------------------------|
|--------------------------|----------------------------------|
|--------------------------|----------------------------------|
|--3-----------------------|--5-------------------------------|
|--3-----------------------|--5-------------------------------|
|--3-----------------------|--5-------------------------------|


  Bb5            A5                  D5
                                         |--3--|
   Q   +E   E     E  +E   +E   +E     E  S  S  S  E  E  E  E  E  E
|-17--(17)-17b18-15-(15)-(15)-(15)-|-17-15-17-15-------------15-17-|
|----------------------------------|-------------18-15-17-18-------|
|----------------------------------|-------------------------------|
|----------------------------------|-------------------------------|
|----------------------------------|-------------------------------|
|----------------------------------|-------------------------------|
|
|  H              H                   W
|----------------------------------|-------------------------------|
|----------------------------------|-------------------------------|
|----------------------------------|-------------------------------|
|--8--------------7----------------|--0----------------------------|
|--8--------------7----------------|--0----------------------------|
|--8--------------7----------------|--0----------------------------|


  F5
   Q   +E   E     E  +E   +E   +E
|-20--(20)-20b21-17-(17)-(17)-(17)--|
|-----------------------------------|
|-----------------------------------|
|-----------------------------------|
|-----------------------------------|
|-----------------------------------|
|
|  W
|-----------------------------------|
|-----------------------------------|
|-----------------------------------|
|--3--------------------------------|
|--3--------------------------------|
|--3--------------------------------|


  G5                              Bb5                A5
      |--3--|
   E  S  S  S  E  E  E  E  E  E    E  +S   E  +S   E  H
|-18-17-18-17----17-------------|--------------------------|
|-------------18----18-17-15----|---------15-(15)-18-15----|
|----------------------------14-|-17-(17)------------------|
|-------------------------------|--------------------------|
|-------------------------------|--------------------------|
|-------------------------------|--------------------------|
|
|  W                               H                  H
|-------------------------------|--------------------------|
|-------------------------------|--------------------------|
|-------------------------------|--------------------------|
|--5----------------------------|--8------------------7----|
|--5----------------------------|--8------------------7----|
|--5----------------------------|--8------------------7----|


  D5
   S  S  S  S  S  S  S  S  S  S  S  S  S  S  S  S
|---------------------------------------------------|
|-13-15-13-10-13-15-13-10-13-15-13-10-13-15-13-10---|
|---------------------------------------------------|
|---------------------------------------------------|
|---------------------------------------------------|
|---------------------------------------------------|
|
|  Q           S  S  S  S  S  S  S  S  S  S  S  S
|---------------------------------------------------|
|---------------------------------------------------|
|---------------------------------------------------|
|--0------------------------------------------------|
|--0-----------0--0--0--0--0--0--0--0--0--0--0--0---|
|--0-----------0--0--0--0--0--0--0--0--0--0--0--0---|


  F5
   S     E  S  S     E    S  S     E    S  S     E    S
|-------10-10-------10---10-------10---10-------10---10-|
|-13b15-------13b15---------13b15---------13b15---------|
|-------------------------------------------------------|
|-------------------------------------------------------|
|-------------------------------------------------------|
|-------------------------------------------------------|
|
|  Q           S     S S  S  S     S S  S  S     S S  S
|-------------------------------------------------------|
|-------------------------------------------------------|
|-------------------------------------------------------|
|--3----------------------------------------------------|
|--3-----------3-----3-3--3--3-----3-3--3--3-----3-3--3-|
|--3-----------3-----3-3--3--3-----3-3--3--3-----3-3--3-|


  G5
   H              H
|-12-------------13------------------|
|-15b17----------16b18---------------|
|------------------------------------|
|------------------------------------|
|------------------------------------|
|------------------------------------|
|
|  Q     S S S S  S    S S S S S S S
|------------------------------------|
|------------------------------------|
|------------------------------------|
|--5---------------------------------|
|--5-----5-5-5-5--5----5-5-5-5-5-5-5-|
|--5-----5-5-5-5--5----5-5-5-5-5-5-5-|


  Bb5               A5
   H                 Q          Q
|-15----------------17--------(17)\-------|
|-18b20-------------20b22-----(22)\-------|
|-----------------------------------------|
|-----------------------------------------|
|-----------------------------------------|
|-----------------------------------------|
|
|  E    S S S S S S  E    S S   S   S S S
|-----------------------------------------|
|-----------------------------------------|
|-----------------------------------------|
|--8-----------------7--------------------|
|--8----8-8-8-8-8-8--7----7-7---7---7-7-7-|
|--8----8-8-8-8-8-8--7----7-7---7---7-7-7-|


  D5
   S  S  S  S  S  S  S  S  S  S  S  S  Q
|-20-17----------17-20-17----------18-18-------|
|-------18----18----------18----18-------------|
|----------19----------------19----------------|
|----------------------------------------------|
|----------------------------------------------|
|----------------------------------------------|
|
|  Q           S  S  S  S  S  S  S  S  S S S S
|----------------------------------------------|
|----------------------------------------------|
|----------------------------------------------|
|--0-------------------------------------------|
|--0-----------0--0--0--0--0--0--0--0--0-0-0-0-|
|--0-----------0--0--0--0--0--0--0--0--0-0-0-0-|


  F5
   S  S  S  S  S  S  S  S  S  S  S  S  Q
|-20-17----------17-20-17----------------------|
|-------18----18----------18----18-20-20-------|
|----------19----------------19----------------|
|----------------------------------------------|
|----------------------------------------------|
|----------------------------------------------|
|
|  Q           S  S  S  S  S  S  S  S  S S S S
|----------------------------------------------|
|----------------------------------------------|
|----------------------------------------------|
|--3-------------------------------------------|
|--3-----------3--3--3--3--3--3--3--3--3-3-3-3-|
|--3-----------3--3--3--3--3--3--3--3--3-3-3-3-|


  G5
   S  S  S  S  S  S  S  S  S  S  S  S  Q          E     +S   E    +S   E    H
|-20-17----------17-20-17----------17-17-------|-20b22-(20)-20---(20)-17---22b24---------------|
|-------18----18----------18----18-------------|-----------------------------------------------|
|----------19----------------19----------------|-----------------------------------------------|
|----------------------------------------------|-----------------------------------------------|
|----------------------------------------------|-----------------------------------------------|
|----------------------------------------------|-----------------------------------------------|
|
|  Q           S  S  S  S  S  S  S  S  S S S S    E      S   S S   S   S S  E    S S S S S S
|----------------------------------------------|-----------------------------------------------|
|----------------------------------------------|-----------------------------------------------|
|----------------------------------------------|-----------------------------------------------|
|--5-------------------------------------------|--8-------------------------7------------------|
|--5-----------5--5--5--5--5--5--5--5--5-5-5-5-|--8------8---8-8---8---8-8--7----7-7-7-7-7-7---|
|--5-----------5--5--5--5--5--5--5--5--5-5-5-5-|--8------8---8-8---8---8-8--7----7-7-7-7-7-7---|


 Re-Verse
  Q=107
  D5
     PM|   PM|   PM|   PM|   PM  PM     PM|   PM|   PM|    PM|    PM  PM
   S S S S S S S S S S S S S S S S    S S S S S S S S S  S S S  S S S S
|----------------------------------|------------------------------------|
|----------------------------------|------------------------------------|
|----------------------------------|------------------------------------|
|----------------------------------|------------------------------------|
|-10-----8-----7-----5-----7---8---|-10-----8-----7-----12-----10---8---|
|----0-0---0-0---0-0---0-0---0---0-|----0-0---0-0---0-0----0-0----0---0-|
|
|  E   E   E   E   E   E   E   E      W
|----------------------------------|------------------------------------|
|----------------------------------|------------------------------------|
|----------------------------------|------------------------------------|
|--0-------------------------------|--0---------------------------------|
|--0-------------------------------|--0---------------------------------|
|--0-------------------------------|--0---------------------------------|


                                     F        E       D A        G          F
  Gtr I
     PM|   PM|   PM|   PM|   PM  PM
   S S S S S S S S S S S S S S S S     E  +S  E   +S  E   E  +S   E     +S   E
|----------------------------------|-------------------------------------------|
|----------------------------------|-------------------------------------------|
|----------------------------------|-/10-(10)-9---(9)-7-/14-(14)-12----(12)-10-|
|----------------------------------|---x--(x)-x---(x)-x---x--(x)--x-----(x)--x-|
|-10-----8-----7-----5-----7---8---|--/8--(8)-7---(7)-5-/12-(12)-10----(10)--8-|
|----0-0---0-0---0-0---0-0---0---0-|-------------------------------------------|
|
| Gtr II
|    PM|   PM|   PM|   PM|   PM  PM
|  S S S S S S S S S S S S S S S S     E   E    E     E   E   E      E       E
|----------------------------------|-------------------------------------------|
|----------------------------------|-------------------------------------------|
|----------------------------------|-------------------------------------------|
|----------------------------------|---8---8----8-----8--10--10-----10------10-|
|-10-----8-----7-----5-----7---8---|---8---8----8-----8--10--10-----10------10-|
|----0-0---0-0---0-0---0-0---0---0-|---8---8----8-----8--10--10-----10------10-|


 Pre-Chorus 5
  Bb                        C         D                          E
  Gtr I
  S S S S S S S S  S  S S S S S S S   S S S S S S S S  S  S  S S S S T T S
|-----------------------------------|---------------------------------------|
|-----------------------------------|---------------------------------------|
|-----------------------------------|---------------------------------------|
|---------------------7-------------|---------------------------------------|
|-8-----8-----7-------------8---5---|-8-----8-----7----8----10---8---7h8p7--|
|---8-8---8-8---8--8----8-8---8---8-|---8-8---8-8---8-----8----8---8--------|
|
| H               +Q        Q         H               +Q         Q
|-----------------------------------|---------------------------------------|
|-----------------------------------|---------------------------------------|
|-3---------------(3)-------5-------|-7---------------(7)--------9----------|
|-x---------------(x)-------x-------|-x---------------(x)--------x----------|
|-1---------------(1)-------3-------|-5---------------(5)--------7----------|
|-----------------------------------|---------------------------------------|


  F                                  A               F         E
  Gtr I
   S S S S S S S S S S S S S S S S   S S S S S S S S  S S  S S S S T T S
|----------------------------------|--------------------------------------|
|----------------------------------|--------------------------------------|
|----------------------------------|--------------------------------------|
|--------------------7-------------|--------------------------------------|
|--8-----8-----7-----------8---5---|-8-----8-----7----8---10---8---7h8p7--|
|----0-0---0-0---0-0---0-0---0---0-|---0-0---0-0---0----0----0---0--------|
|
|  W                                 H                Q        Q
|----------------------------------|--------------------------------------|
|----------------------------------|--------------------------------------|
|-10-------------------------------|-2---------------10--------9----------|
|--x-------------------------------|-x----------------x--------x----------|
|--8-------------------------------|-0----------------8--------7----------|
|----------------------------------|--------------------------------------|


  Bb                        C         D                          E
  S S S S S S S S  S  S S S S S S S   S S S S S S S S  S  S  S S S S T T S
|-----------------------------------|---------------------------------------|
|-----------------------------------|---------------------------------------|
|-----------------------------------|---------------------------------------|
|---------------------7-------------|---------------------------------------|
|-8-----8-----7-------------8---5---|-8-----8-----7----8----10---8---7h8p7--|
|---8-8---8-8---8--8----8-8---8---8-|---8-8---8-8---8-----8----8---8--------|
|
| H               +Q        Q         H               +Q         Q
|-----------------------------------|---------------------------------------|
|-----------------------------------|---------------------------------------|
|-3---------------(3)-------5-------|-7---------------(7)--------9----------|
|-x---------------(x)-------x-------|-x---------------(x)--------x----------|
|-1---------------(1)-------3-------|-5---------------(5)--------7----------|
|-----------------------------------|---------------------------------------|


  F                                  A
   S S S S S S S S S S S S S S S S    S S S S S S S S S S  S S S S T T S
|----------------------------------|--------------------------------------|
|----------------------------------|--------------------------------------|
|----------------------------------|--------------------------------------|
|--------------------7-------------|--------------------------------------|
|--8-----8-----7-----------8---5---|--8-----8-----7---8---10---8---7h8p7--|
|----0-0---0-0---0-0---0-0---0---0-|----0-0---0-0---0---0----0---0--------|
|
|  W                                  W
|----------------------------------|--------------------------------------|
|----------------------------------|--------------------------------------|
|-10-------------------------------|-14-----------------------------------|
|--x-------------------------------|--x-----------------------------------|
|--8-------------------------------|-12-----------------------------------|
|----------------------------------|--------------------------------------|


   Chorus 3
    D5                      Bb5
    Gtr I
    E E E    E  +E  E E E   +E  E E   E  E   E E E
||------------------------|------------------------|
||o-----------------------|------------------------|
||------------------------|------------------------|
||----------10-(10)-----8-|-(8)----------7---------|
||o-8-7-8-----------7-8---|-----8-7---8-----10-8-7-|
||------------------------|------------------------|
|
|   Gtr II
|       PM|                       PM|
|   Q   S S  E  +H           Q    S S E +H
||------------------------|------------------------|
||o-----------------------|------------------------|
||------------------------|------------------------|
||--0--------0--(0)-------|--8--------8-(8)--------|
||o-0---0-0--0--(0)-------|--8----8-8-8-(8)--------|
||--0---0-0--0--(0)-------|--8----8-8-8-(8)--------|


  F5                      A5
  E E E    E  +E  E E E   +E  E E   E  E   E E E
|-----------------------|-------------------------||
|-----------------------|------------------------o||
|-----------------------|-------------------------||
|---------10-(10)-----8-|-(8)----------7----------||
|-8-7-8-----------7-8---|-----8-7---8-----10-8-7-o||
|-----------------------|-------------------------||
|
|     PM|                       PM|
| Q   S S  E  +H           Q    S S E +H
|-----------------------|-------------------------||
|-----------------------|------------------------o||
|-----------------------|-------------------------||
|-3--------3--(3)-------|--7--------7-(7)---------||
|-3---3-3--3--(3)-------|--7----7-7-7-(7)--------o||
|-3---3-3--3--(3)-------|--7----7-7-7-(7)---------||


   Out-Chorus
    F  E F    C       F  E Bb        F  E   F  A   G  F  E
    Gtr I
     E E  E    E  +E   E E  E    +E   E E    E  E   E  E E
||----------------------------|----------------------------|
||o-----------13-(13)------11-|-(11)-----------10----------|
||--10-9-10-----------10-9----|------10-9---10-----12-10-9-|
||------------10-(10)-------8-|--(8)------------7----------|
||o--8-7--8------------8-7----|-------8-7----8-----10--8-7-|
||----------------------------|----------------------------|
|
|   Gtr II
|         PM|                           PM|
|    Q    S S  E  +H              Q     S S  E +H
||----------------------------|----------------------------|
||o---------------------------|----------------------------|
||----------------------------|----------------------------|
||---0---------0--(0)---------|---8----------8-(8)---------|
||o--0----0-0--0--(0)---------|---8-----8-8--8-(8)---------|
||---0----0-0--0--(0)---------|---8-----8-8--8-(8)---------|


  F  E F    C       F  E Bb        F  E   F  A   G  F  E
   E E  E    E  +E   E E  E    +E   E E    E  E   E  E E
|---------------------------|-----------------------------||
|-----------13-(13)------11-|-(11)-----------10----------o||
|-10-9-10-----------10-9----|------10-9---10-----12-10-9--||
|-----------10-(10)-------8-|--(8)------------7-----------||
|--8-7--8------------8-7----|-------8-7----8-----10--8-7-o||
|---------------------------|-----------------------------||
|
|       PM|                           PM|
|  Q    S S  E  +H              Q     S S  E +H
|---------------------------|-----------------------------||
|---------------------------|----------------------------o||
|---------------------------|-----------------------------||
|--3---------3--(3)---------|---7----------7-(7)----------||
|--3----3-3--3--(3)---------|---7-----7-7--7-(7)---------o||
|--3----3-3--3--(3)---------|---7-----7-7--7-(7)----------||


 Outro
  D5
  W          +W           +W           +W
|----------|------------|------------|--------*|
|-3--------|-(3)--------|-(3)--------|-(3)----*|
|-2--------|-(2)--------|-(2)--------|-(2)----*|
|-0--------|-(0)--------|-(0)--------|-(0)----*|
|-0--------|-(0)--------|-(0)--------|-(0)----*|
|-0--------|-(0)--------|-(0)--------|-(0)----*|



Duration Legend
---------------
W - whole; H - half; Q - quarter; E - 8th; S - 16th; T - 32nd; X - 64th; a - acciaccatura
+ - note tied to previous; . - note dotted; .. - note double dotted
Uncapitalized letters represent notes that are staccato (1/2 duration)
Irregular groupings are notated above the duration line
Duration letters will always appear directly above the note/fret number it represents the
duration for.  Duration letters with no fret number below them represent rests.  Multi-
bar rests are notated in the form Wxn, where n is the number of bars to rest for.  Low
melody durations appear below the staff

Tablature Legend
----------------
 h   - hammer-on
 p   - pull-off
 b   - bend
 pb  - pre-bend
 r   - bend release (if no number after the r, then release immediately)
 /\  - slide into or out of (from/to "nowhere")
 s   - legato slide
 S   - shift slide
 - natural harmonic
[n]  - artificial harmonic
n(n) - tapped harmonic
 ~   - vibrato
 tr  - trill
 T   - tap
 TP  - trem. picking
 PM  - palm muting
\n/  - tremolo bar dip; n = amount to dip
 \n  - tremolo bar down
 n/  - tremolo bar up
/n\  - tremolo bar inverted dip
 =   - hold bend; also acts as connecting device for hammers/pulls
 <> - volume swell (louder/softer)
 x   - on rhythm slash represents muted slash
 o   - on rhythm slash represents single note slash

Misc Legend
-----------
 |  - bar
||  - double bar
||o - repeat start
o|| - repeat end
*|  - double bar (ending)
 :  - bar (freetime)
 $  - Segno
 &  - Coda
Tempo markers -  = BPM(8/16=s8/s16), where s8 = swing 8ths, s16 = swing 16ths

comments
We did not receive enough feedback on this tab! Please rate:
print report bad tab
1 2 3 4 5
I want to post or [tab]
guest
You may want to rate the tab now too:
select rating
Please do not post tabs as comments. Select "correction" instead!