Oops, an error
Loading. Please wait.

Of Prometheus And The Crucifix Tab

ver1
ver1

Whole song

Interactive

More versions @911Tabs.com
22,878 views 21 this week
12 commentsread comments
1 2 3 4 5
excellent!
x 9
Autoscroll
+/-
esc
set tempo
stop
Contributor
WARNING: You are trying to view
                                    content from Ultimate-Guitar.com
                                    in an unauthorized application,
                                    which is prohibited.

                                    Please use an official Ultimate
                                    Guitar Tabs application for iPhone,
                                    iPad or Android to access legitimate
                                    chords, guitar, bass, and drum tabs
                                    from Ultimate-Guitar.com database.

                                    Type "ultimate guitar tabs" in Apple
                                    App Store's or Android Market's
                                    search to find the application.
Transcribed by Luke Slater (Lukige)
I know it's hard to read, but I spent a hell of a long time doing the powertab for this 
you can understand if I didn't wanna spend twice as long tabbing out the text version. 
This is ripped directly from my powertab version!
Enjoy and comments ratings are appreciated!

 Intro
  Q=104
 4/4
  Gtr I
|----------------------------------|----------------------------------|
|----------------------------------|----------------------------------|
|----------------------------------|----------------------------------|
|-11-11-11-11--9--9--9-------------|----------------------------11--9-|
|----------------------11-11-11-11-|-12-12-12-12-12-11-11-11----------|
|----------------------------------|-------------------------12-------|
|----------------------------------|----------------------------------|
|
| Gtr II
|----------------------------------|----------------------------------|
|-14-14-14-14-12-12-12-------------|----------------------------14-12-|
|----------------------13-13-13-13-|-14-14-14-14-14-13-13-13----------|
|----------------------------------|-------------------------14-------|
|----------------------------------|----------------------------------|
|----------------------------------|----------------------------------|
|----------------------------------|----------------------------------|
|
| Gtr III
|----------------------------------|----------------------------------|
|----------------------------------|----------------------------------|
|----------------------------------|----------------------------------|
|----------------------------------|----------------------------------|
|--9-------------------------------|--7-------------------------------|
|--9-------------------------------|--7-------------------------------|
|--7-------------------------------|--5-------------------------------|


|----------------------------------|-----------------------------------|
|----------------------------------|-----------------------------------|
|----------------------------------|-----------------------------------|
|-12-12-12-12-11-11-11-------------|-----------------------------------|
|----------------------12-12-12-12-|-12-12-12-12-11-11-11--8--8--8--8--|
|----------------------------------|-----------------------------------|
|----------------------------------|-----------------------------------|
|
|----------------------------------|-----------------------------------|
|-15-15-15-15-14-14-14-------------|-----------------------------------|
|----------------------14-14-14-14-|-14-14-14-14-13-13-13-10-10-10-10--|
|----------------------------------|-----------------------------------|
|----------------------------------|-----------------------------------|
|----------------------------------|-----------------------------------|
|----------------------------------|-----------------------------------|
|
|                                              PM       PM
|----------------------------------|-----------------------------------|
|----------------------------------|-----------------------------------|
|----------------------------------|-----------------------------------|
|----------------------------------|-----------------------------------|
|--5-------------------------------|--2-----------4--4-----8--8--8-----|
|--5-------------------------------|--2-----------x--x-----x--x--x-----|
|--3-------------------------------|--0--------x--2--2--x--6--6--6-----|


   Verse
    $
    ~ PM  PM   PM|    PM  PM   PM  PM  ~ PM  PM   PM|    PM  PM   PM  PM
||-----------------------------------|----------------------------------|
||-----------------------------------|----------------------------------|
||o----------------------------------|----------------------------------|
||-----------------------------------|----------------------------------|
||o-------------------------11---9---|-------------------------11---9---|
||-----------------10---9------------|----------------10---9------------|
||--7-7-9-7-10-7-7----7---7----7---7-|-6-6-9-6-10-6-6----6---6----6---6-|
|
|   ~ PM  PM   PM|    PM  PM   PM  PM  ~ PM  PM   PM|    PM  PM   PM  PM
||-----------------------------------|----------------------------------|
||-----------------------------------|----------------------------------|
||o----------------------------------|----------------------------------|
||-----------------------------------|----------------------------------|
||o-------------------------11---9---|-------------------------11---9---|
||-----------------10---9------------|----------------10---9------------|
||--7-7-9-7-10-7-7----7---7----7---7-|-6-6-9-6-10-6-6----6---6----6---6-|


  ~ PM  PM   PM|   PM  PM  PM  PM  ~ PM  PM  PM| ~ PM  PM  PM|
|--------------------------------|-------------------------------||
|--------------------------------|-------------------------------||
|--------------------------------|------------------------------o||
|--------------------------------|-------------------7---6-------||
|------------------------9---7---|-----9---8--------------------o||
|----------------9---7-----------|-------------------------------||
|-5-5-9-5-10-5-5---5---5---5---5-|-7-7---7---7-7-6-6---6---6-6---||
|
| ~ PM  PM   PM|   PM  PM  PM  PM  ~ PM  PM  PM| ~ PM  PM  PM|
|--------------------------------|-------------------------------||
|--------------------------------|-------------------------------||
|--------------------------------|------------------------------o||
|--------------------------------|-------------------4---3-------||
|------------------------9---7---|-----5---4--------------------o||
|----------------9---7-----------|-------------------------------||
|-5-5-9-5-10-5-5---5---5---5---5-|-3-3---3---3-3-2-2---2---2-2---||


 Pre-Chorus
       PM----|      PM----|      PM|      PM----|      PM----|      PM----|
|-------------------------------------------------------------------------|
|-------------------------------------------------------------------------|
|-------------------------------------------------------------------------|
|-------------------------------------------------------------------------|
|-------------------------------------------------------------------------|
|-------------------------------------------------------------------------|
|-10p7-7-7-7-7-10p7-7-7-7-7-10p7-7-7-12p9-9-9-9-9-12p9-9-9-9-9-12p9-9-9---|
|
|      PM----|      PM----|      PM|      PM----|      PM----|      PM----|
|-------------------------------------------------------------------------|
|-------------------------------------------------------------------------|
|-------------------------------------------------------------------------|
|-------------------------------------------------------------------------|
|-------------------------------------------------------------------------|
|--9p5-5-5-5-5--9p5-5-5-5-5--9p5-5-5-10p7-7-7-7-7-10p7-7-7-7-7-10p7-7-7---|
|-------------------------------------------------------------------------|
|
| Gtr III
|      PM----|      PM----|      PM|      PM----|      PM----|      PM----|
|-------------------------------------------------------------------------|
|-------------------------------------------------------------------------|
|-------------------------------------------------------------------------|
|-11p7-7-7-7-7-11p7-7-7-7-7-11p7-7-7-12p9-9-9-9-9-12p9-9-9-9-9-12p9-9-9---|
|-------------------------------------------------------------------------|
|-------------------------------------------------------------------------|
|-------------------------------------------------------------------------|


         PM------|         PM------|         PM|      PM----|     PM----|     PM----|
|-----------------------------------------------------------------------------------|
|-----------------------------------------------------------------------------------|
|-----------------------------------------------------------------------------------|
|-----------------------------------------------------------------------------------|
|-----------------------------------------------------------------------------------|
|-----------------------------------------------------------------------------------|
|-14p10-10-10-10-10-14p10-10-10-10-10-14p10-10-10-9p6-6-6-6-6-9p6-6-6-6-6-9p6-6-6---|
|
|        PM------|         PM------|         PM|      PM----|     PM----|     PM----|
|-----------------------------------------------------------------------------------|
|-----------------------------------------------------------------------------------|
|-----------------------------------------------------------------------------------|
|-----------------------------------------------------------------------------------|
|-----------------------------------------------------------------------------------|
|-12p=9--9--9--9--9-12p=9--9--9--9--9-12p=9--9--9-7p4-4-4-4-4-7p4-4-4-4-4-7p4-4-4---|
|-----------------------------------------------------------------------------------|
|
|        PM------|         PM------|                  PM----|     PM----|     PM----|
|-----------------------------------------------------------------------------------|
|-----------------------------------------------------------------------------------|
|-----------------------------------------------------------------------------------|
|-14p11-11-11-11-11-14p11-11-11-11-11-14p11-11-11-9p6-6-6-6-6-9p6-6-6-6-6-9p6-6-6---|
|-----------------------------------------------------------------------------------|
|-----------------------------------------------------------------------------------|
|-----------------------------------------------------------------------------------|


       PM----|      PM----|      PM|      PM----|      PM----|      PM----|
|-------------------------------------------------------------------------|
|-------------------------------------------------------------------------|
|-------------------------------------------------------------------------|
|-------------------------------------------------------------------------|
|-------------------------------------------------------------------------|
|-------------------------------------------------------------------------|
|-10p7-7-7-7-7-10p7-7-7-7-7-10p7-7-7-12p9-9-9-9-9-12p9-9-9-9-9-12p9-9-9---|
|
|      PM----|      PM----|      PM|      PM----|      PM----|      PM----|
|-------------------------------------------------------------------------|
|-------------------------------------------------------------------------|
|-------------------------------------------------------------------------|
|-------------------------------------------------------------------------|
|--9p5-5-5-5-5--9p5-5-5-5-5--9p5-5-5-11p7-7-7-7-7-11p7-7-7-7-7-11p7-7-7---|
|-------------------------------------------------------------------------|
|-------------------------------------------------------------------------|
|
|      PM----|      PM----|      PM|      PM----|      PM----|      PM----|
|-------------------------------------------------------------------------|
|-------------------------------------------------------------------------|
|-------------------------------------------------------------------------|
|-11p7-7-7-7-7-11p7-7-7-7-7-11p7-7-7-12p9-9-9-9-9-12p9-9-9-9-9-12p9-9-9---|
|-------------------------------------------------------------------------|
|-------------------------------------------------------------------------|
|-------------------------------------------------------------------------|


         PM------|         PM------|         PM-----------------------|
|---------------------------------------------------------------------|
|---------------------------------------------------------------------|
|---------------------------------------------------------------------|
|-------------------------------------------------11-11-x-11-(11)\----|
|-------------------------------------------------11-11-x-11-(11)\----|
|--------------------------------------------------9--9-x--9--(9)\----|
|-14p10-10-10-10-10-14p10-10-10-10-10-14p10-10-10---------------------|
|
|        PM------|         PM------|         PM-----------------------|
|---------------------------------------------------------------------|
|---------------------------------------------------------------------|
|---------------------------------------------------------------------|
|-------------------------------------------------11-11-x-11-(11)\----|
|-12p=9--9--9--9--9-12p=9--9--9--9--9-12p=9--9--9-11-11-x-11-(11)\----|
|--------------------------------------------------9--9-x--9--(9)\----|
|---------------------------------------------------------------------|
|
|        PM------|         PM------|         PM-----------------------|
|---------------------------------------------------------------------|
|---------------------------------------------------------------------|
|---------------------------------------------------------------------|
|-14p11-11-11-11-11-14p11-11-11-11-11-14p11-11-11-11-11-x-11-(11)\----|
|-------------------------------------------------11-11-x-11-(11)\----|
|--------------------------------------------------9--9-x--9--(9)\----|
|---------------------------------------------------------------------|


   Chorus
              ~~~~~~~~~~~~~~~~~                                        ~~~
||------------------------------|----------------------------------------|
||------------------------------|------------------14---12---------------|
||o------14-13-----------(13)---|---------14-13------------14---13\------|
||--11-11--------------------11-|-(11)-11-------11--------------------12-|
||o-----------------------------|----------------------------------------|
||------------------------------|----------------------------------------|
||------------------------------|----------------------------------------|
|
||----------------------------------|------------------------------------------|
||----------------------------------|------------------------------------------|
||o---------------------------------|------------------------------------------|
||---4-----4--4-4-4-4-4-4---4-------|------------------------------------------|
||o--4-----4--4-4-4-4-4-4---4--4----|---4------4--4--4--4-4--4-4----4-----5----|
||---2-----2--2-2-2-2-2-2---2--4----|---4------4--4--4--4-4--4-4----4-----5----|
||-----------------------------2----|---2------2--2--2--2-2--2-2----2-----3----|


                                                                    D.S.
              ~~~~~~~~~~~~~~~~~
|-----------------------------------|-12---------------/17---16----14--------||
|-----------------------------------|----15-14---12-------------17-----------||
|---------14-13-----------(13)------|---------------14----------------------o||
|-(12)-12------------------------14-|----------------------------------------||
|-----------------------------------|---------------------------------------o||
|-----------------------------------|----------------------------------------||
|-----------------------------------|----------------------------------------||
|
|------------------------------|----------------------------------------||
|------------------------------|----------------------------------------||
|------------------------------|---------------------------------------o||
|------------------------------|--7--7--7-7--x--6-----x-----------------||
|--5--5--5-5-5-5-5-5---5--5----|--7--7--7-7--x--7-----x--7-------x-----o||
|--5--5--5-5-5-5-5-5---5--5----|--5--5--5-5--x--4--x-----7-------x------||
|--3--3--3-3-3-3-3-3---3--3----|-------------------------5-------x------||


 Breakdown
  Q=194
     PM--------------------|     PM|   PM|      PM------------------------|
|----------------------------|-------------|------------------------------|
|----------------------------|-------------|------------------------------|
|----------------------------|-------------|------------------------------|
|-4--------------------------|-4-3-4-6-3-4-|-4----------------------------|
|-4--------------------------|-4-3-4-6-3-4-|-4----------------------------|
|-2--2-2-2-2-2-2-2-2-2-2-2-2-|-2-1-2-4-1-2-|-2--2-2-2-2-2-2-2-2-2-2-2-2---|
|----------------------------|-------------|------------------------------|


      PM|     PM|     PM|     PM|      PM------------------------|
|---------------------------------|------------------------------|
|---------------------------------|------------------------------|
|---------------------------------|------------------------------|
|---------------------------------|-4----------------------------|
|---------------------------------|-4----------------------------|
|-4p2-2-2-4p2-2-2-7p2-2-2-5p2-2-2-|-2--2-2-2-2-2-2-2-2-2-2-2-2---|
|---------------------------------|------------------------------|
|
| Gtr I
|---------------------------------|----------------------------|
|---------------------------------|----------------------------|
|---------------------------------|----------------------------|
|---------------------------------|-4--------------------------|
|---------------------------------|-4--------------------------|
|---------------------------------|-2--------------------------|
|---------------------------------|----------------------------|

                          Pick Slides
    PM|   PM|
|-------------|----------|-------------|
|-------------|----------|-------------|
|-------------|----------|-------------|
|-4-3-4-6-3-4-|-4--------|-------------|
|-4-3-4-6-3-4-|-4--------|-------------|
|-2-1-2-4-1-2-|-2--------|-------------|
|-------------|----------|-x\----------|
|
|   PM|   PM|
|-------------|----------|-------------|
|-------------|----------|-------------|
|-------------|----------|-------------|
|-4-3-4-6-3-4-|-4--------|-------------|
|-4-3-4-6-3-4-|-4--------|-------------|
|-2-1-2-4-1-2-|-2--------|-------------|
|-------------|----------|-------x\----|


    Gtrs I, II
       PM--------------------|      PM-------------------------|
||-----------------------------|-------------------------------|
||-----------------------------|-------------------------------|
||o----------------------------|-------------------------------|
||--4--------------------------|-6-----------------------------|
||o-x--------------------------|-x-----------------------------|
||--2--2-2-2-2-2-2-2-2-2-2-2-2-|-4--2-2-2-2-2-2-2-2-2-2-2-2----|
||-----------------------------|-------------------------------|


                               1.
     PM--------------------|     PM|   PM------|
|----------------------------|-----------------|
|----------------------------|-----------------|
|----------------------------|-------------o---|
|-7--------------------------|-4-3-4-6-3-4-----|
|-x--------------------------|-x-x-x-x-x-x-o---|
|-5--2-2-2-2-2-2-2-2-2-2-2-2-|-2-1-2-4-1-2-----|
|----------------------------|-----------------|


  2.
      PM|     PM|     PM|     PM|
|---------------------------------|
|---------------------------------|
|---------------------------------|
|---------------------------------|
|---------------------------------|
|-4p2-2-2-4p2-2-2-7p2-2-2-5p2-2-2-|
|---------------------------------|


       PM--------------------|      PM-------------------------|
||-----------------------------|-------------------------------|
||-----------------------------|-------------------------------|
||o----------------------------|-------------------------------|
||--4--------------------------|-6-----------------------------|
||o-x--------------------------|-x-----------------------------|
||--2--2-2-2-2-2-2-2-2-2-2-2-2-|-4--4-4-4-4-4-4-4-4-4-4-4-4----|
||-----------------------------|-------------------------------|
|
|   Gtr II
|      PM--------------------|      PM-------------------------|
||-----------------------------|-------------------------------|
||-----------------------------|-------------------------------|
||o----------------------------|-------------------------------|
||--7--------------------------|-9-----------------------------|
||o-x--------------------------|-x-----------------------------|
||--5--5-5-5-5-5-5-5-5-5-5-5-5-|-7--7-7-7-7-7-7-7-7-7-7-7-7----|
||-----------------------------|-------------------------------|


                                Ending 1.
      PM--------------------|     PM|   PM------|
|-----------------------------|-----------------|
|-----------------------------|-----------------|
|-----------------------------|-------------o---|
|--7--------------------------|-4-3-4-6-3-4-----|
|--x--------------------------|-x-x-x-x-x-x-o---|
|--5--5-5-5-5-5-5-5-5-5-5-5-5-|-2-1-2-4-1-2-----|
|-----------------------------|-----------------|
|
|     PM--------------------|     PM|   PM------|
|-----------------------------|-----------------|
|-----------------------------|-----------------|
|-----------------------------|-------------o---|
|-11--------------------------|-7-6-7-9-6-7-----|
|--x--------------------------|-x-x-x-x-x-x-o---|
|--9--9-9-9-9-9-9-9-9-9-9-9-9-|-5-4-5-7-4-5-----|
|-----------------------------|-----------------|


 Ending 2.
  Gtr I
|--------------|--------------|--------------|
|--------------|--------------|--------------|
|--------------|--------------|--------------|
|-4S=3--/6--4--|-4S=3--/6--4--|-4S=3--/6--4--|
|-x--x---x--x--|-x--x---x--x--|-x--x---x--x--|
|-2S=1--/4--2--|-2S=1--/4--2--|-2S=1--/4--2--|
|--------------|--------------|--------------|
|
| Gtr II
|--------------|--------------|--------------|
|--------------|--------------|--------------|
|--------------|--------------|--------------|
|-7S=6--/9--7--|-7S=6--/9--7--|-7S=6--/9--7--|
|-x--x---x--x--|-x--x---x--x--|-x--x---x--x--|
|-5S=4--/7--5--|-5S=4--/7--5--|-5S=4--/7--5--|
|--------------|--------------|--------------|


                      ~~~            PM
|-----------------|------------------------|
|-----------------|------------------------|
|-----------------|------------------------|
|--7S=6---/9---7--|------------------------|
|--x--x----x---x--|---------------------9--|
|--5S=4---/7---5--|---------------------x--|
|-----------------|--/7--------------7--7--|
|
|                     ~~~
|-----------------|------------------------|
|-----------------|-----------------14-17--|
|-----------------|--------13h14h16--------|
|-11S=9--/12--11--|------------------------|
|--x--x----x---x--|------------------------|
|--9S=7--/10---9--|-/14--------------------|
|-----------------|------------------------|


 Guitar Solo
 4/4
  Gtr II
|---------------------------|---------------------------|
|-(17)b19-------------------|--17b19r(17)---15--14---15-|
|---------------------------|---------------------------|
|---------------------------|---------------------------|
|---------------------------|---------------------------|
|---------------------------|---------------------------|
|---------------------------|---------------------------|
|
| Gtr I
|           PM--------------------------------------------|
|---------------------------|-----------------------------|
|---------------------------|-----------------------------|
|---------------------------|-----------------------------|
|-----------------------/12-|-(12)----12--x-11--11-x------|
|--(9)----9---------------x-|--(x)-----x--x--x---x-x-11---|
|--(x)----x-------------/10-|-(10)----10--x--9---9-x--x---|
|--(7)----7-7-7-7-7-7-7-----|-------------------------9---|


|------------------------------------|
|-(15)-14h15p14-12-------------------|
|------------------14---13-14-13-----|
|---------------------------------16-|
|------------------------------------|
|------------------------------------|
|------------------------------------|
|
|                PM--------------------|
|--------------------------------------|
|--------------------------------------|
|--------------------------------------|
|--------------------------------------|
|-(11)-11------------------------/12---|
|--(x)--x--------------------------x---|
|--(9)--9--------9--9-9--9--9--9-/10---|


              ~~
|-------------------------|-----------------------------|
|-------------------------|-----------------------------|
|--14--13-----------------|-18-----18-16------16s14-----|
|---------14-16-------/16-|-----16---------16--------16-|
|-------------------------|-----------------------------|
|-------------------------|-----------------------------|
|-------------------------|-----------------------------|
|
|                                   PM--------------------|
|-------------------------|-------------------------------|
|-------------------------|-------------------------------|
|-------------------------|-------------------------------|
|-------------------------|-------------------------/11---|
|-(12)-12--x-11--11-x--/7-|-(7)--7--------------------x---|
|--(x)--x--x--x---x-x---x-|-(x)--x-------------------/9---|
|-(10)-10--x--9---9-x--/5-|-(5)--5--5--5-5--5--5--5-------|


|---------------------------|
|------------------------14-|
|--14s=13----13-------------|
|---------16----16-14-16----|
|---------------------------|
|---------------------------|
|---------------------------|
|
|---------------------------|
|---------------------------|
|---------------------------|
|-(11)-11--x--9-----9--x----|
|--(x)--x--x--x-----x--x--8-|
|--(9)--9--x--7-----7--x--x-|
|-------------------------6-|


|------------------------------------|---------------------------|
|-(14)-12h14p12----12----------------|---------------------------|
|---------------14------14-13-11-----|--11-----------------------|
|---------------------------------14-|------14-12-11-12-11-------|
|------------------------------------|---------------------12----|
|------------------------------------|---------------------------|
|------------------------------------|---------------------------|
|
|                PM------------------------------------------------|
|------------------------------------|-----------------------------|
|------------------------------------|-----------------------------|
|------------------------------------|-----------------------------|
|--------------------------------/11-|-(11)-11--x--9-----9--x------|
|--(8)--8--------------------------x-|--(x)--x--x--x-----x--x-/9---|
|--(x)--x-------------------------/9-|--(9)--9--x--7-----7--x--x---|
|--(6)--6--------6--6-6--6--6--6-----|------------------------/7---|


                                                                  PM|
|-----------------------------------|-----------------------------------|
|-----------------------------------|-----------------------------------|
|-------------------11-----13----14-|---------------------13--14--------|
|-----------9-11-12-----------------|------------11-12-14--------11-11--|
|--9--11-12-------------------------|--11--12-14------------------------|
|-----------------------------------|-----------------------------------|
|-----------------------------------|-----------------------------------|
|
|              PM---------------------------------------------------------|
|-----------------------------------|-------------------------------------|
|-----------------------------------|-------------------------------------|
|-----------------------------------|-------------------------------------|
|-------------------------------/12-|-(12)----12-----x----11--11--x-------|
|-(9)-----9-----------------------x-|--(x)-----x-----x-----x---x--x-11----|
|-(x)-----x---------------------/10-|-(10)----10-----x-----9---9--x--x----|
|-(7)-----7----7-----7-7-7--7-7-----|--------------------------------9----|


        PM    PM      PM     PM        PM             ~~
|------------------------------|-------------------------------|
|-----------------14----12-----|-------------------------------|
|--14-----13-------------------|--14-----13h14p13p11-13--------|
|------11----11------11-----11-|------11-----------------------|
|------------------------------|-------------------------------|
|------------------------------|-------------------------------|
|------------------------------|-------------------------------|
|
|          PM----------------------------------------------------|
|------------------------------|---------------------------------|
|------------------------------|---------------------------------|
|------------------------------|---------------------------------|
|------------------------------|---------------------------------|
|-(11)-11------------------/12-|-(12)-12--x----11-------11-x-7---|
|--(x)--x--------------------x-|--(x)--x--x-----x--------x-x-x---|
|--(9)--9--9--9-9--9--9--9-/10-|-(10)-10--x-----9--------9-x-5---|


|------------------------------------------------16-|
|--------------------------------------15-17--19----|
|-----------------------------14-16-18--------------|
|--------------------14-16-18-----------------------|
|-----------14-16-17--------------------------------|
|-14--16-17-----------------------------------------|
|---------------------------------------------------|
|
|               PM------------------------------------|
|-----------------------------------------------------|
|-----------------------------------------------------|
|-----------------------------------------------------|
|--------------------------------------------/11------|
|-(7)-----7------------------------------------x------|
|-(x)-----x-----------------------------------/9------|
|-(5)-----5-----5-----5--5--5-----5-----5-------------|


|------------17-19-21-17-19-19b21-----17-|
|--17--19-21-----------------------------|
|----------------------------------------|
|----------------------------------------|
|----------------------------------------|
|----------------------------------------|
|----------------------------------------|
|
|----------------------------------------|
|----------------------------------------|
|----------------------------------------|
|-(11)----11-----x-----9----------9-x----|
|--(x)-----x-----x-----x----------x-x--8-|
|--(9)-----9-----x-----7----------7-x--x-|
|--------------------------------------6-|


|-21p=17--------------17---21p17----------------17-|
|----------19----19----------------19----19--------|
|-------------18----------------------18-----------|
|--------------------------------------------------|
|--------------------------------------------------|
|--------------------------------------------------|
|--------------------------------------------------|
|

|
| Gtr I
|              PM------------------------------------|
|----------------------------------------------------|
|----------------------------------------------------|
|----------------------------------------------------|
|-------------------------------------------/11------|
|-(8)----8------------------------------------x------|
|-(x)----x-----------------------------------/9------|
|-(6)----6-----6----6----6--6----6-----6-------------|


|--17h=19p===17-16h17p==16-/14--------------|
|--------------------------------15-14------|
|-------------------------------------------|
|-------------------------------------------|
|-------------------------------------------|
|-------------------------------------------|
|-------------------------------------------|
|
|-----------------------------------14------|
|-----------------------------------17b19===|
|-------------------------------------------|
|-------------------------------------------|
|-------------------------------------------|
|-------------------------------------------|
|-------------------------------------------|
|
|-------------------------------------------|
|-------------------------------------------|
|-------------------------------------------|
|-(11)----11-----x----9--------9--x---------|
|--(x)-----x-----x----x--------x--x--9------|
|--(9)-----9-----x----7--------7--x--x------|
|------------------------------------7------|


  Gtr III
|-(14)--------------16--16-----|-(16)--------------17-17-----|
|-(17)r-----------------19b21==|=(19)r----------------20b22==|
|------------------------------|-----------------------------|
|------------------------------|-----------------------------|
|------------------------------|-----------------------------|
|------------------------------|-----------------------------|
|------------------------------|-----------------------------|
|
| Gtr II
|------------------------------|-----------------------------|
|-(14)-------------------------|-----------------------------|
|------------------------------|-----------------------------|
|------------------------------|-----------------------------|
|------------------------------|-----------------------------|
|------------------------------|-----------------------------|
|------------------------------|-----------------------------|
|
| Gtr I
|         PM---------------------------------------------------|
|------------------------------|-------------------------------|
|------------------------------|-------------------------------|
|------------------------------|-------------------------------|
|----------------------/12-----|-(12)--12-x-11--11--x----------|
|--(9)--9----------------x-----|--(x)---x-x--x---x--x-11-------|
|--(x)--x--------------/10-----|-(10)--10-x--9---9--x--x-------|
|--(7)--7-7-7-7-7-7--7---------|-----------------------9-------|


                                                ~~~~~~~~~~~~~
|-(17)--------------(17)---21b22==|=(21)r------21-------(21)-|
|-(20)--------------(20)r---------|--------------------------|
|---------------------------------|--------------------------|
|---------------------------------|--------------------------|
|---------------------------------|--------------------------|
|---------------------------------|--------------------------|
|---------------------------------|--------------------------|
|
| Gtr I
|         PM---------------------------------------------------|
|---------------------------------|----------------------------|
|---------------------------------|----------------------------|
|---------------------------------|----------------------------|
|---------------------------------|----------------------------|
|-(11)-11-----------------/12-----|-(12)--12-x-11--11-x---7----|
|--(x)--x-------------------x-----|--(x)---x-x--x---x-x---x----|
|--(9)--9-9-9-9-9-9---9---/10-----|-(10)--10-x--9---9-x---5----|


|-22--21-19-22-21-19--------------------------------|
|--------------------22-21-19-22-21-19--------------|
|--------------------------------------21-19--18-21-|
|---------------------------------------------------|
|---------------------------------------------------|
|---------------------------------------------------|
|---------------------------------------------------|
|
|               PM------------------------------------|
|-----------------------------------------------------|
|-----------------------------------------------------|
|-----------------------------------------------------|
|--------------------------------------------/11------|
|-(7)-----7------------------------------------x------|
|-(x)-----x-----------------------------------/9------|
|-(5)-----5-----5-----5--5--5-----5-----5-------------|


|----------------------------------------------------|
|----------------------------------------------------|
|--19--18--------------------------------------------|
|---------21-19-18-21-19-18--------------------------|
|---------------------------19-17-16-19-17-16--------|
|---------------------------------------------19-17--|
|----------------------------------------------------|
|
|----------------------------------------------------|
|----------------------------------------------------|
|----------------------------------------------------|
|-(11)----11-----x-----9-----------9-----x-----------|
|--(x)-----x-----x-----x-----------x-----x----/8-----|
|--(9)-----9-----x-----7-----------7-----x-----x-----|
|---------------------------------------------/6-----|


|---------------------------------------------------|
|---------------------------------------------------|
|---------------------------------------------------|
|---------------------------------------------------|
|-----------------------16----------------16--17-19-|
|-16--19-17-16-16-17-19----19-17-16-17-19-----------|
|---------------------------------------------------|
|
|               PM------------------------------------|
|-----------------------------------------------------|
|-----------------------------------------------------|
|-----------------------------------------------------|
|--------------------------------------------/11------|
|-(8)-----8------------------------------------x------|
|-(x)-----x-----------------------------------/9------|
|-(6)-----6-----6-----6--6--6-----6-----6-------------|


                                         ~~
|--------------------------------------------|
|--------------------------------------------|
|--------------------------------------------|
|--------------------------------------------|
|------------16----------------16-17-19-16---|
|--16--17-19----19-17-16-17-19---------------|
|--------------------------------------------|
|
|--------------------------------------------|
|--------------------------------------------|
|--------------------------------------------|
|-(11)----11-----x-----9-----------9-----x---|
|--(x)-----x-----x-----x-----------x-----x-9-|
|--(9)-----9-----x-----7-----------7-----x-x-|
|------------------------------------------7-|


|---------------------------------------------------|
|---------------------------------------------------|
|---------------------------------------------------|
|---------------------------------------------------|
|-----------14----------------14-16-17-----------16-|
|-14--16-17----17-16-14-16-17----------16-17--19----|
|---------------------------------------------------|
|
|               PM------------------------------------|
|-----------------------------------------------------|
|-----------------------------------------------------|
|-----------------------------------------------------|
|--------------------------------------------/12------|
|-(9)-----9------------------------------------x------|
|-(x)-----x----------------------------------/10------|
|-(7)-----7-----7-----7--7--7-----7-----7-------------|


                    ~~
|---------------------------------------------------|
|---------------------------------------------------|
|------------------16----------------------16-18-19-|
|---------16-18-19-------19-18-16-16-18-19----------|
|--17--19-------------------------------------------|
|---------------------------------------------------|
|---------------------------------------------------|
|
|---------------------------------------------------|
|---------------------------------------------------|
|---------------------------------------------------|
|-(12)----12-----x----11----------11-----x----------|
|--(x)-----x-----x-----x-----------x-----x----11----|
|-(10)----10-----x-----9-----------9-----x-----x----|
|----------------------------------------------9----|


                                ~~
|------------------------------19--------------------|
|---------------------19-21-22------22-21-19--21-22--|
|------------18-19-21--------------------------------|
|--18--19-21-----------------------------------------|
|----------------------------------------------------|
|----------------------------------------------------|
|----------------------------------------------------|
|
|                PM------------------------------------|
|------------------------------------------------------|
|------------------------------------------------------|
|------------------------------------------------------|
|------------------------------------------------------|
|-(11)----11---------------------------------/12-------|
|--(x)-----x-----------------------------------x-------|
|--(9)-----9-----9-----9--9--9----9-----9----/10-------|


|--19--21----22-24b26----------/17-|-(17)-14----------------------|
|----------------------------------|---------17-14---------17--14-|
|----------------------------------|-----------------16-14--------|
|----------------------------------|------------------------------|
|----------------------------------|------------------------------|
|----------------------------------|------------------------------|
|----------------------------------|------------------------------|
|
|                                             PM--------------------|
|----------------------------------|--------------------------------|
|----------------------------------|--------------------------------|
|----------------------------------|--------------------------------|
|----------------------------------|--------------------------/11---|
|-(12)----12-----x----11--11-x---7-|--(7)--7--------------------x---|
|--(x)-----x-----x-----x---x-x---x-|--(x)--x-------------------/9---|
|-(10)----10-----x-----9---9-x---5-|--(5)--5--5--5-5--5--5--5-------|

|-------------------------------|-------14----------------14--------------14------------14-|
|-------------------------------|------------17p14-------------17p14---------17p14---------|
|--16--14---------16b18-----16--|--16b18-------------16b18------------16b18--------16b18---|
|----------16-14----------------|----------------------------------------------------------|
|-------------------------------|----------------------------------------------------------|
|-------------------------------|----------------------------------------------------------|
|-------------------------------|----------------------------------------------------------|
|
|                                                    PM------------------------------|
|-------------------------------|----------------------------------------------------|
|-------------------------------|----------------------------------------------------|
|-------------------------------|----------------------------------------------------|
|-(11)-11--x--9----9-x----------|--------------------------------/11-----------------|
|--(x)--x--x--x----x-x--/8------|-(8)---8-------------------------x------------------|
|--(9)--9--x--7----7-x---x------|-(x)---x------------------------/9------------------|
|-----------------------/6------|-(6)---6--6---6--6---6----6---6---------------------|

                    ~~~~~~
|-------------------------------------|
|--17p=14-------17-17b19=======(17)r--|
|---------16b18-----------------------|
|-------------------------------------|
|-------------------------------------|
|-------------------------------------|
|-------------------------------------|
|
|-------------------------------------|
|-------------------------------------|
|-------------------------------11----|
|-(11)----11-----x--9------9-x---x----|
|--(x)-----x-----x--x------x-x--/9----|
|--(9)-----9-----x--7------7-x--------|
|-------------------------------------|


 Harmony Section
  Q=104
  Gtr II
                     ~~~~~~~~~~~~~~~~~~~~~~~~~~~
|----------17-19----19b21-------(19)-------(19)-------|
|-20b22-----------------------------------------19b21-|
|-----------------------------------------------------|
|-----------------------------------------------------|
|-----------------------------------------------------|
|-----------------------------------------------------|
|-----------------------------------------------------|
|
| Gtr III
|                    ~~~~~~~~~~~~~~~~~~~~~~~~~~~
|----------14-16----16b17-------(16)-------(16)-------|
|-17b19-----------------------------------------15b17-|
|-----------------------------------------------------|
|-----------------------------------------------------|
|-----------------------------------------------------|
|-----------------------------------------------------|
|-----------------------------------------------------|
|
| Gtr I
|-----------------------------------------------------|
|-----------------------------------------------------|
|-11----11-11-11-11-11----11-11--11--11-11--11---9----|
|--x-----x--x--x--x--x-----x--x---x---x--x---x---x----|
|--9-----9--9--9--9--9-----9--9---9---9--9---9---7----|
|-----------------------------------------------------|
|-----------------------------------------------------|


                  ~~~~~~~~~~~~~~
|--------16-17---17b19-----(17)-----(17)-----|
|-(19)-----------------------------------/19-|
|--------------------------------------------|
|--------------------------------------------|
|--------------------------------------------|
|--------------------------------------------|
|--------------------------------------------|
|
|                 ~~~~~~~~~~~~~~
|--------12-14---14b16-----(14)-----(14)-----|
|-(15)-----------------------------------/15-|
|--------------------------------------------|
|--------------------------------------------|
|--------------------------------------------|
|--------------------------------------------|
|--------------------------------------------|
|
|--------------------------------------------|
|--------------------------------------------|
|--(9)-9--9--9-9--9----9-9---9--9-9---9----7-|
|--(x)-x--x--x-x--x----x-x---x--x-x---x----x-|
|--(7)-7--7--7-7--7----7-7---7--7-7---7----5-|
|--------------------------------------------|
|--------------------------------------------|


                          ~~
|-----------------------------------------------|
|-(19)---17---15h17p==15s14---------12-14-12-14s|
|-----------------------------------------------|
|-----------------------------------------------|
|-----------------------------------------------|
|-----------------------------------------------|
|-----------------------------------------------|
|
|                         ~~
|-----------------------------------------------|
|-(15)---14---12h14p==12s10----------9-10--9-10s|
|-----------------------------------------------|
|-----------------------------------------------|
|-----------------------------------------------|
|-----------------------------------------------|
|-----------------------------------------------|
|
|-----------------------------------------------|
|-----------------------------------------------|
|---7--7----7--7----7-------7-7-7-7--7--7--7--6-|
|---x--x----x--x----x-------x-x-x-x--x--x--x--x-|
|---5--5----5--5----5-------5-5-5-5--5--5--5--4-|
|-----------------------------------------------|
|-----------------------------------------------|


|---------------------------------------|
|-15----14-12-14-12----/17-------18-----|
|-------------------14------------------|
|---------------------------------------|
|---------------------------------------|
|---------------------------------------|
|---------------------------------------|
|
|---------------------------------------|
|-12----10--9-10--9---------------------|
|-------------------11--/9-------10-----|
|---------------------------------------|
|---------------------------------------|
|---------------------------------------|
|---------------------------------------|
|
|---------------------------------------|
|---------------------------------------|
|-(6)-6--6--6--6------------------------|
|-(x)-x--x--x--x------------------------|
|-(4)-4--4--4--4-----7-----7-7----8-8---|
|--------------------x-----x-x----x-x---|
|-----------------x--5-----5-5-x--6-6-x-|


                  ~~~~~~~~~~~~~~~~~~~~~~~~~~~
|-------17-19----19b21-------(19)-------(19)-------|
|-20b22--------------------------------------19b21-|
|--------------------------------------------------|
|--------------------------------------------------|
|--------------------------------------------------|
|--------------------------------------------------|
|--------------------------------------------------|
|
|                 ~~~~~~~~~~~~~~~~~~~~~~~~~~~
|-------14-16----16b17-------(16)-------(16)-------|
|-17b19--------------------------------------15b17-|
|--------------------------------------------------|
|--------------------------------------------------|
|--------------------------------------------------|
|--------------------------------------------------|
|--------------------------------------------------|
|
|--------------------------------------------------|
|--------------------------------------------------|
|-11----11-11-11-11----11-11--11--11-11--11---9----|
|--x-----x--x--x--x-----x--x---x---x--x---x---x----|
|--9-----9--9--9--9-----9--9---9---9--9---9---7----|
|--------------------------------------------------|
|--------------------------------------------------|


                   ~~~~~~~~~~~~~~
|--------16-17p16-17b19-----(17)-----(17)-----|
|-(19)------------------------------------/19-|
|---------------------------------------------|
|---------------------------------------------|
|---------------------------------------------|
|---------------------------------------------|
|---------------------------------------------|
|
|                  ~~~~~~~~~~~~~~
|--------12-14p12-14b16-----(14)-----(14)-----|
|-(15)------------------------------------/15-|
|---------------------------------------------|
|---------------------------------------------|
|---------------------------------------------|
|---------------------------------------------|
|---------------------------------------------|
|
|---------------------------------------------|
|---------------------------------------------|
|--(9)-9--9--9--9--9----9-9---9--9-9---9----7-|
|--(x)-x--x--x--x--x----x-x---x--x-x---x----x-|
|--(7)-7--7--7--7--7----7-7---7--7-7---7----5-|
|---------------------------------------------|
|---------------------------------------------|


                          ~~
|-----------------------------------------------|
|-(19)---17---15h17p==15s14---------12-14-12-14s|
|-----------------------------------------------|
|-----------------------------------------------|
|-----------------------------------------------|
|-----------------------------------------------|
|-----------------------------------------------|
|
|                         ~~
|-----------------------------------------------|
|-(15)---14---12h14p==12s10----------9-10--9-10s|
|-----------------------------------------------|
|-----------------------------------------------|
|-----------------------------------------------|
|-----------------------------------------------|
|-----------------------------------------------|
|
|-----------------------------------------------|
|-----------------------------------------------|
|--(7)-7----7--7----7-------7-7-7-7--7--7--7--6-|
|--(x)-x----x--x----x-------x-x-x-x--x--x--x--x-|
|--(5)-5----5--5----5-------5-5-5-5--5--5--5--4-|
|-----------------------------------------------|
|-----------------------------------------------|


|----------------------------------------------------------------|
|-15----14-12-14-12--------------------------14-15-17-14-15---17-|
|-------------------14-13-14---16-13-14---16---------------------|
|----------------------------------------------------------------|
|----------------------------------------------------------------|
|----------------------------------------------------------------|
|----------------------------------------------------------------|
|
|----------------------------------------------------------------|
|-12----10--9-10--9--------------------------14-15-17-14-15---17-|
|-------------------11-13-14---16-13-14---16---------------------|
|----------------------------------------------------------------|
|----------------------------------------------------------------|
|----------------------------------------------------------------|
|----------------------------------------------------------------|
|
|----------------------------------------------------------------|
|----------------------------------------------------------------|
|-(6)-6--6--6--6-------------------------------------------------|
|-(x)-x--x--x--x-------------------------------------------------|
|-(4)-4--4--4--4-----7-------7-----7----------8--------8---------|
|--------------------x-------x-----x----------x--------x---------|
|-----------------x--5-------5-----5----x-----6--------6----x----|


   Pre-Chorus
    Gtr IV
     |
     o

         PM----|      PM----|      PM|      PM----|      PM----|      PM-----|
||---------------------------------------------------------------------------|
||---------------------------------------------------------------------------|
||o--------------------------------------------------------------------------|
||---------------------------------------------------------------------------|
||o--------------------------------------------------------------------------|
||---------------------------------------------------------------------------|
||--10p7-7-7-7-7-10p7-7-7-7-7-10p7-7-7-12p9-9-9-9-9-12p9-9-9-9-9-12p9-9-9----|
|
|        PM----|      PM----|      PM|      PM----|      PM----|      PM-----|
||---------------------------------------------------------------------------|
||---------------------------------------------------------------------------|
||o--------------------------------------------------------------------------|
||---------------------------------------------------------------------------|
||o--------------------------------------------------------------------------|
||---9p5-5-5-5-5--9p5-5-5-5-5--9p5-5-5-10p7-7-7-7-7-10p7-7-7-7-7-10p7-7-7----|
||---------------------------------------------------------------------------|
|
|        PM----|      PM----|      PM|      PM----|      PM----|      PM-----|
||---------------------------------------------------------------------------|
||---------------------------------------------------------------------------|
||o--------------------------------------------------------------------------|
||--11p7-7-7-7-7-11p7-7-7-7-7-11p7-7-7-12p9-9-9-9-9-12p9-9-9-9-9-12p9-9-9----|
||o--------------------------------------------------------------------------|
||---------------------------------------------------------------------------|
||---------------------------------------------------------------------------|


         PM------|         PM------|         PM|      PM----|     PM----|     PM----|
|-----------------------------------------------------------------------------------|
|-----------------------------------------------------------------------------------|
|-----------------------------------------------------------------------------------|
|-----------------------------------------------------------------------------------|
|-----------------------------------------------------------------------------------|
|-----------------------------------------------------------------------------------|
|-14p10-10-10-10-10-14p10-10-10-10-10-14p10-10-10-9p6-6-6-6-6-9p6-6-6-6-6-9p6-6-6---|
|
|        PM------|         PM------|         PM|      PM----|     PM----|     PM----|
|-----------------------------------------------------------------------------------|
|-----------------------------------------------------------------------------------|
|-----------------------------------------------------------------------------------|
|-----------------------------------------------------------------------------------|
|-----------------------------------------------------------------------------------|
|-12p=9--9--9--9--9-12p=9--9--9--9--9-12p=9--9--9-7p4-4-4-4-4-7p4-4-4-4-4-7p4-4-4---|
|-----------------------------------------------------------------------------------|
|
|        PM------|         PM------|                  PM----|     PM----|     PM----|
|-----------------------------------------------------------------------------------|
|-----------------------------------------------------------------------------------|
|-----------------------------------------------------------------------------------|
|-14p11-11-11-11-11-14p11-11-11-11-11-14p11-11-11-9p6-6-6-6-6-9p6-6-6-6-6-9p6-6-6---|
|-----------------------------------------------------------------------------------|
|-----------------------------------------------------------------------------------|
|-----------------------------------------------------------------------------------|


       PM----|      PM----|      PM|      PM----|      PM----|      PM----|
|-------------------------------------------------------------------------|
|-------------------------------------------------------------------------|
|-------------------------------------------------------------------------|
|-------------------------------------------------------------------------|
|-------------------------------------------------------------------------|
|-------------------------------------------------------------------------|
|-10p7-7-7-7-7-10p7-7-7-7-7-10p7-7-7-12p9-9-9-9-9-12p9-9-9-9-9-12p9-9-9---|
|
|      PM----|      PM----|      PM|      PM----|      PM----|      PM----|
|-------------------------------------------------------------------------|
|-------------------------------------------------------------------------|
|-------------------------------------------------------------------------|
|-------------------------------------------------------------------------|
|--9p5-5-5-5-5--9p5-5-5-5-5--9p5-5-5-11p7-7-7-7-7-11p7-7-7-7-7-11p7-7-7---|
|-------------------------------------------------------------------------|
|-------------------------------------------------------------------------|
|
|      PM----|      PM----|      PM|      PM----|      PM----|      PM----|
|-------------------------------------------------------------------------|
|-------------------------------------------------------------------------|
|-------------------------------------------------------------------------|
|-11p7-7-7-7-7-11p7-7-7-7-7-11p7-7-7-12p9-9-9-9-9-12p9-9-9-9-9-12p9-9-9---|
|-------------------------------------------------------------------------|
|-------------------------------------------------------------------------|
|-------------------------------------------------------------------------|


  1.
         PM------|         PM------|         PM-----------------------------------------------|
|---------------------------------------------------------------------------------------------|
|---------------------------------------------------------------------------------------------|
|------------------------------------------------------------------------------------------o--|
|---------------------------------------------------------------------------------------------|
|--------------------------------------------------8--8--8--8--4--4--4--4-/11-11-11-11--8\-o--|
|---------------------------------------------------------------------------------------------|
|-14p10-10-10-10-10-14p10-10-10-10-10-14p10-10-10---------------------------------------------|
|
|        PM------|         PM------|         PM-----------------------------------------------|
|---------------------------------------------------------------------------------------------|
|---------------------------------------------------------------------------------------------|
|-------------------------------------------------13-13-13-13-10-10-10-10-/16-16-16-16-13\-o--|
|---------------------------------------------------------------------------------------------|
|-12p=9--9--9--9--9-12p=9--9--9--9--9-12p=9--9--9------------------------------------------o--|
|---------------------------------------------------------------------------------------------|
|---------------------------------------------------------------------------------------------|
|
|        PM------|         PM------|         PM-----------------------------------------------|
|---------------------------------------------------------------------------------------------|
|---------------------------------------------------------------------------------------------|
|-------------------------------------------------10-10-10-10--6--6--6--6-/13-13-13-13-10\-o--|
|-14p11-11-11-11-11-14p11-11-11-11-11-14p11-11-11---------------------------------------------|
|------------------------------------------------------------------------------------------o--|
|---------------------------------------------------------------------------------------------|
|---------------------------------------------------------------------------------------------|


  2.
         PM------|         PM------|         PM-----------------------|
|---------------------------------------------------------------------|
|---------------------------------------------------------------------|
|---------------------------------------------------------------------|
|-------------------------------------------------11-11-x-11-(11)\----|
|-------------------------------------------------11-11-x-11-(11)\----|
|--------------------------------------------------9--9-x--9--(9)\----|
|-14p10-10-10-10-10-14p10-10-10-10-10-14p10-10-10---------------------|
|
|        PM------|         PM------|         PM-----------------------|
|---------------------------------------------------------------------|
|---------------------------------------------------------------------|
|---------------------------------------------------------------------|
|-------------------------------------------------11-11-x-11-(11)\----|
|-12p=9--9--9--9--9-12p=9--9--9--9--9-12p=9--9--9-11-11-x-11-(11)\----|
|--------------------------------------------------9--9-x--9--(9)\----|
|---------------------------------------------------------------------|
|
|        PM------|         PM------|         PM-----------------------|
|---------------------------------------------------------------------|
|---------------------------------------------------------------------|
|---------------------------------------------------------------------|
|-14p11-11-11-11-11-14p11-11-11-11-11-14p11-11-11-11-11-x-11-(11)\----|
|-------------------------------------------------11-11-x-11-(11)\----|
|--------------------------------------------------9--9-x--9--(9)\----|
|---------------------------------------------------------------------|


   Chorus
              ~~~~~~~~~~~~~~~~~                                        ~~~
||--------------------------------|----------------------------------------|
||--------------------------------|-----------------14---12----------------|
||o-------14-13-------(13)--------|---------14-13-------------14---13\-----|
||--11-11----------------------11-|-(11)-11-------11------------------12---|
||o-------------------------------|----------------------------------------|
||--------------------------------|----------------------------------------|
||--------------------------------|----------------------------------------|
|-
||----------------------------------|------------------------------------------|
||----------------------------------|------------------------------------------|
||o---------------------------------|------------------------------------------|
||---4-----4--4-4-4-4-4-4---4-------|------------------------------------------|
||o--4-----4--4-4-4-4-4-4---4--4----|---4------4--4--4--4-4--4-4----4-----5----|
||---2-----2--2-2-2-2-2-2---2--4----|---4------4--4--4--4-4--4-4----4-----5----|
||-----------------------------2----|---2------2--2--2--2-2--2-2----2-----3----|


              ~~~~~~~~~~~~~~~~~
|-----------------------------------|-12---------------/17---16----14-------||
|-----------------------------------|----15-14---12-------------17----------||
|---------14-13-----------(13)------|---------------14---------------------o||
|-(12)-12------------------------14-|---------------------------------------||
|-----------------------------------|--------------------------------------o||
|-----------------------------------|---------------------------------------||
|-----------------------------------|---------------------------------------||
|
|----------------------------------|-------------------------------------||
|----------------------------------|-------------------------------------||
|----------------------------------|------------------------------------o||
|----------------------------------|--7--7--7-7--x--6-----x--------------||
|---5------5--5-5-5-5-5-5---5--5---|--7--7--7-7--x--7-----x--7-------x--o||
|---5------5--5-5-5-5-5-5---5--5---|--5--5--5-5--x--4-----x--7-------x---||
|---3------3--3-3-3-3-3-3---3--3---|-------------------------5-------x---||


   Outro Chorus
    Gtr I
        PM|      PM|      PM|      PM|      PM    PM
||--------------------------------------------------|
||--------------------17-------15-------------------|
||o-18-14-14-16-14-14----14-14----14-14-18-14-16-14-|
||--------------------------------------------------|
||o-------------------------------------------------|
||--------------------------------------------------|
||--------------------------------------------------|
|
|   Gtr III
|       PM|      PM|      PM|      PM|      PM    PM
||--------------------------------------------------|
||--------------------14-------12-------------------|
||o-14-11-11-13-11-11----11-11----11-11-14-11-13-11-|
||--------------------------------------------------|
||o-------------------------------------------------|
||--------------------------------------------------|
||--------------------------------------------------|
|
|   Gtr II
||--------------------------------------------------|
||--------------------------------------------------|
||o-------------------------------------------------|
||---4--4--4--4--4--4--4--4--4--4--4--4--4--4--4--4-|
||o--4--4--4--4--4--4--4--4--4--4--4--4--4--4--4--4-|
||---2--2--2--2--2--2--2--2--2--2--2--2--2--2--2--2-|
||--------------------------------------------------|


      PM|      PM|      PM|      PM|      PM    PM
|-------------------------------------------------|
|-------------------17-------15-------------------|
|-18-------16-------------------------18----16----|
|----14-14----14-14----14-14----14-14----14----14-|
|-------------------------------------------------|
|-------------------------------------------------|
|-------------------------------------------------|
|
|     PM|      PM|      PM|      PM|      PM    PM
|-------------------------------------------------|
|-------------------14-------12-------------------|
|-14-------13-------------------------14----13----|
|----11-11----11-11----11-11----11-11----11----11-|
|-------------------------------------------------|
|-------------------------------------------------|
|-------------------------------------------------|
|
|-------------------------------------------------|
|-------------------------------------------------|
|-------------------------------------------------|
|-------------------------------------------------|
|--4--4--4--4--4--4--4--4--4--4--4--4--4--4--4--4-|
|--4--4--4--4--4--4--4--4--4--4--4--4--4--4--4--4-|
|--2--2--2--2--2--2--2--2--2--2--2--2--2--2--2--2-|


      PM|      PM|      PM    PM|      PM|      PM
|-------------------------------------------------|
|-------------------------------------------------|
|-16-------16-------16----18-------18-------18----|
|----14-14----14-14----14----14-14----14-14----14-|
|-------------------------------------------------|
|-------------------------------------------------|
|-------------------------------------------------|
|
|     PM|      PM|      PM    PM|      PM|      PM
|-------------------------------------------------|
|-------------------------------------------------|
|-13-------13-------13----14-------14-------14----|
|----11-11----11-11----11----11-11----11-11----11-|
|-------------------------------------------------|
|-------------------------------------------------|
|-------------------------------------------------|
|
|-------------------------------------------------|
|-------------------------------------------------|
|-------------------------------------------------|
|-------------------------------------------------|
|--5--5--5--5--5--5--5--5--5--5--5--5--5--5--5--5-|
|--5--5--5--5--5--5--5--5--5--5--5--5--5--5--5--5-|
|--3--3--3--3--3--3--3--3--3--3--3--3--3--3--3--3-|


      PM|      PM|      PM
|------------------------------------------||
|------------------------------------------||
|-13-------13-------13----/14-----13------o||
|----11-11----11-11----11------------14----||
|-----------------------------------------o||
|------------------------------------------||
|------------------------------------------||
|
|     PM|      PM|      PM
|-------------------------/17-----16-------||
|-17-------17-------17---------------17----||
|-----------------------------------------o||
|----14-14----14-14----14------------------||
|-----------------------------------------o||
|------------------------------------------||
|------------------------------------------||
|
|------------------------------------------||
|------------------------------------------||
|-----------------------------------------o||
|--7-----7-----7--7--x--6-----x------------||
|--7-----7-----7--7--x--7-----x-7-------x-o||
|--5-----5-----5--5--x--4-----x-7-------x--||
|-------------------------------5-------x--||


 Outro
|----------------------------------|----------------------------------|
|----------------------------------|----------------------------------|
|----------------------------------|----------------------------------|
|-11-11-11-11--9--9--9-------------|----------------------------11--9-|
|----------------------11-11-11-11-|-12-12-12-12-12-11-11-11----------|
|----------------------------------|-------------------------12-------|
|----------------------------------|----------------------------------|
|
|----------------------------------|----------------------------------|
|-14-14-14-14-12-12-12-------------|----------------------------14-12-|
|----------------------13-13-13-13-|-14-14-14-14-14-13-13-13----------|
|----------------------------------|-------------------------14-------|
|----------------------------------|----------------------------------|
|----------------------------------|----------------------------------|
|----------------------------------|----------------------------------|
|
|----------------------------------|----------------------------------|
|----------------------------------|----------------------------------|
|----------------------------------|----------------------------------|
|----------------------------------|----------------------------------|
|--9-------------------------------|--7-------------------------------|
|--9-------------------------------|--7-------------------------------|
|--7-------------------------------|--5-------------------------------|


|----------------------------------|-------------------------------------|
|----------------------------------|-------------------------------------|
|----------------------------------|-------------------------------------|
|-12-12-12-12-11-11-11-------------|-------------------------------------|
|----------------------12-12-12-12-|-12--12-12-12-11-11-11--8--8--8--8---|
|----------------------------------|-------------------------------------|
|----------------------------------|-------------------------------------|
|
|----------------------------------|-------------------------------------|
|-15-15-15-15-14-14-14-------------|-------------------------------------|
|----------------------14-14-14-14-|-14--14-14-14-13-13-13-10-10-10-10---|
|----------------------------------|-------------------------------------|
|----------------------------------|-------------------------------------|
|----------------------------------|-------------------------------------|
|----------------------------------|-------------------------------------|
|
|                                     \2
|----------------------------------|-------------------------------------|
|----------------------------------|-------------------------------------|
|----------------------------------|-------------------------------------|
|----------------------------------|-------------------------------------|
|--5-------------------------------|--2----------------------------------|
|--5-------------------------------|--2----------------------------------|
|--3-------------------------------|--0----------------------------------|


|-----------|---------*|
|-----------|---------*|
|-11--------|-(11)----*|
|--x--------|--(x)----*|
|--9--------|--(9)----*|
|-----------|---------*|
|-----------|---------*|
|
|-----------|---------*|
|-----------|---------*|
|--7--------|--(7)----*|
|--x--------|--(x)----*|
|--5--------|--(5)----*|
|-----------|---------*|
|-----------|---------*|
|
|-----------|---------*|
|-----------|---------*|
|-----------|---------*|
|--4--------|--(4)----*|
|--x--------|--(x)----*|
|--2--------|--(2)----*|
|-----------|---------*|
comments
print report bad tab
12 comments total. Showing first comments.
-1 reply
pip7 wrote on November 12 2008, 11:23 am

I think the pre-chorus should be:
|-----------------------------------------------------------------|
|-----------------------------------------------------------------|
|-----------------------------------------------------------------|
|-------------------------------------------------6------6------6-|
|-4------4------4-2------2------2-4------4------4-5------5------5-|
|-2-2222-2-2222-2-4-4444-4-4444-4-5-5555-5-5555-5-7-7777-7-7777-7-|
|-----------------------------------------------------------------|

|-------------------------------------------------------|
|-------------------------------------------------------|
|-------------------------------------------------------|
|-------------------------------------------------------|
|--9-----------9-----------9-11----------11----------11-|
|-10-10101010-10-10101010-10-12-12121212-12-12121212-12-|
|-------------------------------------------------------|

|--------------------------------------------------|
|--------------------------------------------------|
|--------------------------------------------------|
|----------------------------11-x-11-11-x-11-11-11-|
|-12----------12----------12-11-x-11-11-x-11-11-11-|
|-14-14141414-14-14141414-14--9-x--9--9-x--9--9--9-|
|--------------------------------------------------|

And i think the lead on the chorus is:
|--------------------------------------------------------------------|
|----10-9v----10-9-\14-12-10-9v----10-9v-----------------------------|
|--------------------------------------------------------------------|
|-11-------11-------------------11-------/14-12-11h12p11-9-9---------|
|------------------------------------------------------------12-11-9-|
|--------------------------------------------------------------------|
|--------------------------------------------------------------------|

But overall i think this is a very good tab.

0 reply
Lukige wrote on November 12 2008, 06:22 pm

The pre-chorus is definately how I've tabbed it, with pull-offs etc. And the chorus I've got all spot on except for the very end which is impossible to hear and the end you've put is definately not right. Thanks anyway

0 reply
GuitarHero_jp wrote on November 13 2008, 09:03 am

Nice tab!

I want to post or [tab]
guest
You may want to rate the tab now too:
select rating
Please do not post tabs as comments. Select "correction" instead!