Oops, an error
Loading. Please wait.

Pillars Of Serpants Tab

ver1
ver1

Solo

Whole song

More versions @911Tabs.com
2,084 views 1 this week
3 commentsread comments
1 2 3 4 5
excellent!
x 4
add to favorites launch autoscroll
font size
0
reset
Autoscroll
+/-
esc
set tempo
stop
Contributor
Difficulty
Tuning
advanced
D A D G B E
WARNING: You are trying to view
                                    content from Ultimate-Guitar.com
                                    in an unauthorized application,
                                    which is prohibited.

                                    Please use an official Ultimate
                                    Guitar Tabs application for iPhone,
                                    iPad or Android to access legitimate
                                    chords, guitar, bass, and drum tabs
                                    from Ultimate-Guitar.com database.

                                    Type "ultimate guitar tabs" in Apple
                                    App Store's or Android Market's
                                    search to find the application.
Song: PILLARS OF SERPANTS
Band: TRIVIUM
Album: EMBER TO INFERNO: TRACK 2
Tabbed by: Adam
Email: adz_uk000@hotmail.com

Tuning: DROP D  e
                B
                G
                D
                A
                D

This is tabbed from start to finish in the order of the song. Im pretty confident its
close to 100% perfect. It will certainly allow you to play the song though so just have
fun learning and playing a great song by a great band.

INTRO...X1

PM-----------------------------------------------------|
    
e|--------------------------|--------------------------||
B|o-------------------------|-------------------------o||
G|--------------------------|--------------------------||
D|--------------------------|--------------------------||
A|o-------------------------|-------------------------o||
D|--0-0-0-0-0-0-0-0-0-0-0-0-|-0-0-0-0-0-0-0-0-0-0-0-0--||

INTRO PT 2...X2   

Gtr I

||------------------|---------------------|
||o-----------------|---------------------|
||------------------|---------------------|
||--0---------------|-(0)-----------------|
||o-0---------------|-(0)-----------------|
||--0---------------|-(0)-----------------|
|
|   Gtr II
|  PM|     PM    PM        PM     PM
|  
||------------------|---------------------|
||o-----------------|---------------------|
||------7s8---7s8---|--8s10---8s10---8s10-|
||------------------|---------------------|
||o-----5s6---5s6---|--6s=8---6s=8---6s=8-|
||--0-0-----0-----0-|-------0------0------|

|-----------------------|-----------------------------------------------|
|-----------------------|-----------------------------------------------|
|-----------------------|-----------------------------------------------|
|-(0)-------------------|-(0)-------------------------------------------|
|-(0)-------------------|-(0)-------------------------------------------|
|-(0)-------------------|-(0)-------------------------------------------|
|
| PM-|       PM      PM        PM            PM
|  
|-----------------------|-----------------------------------------------|
|-----------------------|-----------------------------------------------|
|-------10s11---10s11---|-11s13---11s13---------------11s13-------------|
|-----------------------|-----------------------------------------------|
|--------8s=9----8s=9---|--9s11----9s11----------------9s11-------------|
|--0--0-------0-------0-|-------0-------------0-------------------------|

  Gtrs I, II
  
|----------|----------|----------|-------||
|----------|----------|----------|------o||
|----------|----------|----------|-------||
|-3--------|-6--------|-2--------|-5-----||
|-3--------|-6--------|-2--------|-5----o||
|-3--------|-6--------|-2--------|-5-----||

VERSE...X2
  
   PM--|     PM    PM       PM     PM
  
||--------------------|--------------------|
||o-------------------|--------------------|
||--------7s8---7s8---|-8s10---8s10---8s10-|
||--------------------|--------------------|
||o-------5s6---5s6---|-6s=8---6s=8---6s=8-|
||--0-0-0-----0-----0-|------0------0------|


 PM--|       PM      PM        PM      PM
  
|-----------------------|-----------------------|
|-----------------------|-----------------------|
|-------10s11---10s11---|-11s13---11s13---11s13-|
|-----------------------|-----------------------|
|--------8s=9----8s=9---|--9s11----9s11----9s11-|
|-0-0-0-------0-------0-|-------0-------0-------|


        
  PM--|    PM|    PM|      PM|    PM|
 
|---------------------|-------------------|
|---------------------|-------------------|
|---------------------|-------------------|
|-------3------3------|-6------6------6-6-|
|-------3------3------|-6------6------6-6-|
|-3-3-3-3--3-3-3--3-3-|-6--6-6-6--6-6-6-6-|


  PM--|    PM|    PM|      PM|    PM|
  
|---------------------|-------------------||------||
|---------------------|------------------o||------||
|---------------------|-------------------||------||
|-------2------2------|-5------5------5---||-5----||
|-------2------2------|-5------5------5--o||-5----||
|-2-2-2-2--2-2-2--2-2-|-5--5-5-5--5-5-5---||-5----||


CHORUS...X2
   
         PM----|   PM----------|         PM----|   PM|   PM|   PM
    
||--------------------------------|-------------------------------|
||o-------------------------------|-------------------------------|
||--7s8s7-------------------------|-7s8s7-------------------------|
||--7s8s7-------------------------|-7s8s7-------------------------|
||o-5s6s5---------1---------------|-5s6s5---------1-----4-----3---|
||--------0-0-0-0-1-0-0-0-0-0-0-0-|-------0-0-0-0-1-0-0-4-0-0-3-0-|

                                             
       PM----|   PM----------|         PM----|
 
|-------------------------------|------------------------||
|-------------------------------|-----------------------o||
|-7s8s7-------------------------|-7s8s7------------------||
|-7s8s7-------------------------|-7s8s7---------1--4--3--||
|-5s6s5---------1---------------|-5s6s5---------1--4--3-o||
|-------0-0-0-0-1-0-0-0-0-0-0-0-|-------0-0-0-0-1--4--3--||


VERSE...X2
  
   PM--|     PM    PM       PM     PM
  
||--------------------|--------------------|
||o-------------------|--------------------|
||--------7s8---7s8---|-8s10---8s10---8s10-|
||--------------------|--------------------|
||o-------5s6---5s6---|-6s=8---6s=8---6s=8-|
||--0-0-0-----0-----0-|------0------0------|


 PM--|       PM      PM        PM      PM
  
|-----------------------|-----------------------|
|-----------------------|-----------------------|
|-------10s11---10s11---|-11s13---11s13---11s13-|
|-----------------------|-----------------------|
|--------8s=9----8s=9---|--9s11----9s11----9s11-|
|-0-0-0-------0-------0-|-------0-------0-------|


        
  PM--|    PM|    PM|      PM|    PM|
 
|---------------------|-------------------|
|---------------------|-------------------|
|---------------------|-------------------|
|-------3------3------|-6------6------6-6-|
|-------3------3------|-6------6------6-6-|
|-3-3-3-3--3-3-3--3-3-|-6--6-6-6--6-6-6-6-|


  PM--|    PM|    PM|      PM|    PM|
  
|---------------------|-------------------||------||
|---------------------|------------------o||------||
|---------------------|-------------------||------||
|-------2------2------|-5------5------5---||-5----||
|-------2------2------|-5------5------5--o||-5----||
|-2-2-2-2--2-2-2--2-2-|-5--5-5-5--5-5-5---||-5----||


CHORUS...X2
   
         PM----|   PM----------|         PM----|   PM|   PM|   PM
    
||--------------------------------|-------------------------------|
||o-------------------------------|-------------------------------|
||--7s8s7-------------------------|-7s8s7-------------------------|
||--7s8s7-------------------------|-7s8s7-------------------------|
||o-5s6s5---------1---------------|-5s6s5---------1-----4-----3---|
||--------0-0-0-0-1-0-0-0-0-0-0-0-|-------0-0-0-0-1-0-0-4-0-0-3-0-|

                                             
       PM----|   PM----------|         PM----|
 
|-------------------------------|------------------------||
|-------------------------------|-----------------------o||
|-7s8s7-------------------------|-7s8s7------------------||
|-7s8s7-------------------------|-7s8s7---------1--4--3--||
|-5s6s5---------1---------------|-5s6s5---------1--4--3-o||
|-------0-0-0-0-1-0-0-0-0-0-0-0-|-------0-0-0-0-1--4--3--||


INTERLUDE...X1  
 
|------------------|------------------|
|------------------|------------------|
|------------------|------------------|
|-0--3--1--1--4--3-|-0--3--1--1--4--3-|
|-0--3--1--1--4--3-|-0--3--1--1--4--3-|
|-0--3--1--1--4--3-|-0--3--1--1--4--3-|

 
|------------------|---------||
|------------------|---------||
|------------------|---------||
|-0--3--1--1)-4--3-|-0--3--1-||
|-0--3--1--1)-4--3-|-0--3--1-||
|-0--3--1--1)-4--3-|-0--3--1-||


BRIDGE...X1
 
|---------------|----------------|---------------|--------|
|---------------|----------------|---------------|--------|
|---------------|----------------|---------------|--------|
|-0-------------|-(0)------------|-0-------------|-(0)----|
|-0-------------|-(0)------------|-0-------------|-(0)----|
|-0-------------|-(0)------------|-0-------------|-(0)----|


   PM--------------------------------------------------------------|   
||----------------------------------|---------------------------------|
||o---------------------------------|---------------------------------|
||----------------------------------|---------------------------------|
||----------------------------------|---------------------------------|
||o---------------------------------|---------------------------------|
||--0-0-3-1-0-4-4-3-0-3-3-1-0-1-1-3-|-0-0-3-1-0-4-4-3-0-3-3-1-0-1-1-3-|

|-------------------------|-------------------------|
|-------------------------|-------------------------|
|-------------------------|-------------------------|
|-0-3-1-0-4-3-0-3-1-0-1-3-|-0-3-1-0-4-3-0-3-1-0-1-3-|
|-0-3-1-0-4-3-0-3-1-0-1-3-|-0-3-1-0-4-3-0-3-1-0-1-3-|
|-0-3-1-0-4-3-0-3-1-0-1-3-|-0-3-1-0-4-3-0-3-1-0-1-3-|


   PM--------------------------------------------------------------|  
||----------------------------------|---------------------------------|
||o---------------------------------|---------------------------------|
||----------------------------------|---------------------------------|
||----------------------------------|---------------------------------|
||o---------------------------------|---------------------------------|
||--0-0-3-1-0-4-4-3-0-3-3-1-0-1-1-3-|-0-0-3-1-0-4-4-3-0-3-3-1-0-1-1-3-|

|-------------------------|-------------------------|
|-------------------------|-------------------------|
|-------------------------|-------------------------|
|-0-3-1-0-4-3-0-3-1-0-1-3-|-0-3-1-0-4-3-0-3-1-0-1-3-|
|-0-3-1-0-4-3-0-3-1-0-1-3-|-0-3-1-0-4-3-0-3-1-0-1-3-|
|-0-3-1-0-4-3-0-3-1-0-1-3-|-0-3-1-0-4-3-0-3-1-0-1-3-|

   Gtr I
   PM----------------------------------------------|    
||--------------------------|-------------------------|
||o-------------------------|-------------------------|
||--------------------------|-------------------------|
||--------------------------|-------------------------|
||o-------------------------|-------------------------|
||--0-0-0-0-0-0-0-0-0-0-0-0-|-0-0-0-0-0-0-0-0-0-0-0-0-|
|
|   Gtr II
|  
||--------------------------|-------------------------|
||o-------------------------|-------------------------|
||--8-----------------------|-7-----------------------|
||--------------------------|-------------------------|
||o-6-----------------------|-5-----------------------|
||--------------------------|-------------------------|


  PM-----------------------------------------------|  
|--------------------------|--------------------------|
|--------------------------|--------------------------|
|--------------------------|--------------------------|
|--------------------------|--------------------------|
|--------------------------|--------------------------|
|--0-0-0-0-0-0-0-0-0-0-0-0-|--0-0-0-0-0-0-0-0-0-0-0-0-|
|
|  
|--------------------------|--------------------------|
|--------------------------|--------------------------|
|-10-----------------------|-11-----------------------|
|--------------------------|--------------------------|
|--8-----------------------|--9-----------------------|
|--------------------------|--------------------------|


 PM----------------------------------------------|  
|-------------------------|-------------------------|
|-------------------------|-------------------------|
|-------------------------|-------------------------|
|-------------------------|-------------------------|
|-------------------------|-------------------------|
|-0-0-0-0-0-0-0-0-0-0-0-0-|-0-0-0-0-0-0-0-0-0-0-0-0-|
|
|
|-------------------------|-------------------------|
|-------------------------|-------------------------|
|-8-----------------------|-7-----------------------|
|-------------------------|-------------------------|
|-6-----------------------|-5-----------------------|
|-------------------------|-------------------------|


   PM-----------------------------------------------|   
|--------------------------|--------------------------|
|--------------------------|--------------------------|
|--------------------------|--------------------------|
|--------------------------|--------------------------|
|--------------------------|--------------------------|
|--0-0-0-0-0-0-0-0-0-0-0-0-|--0-0-0-0-0-0-0-0-0-0-0-0-|
|
| 
|--------------------------|--------------------------|
|--------------------------|--------------------------|
|-14-----------------------|-13-----------------------|
|--------------------------|--------------------------|
|-12-----------------------|-11-----------------------|
|--------------------------|--------------------------|

Gtrs I, II
 
|-----------------|-----------------|-----------------|
|-----------------|-----------------|-----------------|
|-----------------|-----------------|-----------------|
|-0-3-1-0-4-3-0-3-|-1-0-1-3-0-3-1-0-|-4-3-0-3-1-0-1-3-|
|-0-3-1-0-4-3-0-3-|-1-0-1-3-0-3-1-0-|-4-3-0-3-1-0-1-3-|
|-0-3-1-0-4-3-0-3-|-1-0-1-3-0-3-1-0-|-4-3-0-3-1-0-1-3-|


   Gtr I
   PM----------------------------------------------|    
||--------------------------|-------------------------|
||o-------------------------|-------------------------|
||--------------------------|-------------------------|
||--------------------------|-------------------------|
||o-------------------------|-------------------------|
||--0-0-0-0-0-0-0-0-0-0-0-0-|-0-0-0-0-0-0-0-0-0-0-0-0-|
|
|   Gtr II
|  
||--------------------------|-------------------------|
||o-------------------------|-------------------------|
||--8-----------------------|-7-----------------------|
||--------------------------|-------------------------|
||o-6-----------------------|-5-----------------------|
||--------------------------|-------------------------|


  PM-----------------------------------------------|  
|--------------------------|--------------------------|
|--------------------------|--------------------------|
|--------------------------|--------------------------|
|--------------------------|--------------------------|
|--------------------------|--------------------------|
|--0-0-0-0-0-0-0-0-0-0-0-0-|--0-0-0-0-0-0-0-0-0-0-0-0-|
|
|  
|--------------------------|--------------------------|
|--------------------------|--------------------------|
|-10-----------------------|-11-----------------------|
|--------------------------|--------------------------|
|--8-----------------------|--9-----------------------|
|--------------------------|--------------------------|


 PM----------------------------------------------|  
|-------------------------|-------------------------|
|-------------------------|-------------------------|
|-------------------------|-------------------------|
|-------------------------|-------------------------|
|-------------------------|-------------------------|
|-0-0-0-0-0-0-0-0-0-0-0-0-|-0-0-0-0-0-0-0-0-0-0-0-0-|
|
|
|-------------------------|-------------------------|
|-------------------------|-------------------------|
|-8-----------------------|-7-----------------------|
|-------------------------|-------------------------|
|-6-----------------------|-5-----------------------|
|-------------------------|-------------------------|


|----------|------||
|----------|------||
|----------|------||
|-4--------|-7----||
|-2--------|-5----||
|-2--------|-5----||


BRIDGE...X2
  
||--------------|-------------|-------------|-------------|
||o-------------|-------------|-------------|-------------|
||--5--4--9-5-5-|-5--4--7-5-5-|-1--0--3-1-1-|-1--0--3-1-1-|
||--7--7--7-7-7-|-7--7--7-7-7-|-3--3--3-3-3-|-3--3--3-3-3-|
||o-7--7--7-7-7-|-7--7--7-7-7-|-3--3--3-3-3-|-3--3--3-3-3-|
||--------------|-------------|-------------|-------------|


|-------------|-------------|
|-------------|-------------|
|-4--3--6-4-4-|-4--3--6-4-4-|
|-6--6--6-6-6-|-6--6--6-6-6-|
|-6--6--6-6-6-|-6--6--6-6-6-|
|-------------|-------------|


|-------------------|--------------------------------||
|-------------------|-------------------------------o||
|-------------------|--------------------------------||
|-4-4-4-4-4-4-4-4-4S|==7--7--7--7--7--7--7--7--7--7--||
|-7-7-7-7-7-7-7-7-7S|=10-10-10-10-10-10-10-10-10-10-o||
|-9-9-9-9-9-9-9-9-9S|=12-12-12-12-12-12-12-12-12-12--||


||--------------|-------------|-------------|-------------|
||o-------------|-------------|-------------|-------------|
||--5--4--9-5-5-|-5--4--7-5-5-|-1--0--3-1-1-|-1--0--3-1-1-|
||--7--7--7-7-7-|-7--7--7-7-7-|-3--3--3-3-3-|-3--3--3-3-3-|
||o-7--7--7-7-7-|-7--7--7-7-7-|-3--3--3-3-3-|-3--3--3-3-3-|
||--------------|-------------|-------------|-------------|


|-------------|-------------|
|-------------|-------------|
|-4--3--6-4-4-|-4--3--6-4-4-|
|-6--6--6-6-6-|-6--6--6-6-6-|
|-6--6--6-6-6-|-6--6--6-6-6-|
|-------------|-------------|


|-------------------|--------------------------------||
|-------------------|-------------------------------o||
|-------------------|--------------------------------||
|-4-4-4-4-4-4-4-4-4S|==7--7--7--7--7--7--7--7--7--7--||
|-7-7-7-7-7-7-7-7-7S|=10-10-10-10-10-10-10-10-10-10-o||
|-9-9-9-9-9-9-9-9-9S|=12-12-12-12-12-12-12-12-12-12--||

  PM----------------------------------------------|
|-------------------------|-------------------------|
|-------------------------|-------------------------|
|-5-5-5-4-4-4-9-9-5-5-5-5-|-5-5-5-4-4-4-7-7-5-5-5-5-|
|-7-7-7-7-7-7-7-7-7-7-7-7-|-7-7-7-7-7-7-7-7-7-7-7-7-|
|-7-7-7-7-7-7-7-7-7-7-7-7-|-7-7-7-7-7-7-7-7-7-7-7-7-|
|-------------------------|-------------------------|


 PM-----------------------------------------------|
|-------------------------|-------------------------|
|-------------------------|-------------------------|
|-1-1-1-0-0-0-3-3-1-1-1-1-|-1-1-1-0-0-0-3-3-1-1-1-1-|
|-3-3-3-3-3-3-3-3-3-3-3-3-|-3-3-3-3-3-3-3-3-3-3-3-3-|
|-3-3-3-3-3-3-3-3-3-3-3-3-|-3-3-3-3-3-3-3-3-3-3-3-3-|
|-------------------------|-------------------------|


  PM----------------------------------------------|
|-------------------------|-------------------------|
|-------------------------|-------------------------|
|-4-4-4-3-3-3-6-6-4-4-4-4-|-4-4-4-3-3-3-6-6-4-4-4-4-|
|-6-6-6-6-6-6-6-6-6-6-6-6-|-6-6-6-6-6-6-6-6-6-6-6-6-|
|-6-6-6-6-6-6-6-6-6-6-6-6-|-6-6-6-6-6-6-6-6-6-6-6-6-|
|-------------------------|-------------------------|


|-------------------|-------------------------------||
|-------------------|-------------------------------||
|-------------------|-------------------------------||
|-4-4-4-4-4-4-4-4-4S|==7--7--7--7--7--7--7--7--7--7-||
|-7-7-7-7-7-7-7-7-7S|=10-10-10-10-10-10-10-10-10-10-||
|-9-9-9-9-9-9-9-9-9S|=12-12-12-12-12-12-12-12-12-12-||

GUITAR SOLO...X1
  
  Gtr I
  
|-----------------------|-----------------------|
|-----------------------|-----------------------|
|-----------------------|-----------------------|
|--7--7-7---7--7------7-|---9--9-9--10--10-10---|
|--7--7-7---7--7------7-|---9--9-9--10--10-10---|
|--7--7-7---7--7------7-|---9--9-9--10--10-10---|
|
| Gtr II
|  
|  
|-----------------------|-----------------------|
|-----------------------|-----------------------|
|-----------------------|-/12------(12)----10p9-|
|-10------(10)---(10)s9-|-----------------------|
|-----------------------|-----------------------|
|-----------------------|-----------------------|


  
|-----------------------|----------------------|
|-----------------------|----------------------|
|-----------------------|----------------------|
|--3--3-3---3--3------3-|---9--9----9-10-10-10-|
|--3--3-3---3--3------3-|---9--9----9-10-10-10-|
|--3--3-3---3--3------3-|---9--9----9-10-10-10-|
|
| 
|-----------------------|----------------------|
|-----------------------|-/13----12------10----|
|-10------(10)---(10)s9-|----------------------|
|-----------------------|----------------------|
|-----------------------|----------------------|
|-----------------------|----------------------|



|-----------------------------------------|
|-----------------------------------------|
|-----------------------------------------|
|-6--6----6-6------6-----------6----------|
|-6--6----6-6------6-----------6----------|
|-6--6----6-6------6-----------6----------|
|
| 
|--------------------------------------16-|
|-9----9h10-9tr10-12-13-15-17-13-15-17----|
|-----------------------------------------|
|-----------------------------------------|
|-----------------------------------------|
|-----------------------------------------|


|--------------------------------------------------------------------------|
|--------------------------------------------------------------------------|
|--------------------------------------------------------------------------|
|--8------------------8-----------8-----9-----------9-----------9----------|
|--8------------------8-----------8-----9-----------9-----------9----------|
|--8------------------8-----------8-----9-----------9-----------9----------|
|
|  
|--------------------------------------------------------------------------|
|-18--17-18-17-15----------------------------------------------------------|
|-----------------17-16-14-------------------------16-14-12----------------|
|--------------------------17-15-14-15-14-12----------------15-14-12-14-12-|
|--------------------------------------------15-14-------------------------|
|--------------------------------------------------------------------------|


 
|----------------------------------------------------------------------|
|----------------------------------------------------------------------|
|----------------------------------------------------------------------|
|--4------------------4-----------4------4------4-----------4S=========|
|--7------------------7-----------7------7------7-----------7S=========|
|--9------------------9-----------9------9------9-----------9S=========|
|
|  
|----------------------------------------------------------------------|
|----------------------------------------------------------------------|
|----------------------------------------------------------------------|
|----------------------------------------------12----------------------|
|-15--14-15-14-12-14-12-10------------------------15-14-12-15-14-12-14-|
|--------------------------16-14-12-14-[16]b18r========================|


 
|----------------------------|
|----------------------------|
|----------------------------|
|--7------7-----7--7---7--7--|
|-10-----10----10-10--10-10--|
|-12-----12----12-12--12-12--|
|
|                 
|  
|----------------------------|
|----------------------------|
|----------------------------|
|----------------------------|
|-11--12----11----12---------|
|----------------------------|


  
|-------------|-------------------------|-----------------------------------|
|-------------|-------------------------|-----------------------------------|
|-------------|-------------------------|-----------------------------------|
|---7--7-7-7-7-7-|--9---9--9-10--10-----10-|--3--3-3-3--3-----------3-------|
|---7--7-7-7-7-7-|--9---9--9-10--10-----10-|--3--3-3-3--3-----------3-------|
|---7--7-7-7-7-7-|--9---9--9-10--10-----10-|--3--3-3-3--3-----------3-------|
|
|   
|  
|----------------|-------------------------|--------------------------------|
|-/17------------|-15----------------------|-----------------15-17-18-17-15-|
|----------------|-----17----16-----17-----|-17--------16-17-------------17-|
|----------------|-------------------------|--------------------------------|
|----------------|-------------------------|--------------------------------|
|----------------|-------------------------|--------------------------------|


|-----------------------------------------------|
|-----------------------------------------------|
|-----------------------------------------------|
|--9---------9---------9-10----------10--10-----|
|--9---------9---------9-10----------10--10-----|
|--9---------9---------9-10----------10--10-----|
|
| 
|-----------------------------------------------|
|-15--------------------------------------------|
|-----17-16-17s19-(19)---17-16-14-16-17-----16--|
|-----------------------------------------------|
|-----------------------------------------------|
|-----------------------------------------------|



|---------------------------------------------|
|---------------------------------------------|
|---------------------------------------------|
|--6------------6----6--6--------6--------6---|
|--6------------6----6--6--------6--------6---|
|--6------------6----6--6--------6--------6---|
|
| 
|  
|----------------------------------16----16---|
|-----------15----15------------15----15------|
|--------16----16------------16---------------|
|-----15------------------15------------------|
|-14-------------------14---------------------|
|---------------------------------------------|



|---------------------------------------------|
|---------------------------------------------|
|---------------------------------------------|
|--8--------------8----------8------9---9--9--|
|--8--------------8----------8------9---9--9--|
|--8--------------8----------8------9---9--9--|
|
|  
|------------------------------22-(22)-20-19--|
|-----------17------17----17------------------|
|--------18----18------18---------------------|
|-----17--------------------------------------|
|-16------------------------------------------|
|---------------------------------------------|


               
|--------------------------|-------------------------*|
|--------------------------|-------------------------*|
|--------------------------|-------------------------*|
|--4----------4-4---4--4-4S|===7---7--7---7----------*|
|--7----------7-7---7--7-7S|==10--10-10--10----------*|
|--9----------9-9---9--9-9S|==12--12-12--12----------*|
|
|                                 
| 
|-22b24==(22)-----(22)-----|-(22)-------(22)--(22)r-*|
|--------------------------|-------------------------*|
|--------------------------|-------------------------*|
|--------------------------|-------------------------*|
|--------------------------|-------------------------*|
|--------------------------|-------------------------*|

BRIDGE...X1
 
|---------------|----------------|---------------|--------|
|---------------|----------------|---------------|--------|
|---------------|----------------|---------------|--------|
|-0-------------|-(0)------------|-0-------------|-(0)----|
|-0-------------|-(0)------------|-0-------------|-(0)----|
|-0-------------|-(0)------------|-0-------------|-(0)----|


   PM--------------------------------------------------------------|   
||----------------------------------|---------------------------------|
||o---------------------------------|---------------------------------|
||----------------------------------|---------------------------------|
||----------------------------------|---------------------------------|
||o---------------------------------|---------------------------------|
||--0-0-3-1-0-4-4-3-0-3-3-1-0-1-1-3-|-0-0-3-1-0-4-4-3-0-3-3-1-0-1-1-3-|

|-------------------------|-------------------------|
|-------------------------|-------------------------|
|-------------------------|-------------------------|
|-0-3-1-0-4-3-0-3-1-0-1-3-|-0-3-1-0-4-3-0-3-1-0-1-3-|
|-0-3-1-0-4-3-0-3-1-0-1-3-|-0-3-1-0-4-3-0-3-1-0-1-3-|
|-0-3-1-0-4-3-0-3-1-0-1-3-|-0-3-1-0-4-3-0-3-1-0-1-3-|

============================================================================
3 comments total.
0 reply
thrice_1989 wrote on August 23 2006, 09:00 pm

purfect

0 reply
ThE cAnDyMaN wrote on May 13 2007, 08:31 am

Nice tab man. This song is awesome too.

0 reply
Dudeman5000 wrote on November 24 2007, 07:03 am

I can't get bridge to sound right...

I want to post or [tab]
guest
You may want to rate the tab now too:
select rating
Please do not post tabs as comments. Select "correction" instead!