Oops, an error
Loading. Please wait.

Pull Harder On The Strings Of Your Martyr Tab

ver4
ver4

Whole song

More versions @911Tabs.com
5,205 views 6 this week
1 commentread comment
1 2 3 4 5
accurate
x 8
Autoscroll
+/-
esc
set tempo
stop
Contributor
WARNING: You are trying to view
                                    content from Ultimate-Guitar.com
                                    in an unauthorized application,
                                    which is prohibited.

                                    Please use an official Ultimate
                                    Guitar Tabs application for iPhone,
                                    iPad or Android to access legitimate
                                    chords, guitar, bass, and drum tabs
                                    from Ultimate-Guitar.com database.

                                    Type "ultimate guitar tabs" in Apple
                                    App Store's or Android Market's
                                    search to find the application.
Band:  Trivium
Album: Ascendancy
Song:  Pull Harder On The Strings Of Your Martyr

Copyright (c)  RoadRunner 2005
Version 1.0 - 08/04/2005

Transcribed By: MurderThyLamb
Email:          murderthylamb@yahoo.com


*  - palm mute           /  - slide up to
\  - slide down to       ~  - vibrato
h  - hammer on           b  - Bend
p  - pull off            Suffixes for bend
t  - tap                 f  - full bend    h - half bend
ph - pinched harmonic    q  - quarter bend t - tap bend
"  - tremolo note        ^  - Hold bend    r release bend
x  - Stuccatto           ~  - vibrato bend
,  - slight palm mute    () - ghost note, sustained note
                         <> - Trill

Tuning Low to High- D A D G B E ( Drp-D Tuning)

After Drum Intro...

   Both Guitars
E||-------------------------------------------------------------|
B||-------------------------------------------------------------|
G||-------------------------------------------------------------|
D||--7----------------7-8----------------8-8----------------8-7-|
A||--5----------------5-5----------------5-6----------------6-7-|
D||--0-0000-0000-0000-0-0-0000-0000-0000-0-0-6666-6666-6666---7-|
       **** **** ****     **** **** ****     **** **** ****

  Both Guitars
E|----------------------------------------------------------------|
B|----------------------------------------------------------------|
G|----------------------------------------------------------------|
D|------------------7----------------7-8----------------8-8-------|
A|------------------5----------------5-5----------------5-6-------|
D|--7777-7777-7777--0-0000-0000-0000-0-0-0000-0000-0000-0-0-6666--|
    **** **** ****    **** **** ****     **** **** ****     ****

  Both Guitars
E|-------------------------------|
B|-------------------------------|
G|-------------------------------|
D|------------8-7----------------|
A|------------6-7----------------|
D|--6666-6666---7-7777-7777-7777-|
    **** ****     **** **** ****

  Guitar 1 ( Matt )
E|-------------------------------------------|
B|-------------------------------------------|
G|-------------------------------------------|
D|--0--0--0--0------1--1--1--1--------7------|
A|--0--0--0--0------1--1--1--1--------7------|
D|--0--0--0--0------1--1--1--1--------7------|
||
||Guitar 2 ( Corey )
E|------------------------------------------|
B|------------------------------------------|
G|--15\14-14\12----15\14-14/17-17\12-12/14--|
D|------------------------------------------|
A|--13\12-12\10----13\12-12/15-15\10-10/12--|
D|------------------------------------------|

Guitar 1 ( Matt )
E|-------------------------------------------|
B|-------------------------------------------|
G|-------------------------------------------|
D|--0--0--0--0------1--1--1--1--------7------|
A|--0--0--0--0------1--1--1--1--------7------|
D|--0--0--0--0------1--1--1--1--------7------|
||
||Guitar 2 ( Corey )
E|------------------------------------------|
B|------------------------------------------|
G|--15\14-14\12----15\14-14/17-17\12-12/14--|
D|------------------------------------------|
A|--13\12-12\10----13\12-12/15-15\10-10/12--|
D|------------------------------------------|

Both Guitars
E|-------------------------------------------------------------|
B|-------------------------------------------------------------|
G|-------------------------------------------------------------|
D|--7----------------7-8----------------8-8----------------8-7-|
A|--5----------------5-5----------------5-6----------------6-7-|
D|--0-0000-0000-0000-0-0-0000-0000-0000-0-0-6666-6666-6666---7-|
      **** **** ****     **** **** ****     **** **** ****

  Both Guitars
E|----------------------------------------------------------------|
B|----------------------------------------------------------------|
G|----------------------------------------------------------------|
D|------------------7----------------7-8----------------8-8-------|
A|------------------5----------------5-5----------------5-6-------|
D|--7777-7777-7777--0-0000-0000-0000-0-0-0000-0000-0000-0-0-6666--|
    **** **** ****    **** **** ****     **** **** ****     ****

  Both Guitars
E|-------------------------------|
B|-------------------------------|
G|-------------------------------|
D|------------8-7----------------|
A|------------6-7----------------|
D|--6666-6666---7-7777-7777-7777-|
    **** ****     **** **** ****

  Both Guitars
E|------------------------------------------|
B|------------------------------------------|
G|---------14-14-14-14---------12-12-12-12--|
D|------------------------------------------|
A|--0h1-0--12-12-12-12--0h1-0--10-10-10-10--|
D|--0h1-0---------------0h1-0---------------|

  Both Guitars
E|------------------------------------------|
B|------------------------------------------|
G|---------14-14-14-14---------12-12-12-12--|
D|------------------------------------------|
A|--0h1-0--12-12-12-12--0h1-0--10-10-10-10--|
D|--0h1-0---------------0h1-0---------------|

  Both Guitars
E|------------------------------------------------|
B|------------------------------------------------|
G|-----------14-14-14-14-------------12-12-12-12--|
D|------------------------------------------------|
A|--7h8-888--12-12-12-12--7h8-8-888--10-10-10-10--|
D|--7h8-888---------------7h8-8-888---------------|

  Both Guitars
E|-----------------------------------------------------|
B|-----------------------------------------------------|
G|-----------14-14-14-14------------------17-17-17-17--|
D|-----------------------------------------------------|
A|--7h8-888--12-12-12-12--8h10-10-10-10---15-15-15-15--|
D|--7h8-888---------------8h10-10-10-10----------------|

  Guitar 1 ( Matt )
E|-------------------------------------|
B|-------------------------------------|
G|--------10-10-10-10---------9-9-9-9--|
D|-------------------------------------|
A|--0h1-0--8--8--8--8--0h1-0--7-7-7-7--|
D|--0h1-0--------------0h1-0-----------|
||
||Guitar 2 ( Corey )
E|------------------------------------------|
B|------------------------------------------|
G|---------14-14-14-14---------12-12-12-12--|
D|------------------------------------------|
A|--0h1-0--12-12-12-12--0h1-0--10-10-10-10--|
D|--0h1-0---------------0h1-0---------------|

Guitar 1 ( Matt )
E|-------------------------------------|
B|-------------------------------------|
G|--------10-10-10-10---------9-9-9-9--|
D|-------------------------------------|
A|--0h1-0--8--8--8--8--0h1-0--7-7-7-7--|
D|--0h1-0--------------0h1-0-----------|
||
||Guitar 2 ( Corey )
E|------------------------------------------|
B|------------------------------------------|
G|---------14-14-14-14---------12-12-12-12--|
D|------------------------------------------|
A|--0h1-0--12-12-12-12--0h1-0--10-10-10-10--|
D|--0h1-0---------------0h1-0---------------|

  Guitar 1 ( Matt )
E|-------------------------------------------|
B|-------------------------------------------|
G|----------10-10-10-10-------------9-9-9-9--|
D|-------------------------------------------|
A|--7h8-888--8--8--8--8--7h8-8-888--7-7-7-7--|
D|--7h8-888--------------7h8-8-888-----------|
||
||Guitar 2 ( Corey )
E|------------------------------------------------|
B|------------------------------------------------|
G|-----------14-14-14-14-------------12-12-12-12--|
D|------------------------------------------------|
A|--7h8-888--12-12-12-12--7h8-8-888--10-10-10-10--|
D|--7h8-888---------------7h8-8-888---------------|

E|------------------------------------------------------|
B|------------------------------------------------------|
G|----------10-10-10-10--------------------12-12-12-12--|
D|------------------------------------------------------|
A|--7h8-888--8--8--8--8--8h10-10-10-10-10--10-10-10-10--|
D|--7h8-888--------------8h10-10-10-10-10---------------|
||Guitar 2 ( Corey )
E|-------------------------------------------------------|
B|-------------------------------------------------------|
G|-----------14-14-14-14--------------------17-17-17-17--|
D|-------------------------------------------------------|
A|--7h8-888--12-12-12-12--8h10-10-10-10-10--15-15-15-15--|
D|--7h8-888---------------8h10-10-10-10-10---------------|

  Guitar 1 ( Matt )
E|----------------------------------------------|
B|----------------------------------------------|
G|----------------------------------------------|
D|--0--7-9----------------------10101010-7777---|
A|--0--5-7------10-8-7h8p7-7-8---8-8-8-8-5555---|
D|--0-----(3)/10-----------------8-8-8-8-5555---|
||                         *
||Guitar 2 ( Corey )
E|-------------------------------------------------|
B|-------------------------------------------------|
G|-------------------------------------------------|
D|--0--7-9--------------------------10101010-7777--|
A|--0--5-7------10-8-10h12p10-10-12--8-8-8-8-5555--|
D|--0-----(3)/10---------------------8-8-8-8-5555--|

Guitar 1 ( Matt )
E|------------------------------------------|
B|------------------------------------------|
G|------------------------------------------|
D|--0--7-9-----------------------3-3-3-3-6--|
A|--0--5-7------10-8-7h8p7-7-8---3-3-3-3-4--|
D|--0-----(3)/10-----------------3-3-3-3----|
||                         *            (let last chord ring thru
                                          the little mini solo)
||Guitar 2 ( Corey )
E|------------------------------------------------------------------|
B|-------------------------------------------------14-----------14--|
G|-------------------------------------------121415-------121415----|
D|--0--7-9--------------------------3---121415-------121415---------|
A|--0--5-7------10-8-10h12p10-10-12-3-------------------------------|
D|--0-----(3)/10--------------------3-------------------------------|
                              *

Both Guitars
E|-------------------------------------------------------------|
B|-------------------------------------------------------------|
G|-------------------------------------------------------------|
D|--7----------------7-8----------------8-8----------------8-7-|
A|--5----------------5-5----------------5-6----------------6-7-|
D|--0-0000-0000-0000-0-0-0000-0000-0000-0-0-6666-6666-6666---7-|
       **** **** ****     **** **** ****     **** **** ****

  Both Guitars
E|----------------------------------------------------------------|
B|----------------------------------------------------------------|
G|----------------------------------------------------------------|
D|------------------7----------------7-8----------------8-8-------|
A|------------------5----------------5-5----------------5-6-------|
D|--7777-7777-7777--0-0000-0000-0000-0-0-0000-0000-0000-0-0-6666--|
    **** **** ****    **** **** ****     **** **** ****     ****

  Both Guitars
E|-------------------------------|
B|-------------------------------|
G|-------------------------------|
D|------------8-7----------------|
A|------------6-7----------------|
D|--6666-6666---7-7777-7777-7777-|
    **** ****     **** **** ****

Both Guitars
E|------------------------------------------|
B|------------------------------------------|
G|---------14-14-14-14---------12-12-12-12--|
D|------------------------------------------|
A|--0h1-0--12-12-12-12--0h1-0--10-10-10-10--|
D|--0h1-0---------------0h1-0---------------|

  Both Guitars
E|------------------------------------------------|
B|------------------------------------------------|
G|-----------14-14-14-14-------------12-12-12-12--|
D|------------------------------------------------|
A|--7h8-888--12-12-12-12--7h8-8-888--10-10-10-10--|
D|--7h8-888---------------7h8-8-888---------------|

  Both Guitars
E|-----------------------------------------------------|
B|-----------------------------------------------------|
G|-----------14-14-14-14------------------17-17-17-17--|
D|-----------------------------------------------------|
A|--7h8-888--12-12-12-12--8h10-10-10-10---15-15-15-15--|
D|--7h8-888---------------8h10-10-10-10----------------|

  Guitar 1 ( Matt )
E|-------------------------------------|
B|-------------------------------------|
G|--------10-10-10-10---------9-9-9-9--|
D|-------------------------------------|
A|--0h1-0--8--8--8--8--0h1-0--7-7-7-7--|
D|--0h1-0--------------0h1-0-----------|
||
||Guitar 2 ( Corey )
E|------------------------------------------|
B|------------------------------------------|
G|---------14-14-14-14---------12-12-12-12--|
D|------------------------------------------|
A|--0h1-0--12-12-12-12--0h1-0--10-10-10-10--|
D|--0h1-0---------------0h1-0---------------|

Guitar 1 ( Matt )
E|-------------------------------------|
B|-------------------------------------|
G|--------10-10-10-10---------9-9-9-9--|
D|-------------------------------------|
A|--0h1-0--8--8--8--8--0h1-0--7-7-7-7--|
D|--0h1-0--------------0h1-0-----------|
||
||Guitar 2 ( Corey )
E|------------------------------------------|
B|------------------------------------------|
G|---------14-14-14-14---------12-12-12-12--|
D|------------------------------------------|
A|--0h1-0--12-12-12-12--0h1-0--10-10-10-10--|
D|--0h1-0---------------0h1-0---------------|

  Guitar 1 ( Matt )
E|-------------------------------------------|
B|-------------------------------------------|
G|----------10-10-10-10-------------9-9-9-9--|
D|-------------------------------------------|
A|--7h8-888--8--8--8--8--7h8-8-888--7-7-7-7--|
D|--7h8-888--------------7h8-8-888-----------|
||
||Guitar 2 ( Corey )
E|------------------------------------------------|
B|------------------------------------------------|
G|-----------14-14-14-14-------------12-12-12-12--|
D|------------------------------------------------|
A|--7h8-888--12-12-12-12--7h8-8-888--10-10-10-10--|
D|--7h8-888---------------7h8-8-888---------------|

E|------------------------------------------------------|
B|------------------------------------------------------|
G|----------10-10-10-10--------------------12-12-12-12--|
D|------------------------------------------------------|
A|--7h8-888--8--8--8--8--8h10-10-10-10-10--10-10-10-10--|
D|--7h8-888--------------8h10-10-10-10-10---------------|
||Guitar 2 ( Corey )
E|-------------------------------------------------------|
B|-------------------------------------------------------|
G|-----------14-14-14-14--------------------17-17-17-17--|
D|-------------------------------------------------------|
A|--7h8-888--12-12-12-12--8h10-10-10-10-10--15-15-15-15--|
D|--7h8-888---------------8h10-10-10-10-10---------------|

  Guitar 1 ( Matt )
E|----------------------------------------------|
B|----------------------------------------------|
G|----------------------------------------------|
D|--0--7-9----------------------10101010-7777---|
A|--0--5-7------10-8-7h8p7-7-8---8-8-8-8-5555---|
D|--0-----(3)/10-----------------8-8-8-8-5555---|
||                         *
||Guitar 2 ( Corey )
E|-------------------------------------------------|
B|-------------------------------------------------|
G|-------------------------------------------------|
D|--0--7-9--------------------------10101010-7777--|
A|--0--5-7------10-8-10h12p10-10-12--8-8-8-8-5555--|
D|--0-----(3)/10---------------------8-8-8-8-5555--|

Guitar 1 ( Matt )
E|------------------------------------------|
B|------------------------------------------|
G|------------------------------------------|
D|--0--7-9-----------------------3-3-3-3-6--|
A|--0--5-7------10-8-7h8p7-7-8---3-3-3-3-4--|
D|--0-----(3)/10-----------------3-3-3-3----|
||                         *            (let last chord ring thru
|| Guitar 2  ( Corey )                    the little mini solo)
E|------------------------------------------------------------------|
B|-------------------------------------------------14-----------14--|
G|-------------------------------------------121415-------121415----|
D|--0--7-9--------------------------3---121415-------121415---------|
A|--0--5-7------10-8-10h12p10-10-12-3-------------------------------|
D|--0-----(3)/10--------------------3-------------------------------|
                              *
Guitar 1 ( Matt )
E|----------------------------------------------|
B|----------------------------------------------|
G|----------------------------------------------|
D|--0--7-9----------------------10101010-7777---|
A|--0--5-7------10-8-7h8p7-7-10--8-8-8-8-5555---|
D|--0-----(3)/10-----------------8-8-8-8-5555---|
||                         *
||Guitar 2 ( Corey )
E|-------------------------------------------------|
B|-------------------------------------------------|
G|-------------------------------------------------|
D|--0--7-9--------------------------10101010-7777--|
A|--0--5-7------10-8-10h12p10-10-12--8-8-8-8-5555--|
D|--0-----(3)/10---------------------8-8-8-8-5555--|

Guitar 1 ( Matt )
E|------------------------------------------|
B|------------------------------------------|
G|------------------------------------------|
D|--0--7-9-----------------------3-3-3-3-6--|
A|--0--5-7------10-8-7h8p7-7-8---3-3-3-3-4--|
D|--0-----(3)/10-----------------3-3-3-3----|
||                         *            (let last chord ring thru
|| Guitar 2  ( Corey )                    the little mini solo)
E|------------------------------------------------------------------|
B|-------------------------------------------------14-----------14--|
G|-------------------------------------------121415-------121415----|
D|--0--7-9--------------------------3---121415-------121415---------|
A|--0--5-7------10-8-10h12p10-10-12-3-------------------------------|
D|--0-----(3)/10--------------------3-------------------------------|
                              *
  Guitar 1 ( Matt )
E|----------------------------------------------------------------------------|
B|----------------------------------------------------------------------------|
G|----------------------------------------------------------------------------|
D|--0------------------------------------------8---------------------------7--|
A|--0-------------------------5p0-7p0-8p0-10p0-8---------------------------7--|
D|--0------------------------------------------8---------------------------7--|
||
||Guitar 2 ( Corey )
E|----------------------------------------------------------------------------|
B|----------------------------------------------------------------------------|
G|----------------------------------------------------------------------------|
D|----------7----------------------------------8---------5-----------------6--|
A|----5--8-----10--8----5--8--5p0-7p0-8p0-10p0-8---5--7-----8--7---5p0-7p0-4--|
D|--00-00-00-00--00---00-00-00-----------------8-88-88-88-88-88--88-----------|
    ** ** ** **  **   ** ** **                   ** ** ** ** **

Guitar 1 ( Matt )
E|----------------------------------------|
B|----------------------------------------|
G|----------------------------------------|
D|----------------------------------------|
A|--00-00-00-00---00-00-5p0-7p0-8p0-10p0--|
D|--00-00-00-00---00-00-------------------|
||  ** ** ** **   ** **
||Guitar 2 ( Corey )
E|----------------------------------------------|
B|----------------------------------------------|
G|----------------------------------------------|
D|----------7-----------------------------------|
A|----5--8-----10--8----5--8--5p0-7p0-8p0-10p0--|
D|--00-00-00-00--00---00-00-00------------------|
    ** ** ** **  **   ** ** **

Guitar 1 ( Matt )
E|----------------------------------------|
B|----------------------------------------|
G|----------------------------------------|
D|----------------------------------------|
A|--88-88-88-88---88-88-5p0-7p0-8p0-10p0--|
D|--88-88-88-88---88-88-------------------|
||  ** ** ** **   ** **
||Guitar 2 ( Corey )
E|---------------------------------------------|
B|---------------------------------------------|
G|---------------------------------------------|
D|----------5----------------------------------|
A|----5--7-----8--7----5--8--5p0-7p0-8p0-10p0--|
D|--88-88-88-88-88---88-88-88------------------|
    ** ** ** **  **   ** ** **

  Guitar 1 ( Matt )
E|----------------------------------------|
B|----------------------------------------|
G|----------------------------------------|
D|----------------------------------------|
A|--00-00-00-00---00-00-5p0-7p0-8p0-10p0--|
D|--00-00-00-00---00-00-------------------|
||  ** ** ** **   ** **
||Guitar 2 ( Corey )
E|----------------------------------------------|
B|----------------------------------------------|
G|----------------------------------------------|
D|----------7-----------------------------------|
A|----5--8-----10--8----5--8--5p0-7p0-8p0-10p0--|
D|--00-00-00-00--00---00-00-00------------------|
    ** ** ** **  **   ** ** **

  Guitar 1 ( Matt )
E|----------------------------------------|
B|----------------------------------------|
G|----------------------------------------|
D|----------------------------------------|
A|--88-88-88-88---88-88-5p0-7p0-8p0-10p0--|
D|--88-88-88-88---88-88-------------------|
||  ** ** ** **   ** **
||Guitar 2 ( Corey )
E|---------------------------------------------|
B|---------------------------------------------|
G|---------------------------------------------|
D|----------5----------------------------------|
A|----5--7-----8--7----5--8--5p0-7p0-8p0-10p0--|
D|--88-88-88-88-88---88-88-88------------------|
    ** ** ** **  **   ** ** **

  Guitar 1 ( Matt )
E|----------------------------------------------|
B|----------------------------------------------|
G|----------------------------------------------|
D|----------7------------------3p0-5p0-7p0-8p0--|
A|----5--8-----10--8----5--8--------------------|
D|--00-00-00-00--00---00-00-00------------------|
||  ** ** ** **  **   ** ** **
||Guitar 2 ( Corey )
E|----------------------------------------------|
B|----------------------------------------------|
G|----------------------------------------------|
D|----------7-----------------------------------|
A|----5--8-----10--8----5--8--5p0-7p0-8p0-10p0--|
D|--00-00-00-00--00---00-00-00------------------|
    ** ** ** **  **   ** ** **

  Guitar 1 ( Matt )
E|---------------------------------------------|
B|---------------------------------------------|
G|---------------------------------------------|
D|----------5----------------------------------|
A|----5--7-----8--7----5--8--5p0-7p0-8p0-10p0--|
D|--88-88-88-88-88---88-88-88------------------|
||  ** ** ** **  **   ** ** **
||Guitar 2 ( Corey )
E|---------------------------------------------|
B|---------------------------------------------|
G|---------------------------------------------|
D|----------5----------------------------------|
A|----5--7-----8--7----5--8--5p0-7p0-8p0-10p0--|
D|--88-88-88-88-88---88-88-88------------------|
    ** ** ** **  **   ** ** **

Guitar 1 ( Matt )
E|----------------------------------------------|
B|----------------------------------------------|
G|----------------------------------------------|
D|----------7------------------3p0-5p0-7p0-8p0--|
A|----5--8-----10--8----5--8--------------------|
D|--00-00-00-00--00---00-00-00------------------|
||  ** ** ** **  **   ** ** **
||Guitar 2 ( Corey )
E|----------------------------------------------|
B|----------------------------------------------|
G|----------------------------------------------|
D|----------7-----------------------------------|
A|----5--8-----10--8----5--8--5p0-7p0-8p0-10p0--|
D|--00-00-00-00--00---00-00-00------------------|
    ** ** ** **  **   ** ** **

  Guitar 1 ( Matt )
E|---------------------------------------------|
B|---------------------------------------------|
G|---------------------------------------------|
D|----------5----------------------------------|
A|----5--7-----8--7----5--8--5p0-7p0-8p0-10p0--|
D|--88-88-88-88-88---88-88-88------------------|
||  ** ** ** **  **   ** ** **
||Guitar 2 ( Corey )
E|---------------------------------------------|
B|---------------------------------------------|
G|---------------------------------------------|
D|----------5----------------------------------|
A|----5--7-----8--7----5--8--5p0-7p0-8p0-10p0--|
D|--88-88-88-88-88---88-88-88------------------|
    ** ** ** **  **   ** ** **

Guitar 1 ( Matt )
E|----------------------------------------------|
B|----------------------------------------------|
G|----------------------------------------------|
D|----------7------------------3p0-5p0-7p0-8p0--|
A|----5--8-----10--8----5--8--------------------|
D|--00-00-00-00--00---00-00-00------------------|
||  ** ** ** **  **   ** ** **
||Guitar 2 ( Corey )
E|----------------------------------------------|
B|----------------------------------------------|
G|----------------------------------------------|
D|----------7-----------------------------------|
A|----5--8-----10--8----5--8--5p0-7p0-8p0-10p0--|
D|--00-00-00-00--00---00-00-00------------------|
    ** ** ** **  **   ** ** **

  Guitar 1 ( Matt )
E|---------------------------------------------|
B|---------------------------------------------|
G|---------------------------------------------|
D|----------5----------------------------------|
A|----5--7-----8--7----5--8--5p0-7p0-8p0-10p0--|
D|--88-88-88-88-88---88-88-88------------------|
||  ** ** ** **  **   ** ** **
||Guitar 2 ( Corey )
E|---------------------------------------------|
B|---------------------------------------------|
G|---------------------------------------------|
D|----------5----------------------------------|
A|----5--7-----8--7----5--8--5p0-7p0-8p0-10p0--|
D|--88-88-88-88-88---88-88-88------------------|
    ** ** ** **  **   ** ** **

   Okay. I've gotten this far, and Probably thinking " Alright!
For the Solo!" I cannot figure it out, and my brain is fried.
It is 9am, and I've been writing out this song since 2:30am. I'll
finish this song, but I cant put the solo in right now. I'll try
to submit it later. THANX. Here's the Rythmn part which goes on
during the solos.

  Both Guitars
E|-----------------------------------------|
B|-----------------------------------------|
G|-----------------------------------------|
D|-----------------------------------------|
A|-------0------0----0------0------0----0--|
D|--0000-0-0000-0-00-0-0000-0-0000-0-00-0--|
    ****   ****   **   ****   ****   **

E|-----------------------------------------|
B|-----------------------------------------|
G|-----------------------------------------|
D|-----------------------------------------|
A|-------8------8----8------8------8----8--|
D|--8888-8-8888-8-88-8-8888-8-8888-8-88-8--|
    ****   ****   **   ****   ****   **

E|-----------------------------------------|
B|-----------------------------------------|
G|-----------------------------------------|
D|-----------------------------------------|
A|-------3------3----3------3------3----3--|
D|--3333-3-3333-3-33-3-3333-3-3333-3-33-3--|
    ****   ****   **   ****   ****   **

E|-----------------------------------------|
B|-----------------------------------------|
G|-----------------------------------------|
D|-------6------6----6------6------6----6--|
A|--4444-4-4444-4-44-4-4444-4-4444-4-44-4--|
D|-----------------------------------------|
    ****   ****   **   ****   ****   **

  A Bunch of natural harmonics I can't tell what they are
  over his extremly loud screaming go here.

 Both Guitars
E|------------------------------------------------|
B|------------------------------------------------|
G|-----------14-14-14-14-------------12-12-12-12--|
D|------------------------------------------------|
A|--7h8-888--12-12-12-12--7h8-8-888--10-10-10-10--|
D|--7h8-888---------------7h8-8-888---------------|

  Both Guitars
E|-----------------------------------------------------|
B|-----------------------------------------------------|
G|-----------14-14-14-14------------------17-17-17-17--|
D|-----------------------------------------------------|
A|--7h8-888--12-12-12-12--8h10-10-10-10---15-15-15-15--|
D|--7h8-888---------------8h10-10-10-10----------------|

Guitar 1 ( Matt )
E|-------------------------------------|
B|-------------------------------------|
G|--------10-10-10-10---------9-9-9-9--|
D|-------------------------------------|
A|--0h1-0--8--8--8--8--0h1-0--7-7-7-7--|
D|--0h1-0--------------0h1-0-----------|
||
||Guitar 2 ( Corey )
E|------------------------------------------|
B|------------------------------------------|
G|---------14-14-14-14---------12-12-12-12--|
D|------------------------------------------|
A|--0h1-0--12-12-12-12--0h1-0--10-10-10-10--|
D|--0h1-0---------------0h1-0---------------|

Guitar 1 ( Matt )
E|-------------------------------------------|
B|-------------------------------------------|
G|----------10-10-10-10-------------9-9-9-9--|
D|-------------------------------------------|
A|--7h8-888--8--8--8--8--7h8-8-888--7-7-7-7--|
D|--7h8-888--------------7h8-8-888-----------|
||
||Guitar 2 ( Corey )
E|------------------------------------------------|
B|------------------------------------------------|
G|-----------14-14-14-14-------------12-12-12-12--|
D|------------------------------------------------|
A|--7h8-888--12-12-12-12--7h8-8-888--10-10-10-10--|
D|--7h8-888---------------7h8-8-888---------------|

E|------------------------------------------------------|
B|------------------------------------------------------|
G|----------10-10-10-10--------------------12-12-12-12--|
D|------------------------------------------------------|
A|--7h8-888--8--8--8--8--8h10-10-10-10-10--10-10-10-10--|
D|--7h8-888--------------8h10-10-10-10-10---------------|
||Guitar 2 ( Corey )
E|-------------------------------------------------------|
B|-------------------------------------------------------|
G|-----------14-14-14-14--------------------17-17-17-17--|
D|-------------------------------------------------------|
A|--7h8-888--12-12-12-12--8h10-10-10-10-10--15-15-15-15--|
D|--7h8-888---------------8h10-10-10-10-10---------------|

  Guitar 1 ( Matt )
E|----------------------------------------------|
B|----------------------------------------------|
G|----------------------------------------------|
D|--0--7-9----------------------10101010-7777---|
A|--0--5-7------10-8-7h8p7-7-8---8-8-8-8-5555---|
D|--0-----(3)/10-----------------8-8-8-8-5555---|
||                         *
||Guitar 2 ( Corey )
E|-------------------------------------------------|
B|-------------------------------------------------|
G|-------------------------------------------------|
D|--0--7-9--------------------------10101010-7777--|
A|--0--5-7------10-8-10h12p10-10-12--8-8-8-8-5555--|
D|--0-----(3)/10---------------------8-8-8-8-5555--|

Guitar 1 ( Matt )
E|------------------------------------------|
B|------------------------------------------|
G|------------------------------------------|
D|--0--7-9-----------------------3-3-3-3-6--|
A|--0--5-7------10-8-7h8p7-7-8---3-3-3-3-4--|
D|--0-----(3)/10-----------------3-3-3-3----|
||                         *            (let last chord ring thru
                                          the little mini solo)
||Guitar 2 ( Corey )
E|------------------------------------------------------------------|
B|-------------------------------------------------14-----------14--|
G|-------------------------------------------121415-------121415----|
D|--0--7-9--------------------------3---121415-------121415---------|
A|--0--5-7------10-8-10h12p10-10-12-3-------------------------------|
D|--0-----(3)/10--------------------3-------------------------------|
                              *

Guitar 1 ( Matt )
E|----------------------------------------------|
B|----------------------------------------------|
G|----------------------------------------------|
D|--0--7-9----------------------10101010-7777---|
A|--0--5-7------10-8-7h8p7-7-8---8-8-8-8-5555---|
D|--0-----(3)/10-----------------8-8-8-8-5555---|
||                         *
||Guitar 2 ( Corey )
E|-------------------------------------------------|
B|-------------------------------------------------|
G|-------------------------------------------------|
D|--0--7-9--------------------------10101010-7777--|
A|--0--5-7------10-8-10h12p10-10-12--8-8-8-8-5555--|
D|--0-----(3)/10---------------------8-8-8-8-5555--|

Guitar 1 ( Matt )
E|------------------------------------------|
B|------------------------------------------|
G|------------------------------------------|
D|--0--7-9-----------------------3-3-3-3-6--|
A|--0--5-7------10-8-7h8p7-7-8---3-3-3-3-4--|
D|--0-----(3)/10-----------------3-3-3-3----|
||                         *            (let last chord ring thru
                                          the little mini solo)
||Guitar 2 ( Corey )
E|------------------------------------------------------------------|
B|-------------------------------------------------14-----------14--|
G|-------------------------------------------121415-------121415----|
D|--0--7-9--------------------------3---121415-------121415---------|
A|--0--5-7------10-8-10h12p10-10-12-3-------------------------------|
D|--0-----(3)/10--------------------3-------------------------------|
                              *

Both Guitars
E||-------------------------------------------------------------|
B||-------------------------------------------------------------|
G||-------------------------------------------------------------|
D||--7----------------7-8----------------8-8----------------8-7-|
A||--5----------------5-5----------------5-6----------------6-7-|
D||--0-0000-0000-0000-0-0-0000-0000-0000-0-0-6666-6666-6666---7-|
       **** **** ****     **** **** ****     **** **** ****

  Both Guitars
E|----------------------------------------------------------------|
B|----------------------------------------------------------------|
G|----------------------------------------------------------------|
D|------------------7----------------7-8----------------8-8-------|
A|------------------5----------------5-5----------------5-6-------|
D|--7777-7777-7777--0-0000-0000-0000-0-0-0000-0000-0000-0-0-6666--|
    **** **** ****    **** **** ****     **** **** ****     ****

  Both Guitars
E|--------------------|
B|--------------------|
G|--------------------|
D|------------8-7-\0--|
A|------------6-7-\0--|
D|--6666-6666---7-\0--|
    **** ****
1 comment total.
0 reply
patfan242002 wrote on February 19 2006, 12:12 pm

you have named where the intro, verse, riff, solo, outro were all are. i was lost most of the time looking at this.

I want to post or [tab]
guest
You may want to rate the tab now too:
select rating
Please do not post tabs as comments. Select "correction" instead!