Oops, an error
Loading. Please wait.

Rain Tab

ver4
ver4
More versions @911Tabs.com
10,205 views 1 this week
2 commentsread comments
1 2 3 4 5
worth learning
x 5
Autoscroll
+/-
esc
set tempo
stop
Contributor
Hey! There's an official Ultimate Guitar app which is ideal
for learning songs when you're away from computer. Get the app
WARNING: You are trying to view
                                    content from Ultimate-Guitar.com
                                    in an unauthorized application,
                                    which is prohibited.

                                    Please use an official Ultimate
                                    Guitar Tabs application for iPhone,
                                    iPad or Android to access legitimate
                                    chords, guitar, bass, and drum tabs
                                    from Ultimate-Guitar.com database.

                                    Type "ultimate guitar tabs" in Apple
                                    App Store's or Android Market's
                                    search to find the application.
                                     Rain    
                                   Trivium                                   
                              posted by ben_unknown              
Matt Heafy
almostperfect                                                                
E||---------------------|---------------------|---------------------|
B||---------------------|---------------------|---------------------|
G||---------------------|-------8/7-----------|---------------------|
D||--7----8-5-----------|--7----x-x-----------|--7----8-5-----------|
A||--5----6-3-----------|--5----6/5-----------|--5----6-3-----------|
D||---------------------|---------------------|---------------------|


                                                                                
-----------------------------------|---------------------|---------------------|
-----------------------------------|---------------------|---------------------|
-------8/7-------------------------|---------------------|-------8/7-----------|
--7----x-x-------------------------|--7----8-5-----------|--7----x-x-----------|
--5----6/5---x-x-x-x-x-x-x-x-17/---|--5----6-3-----------|--5----6/5-----------|
-------------x-x-x-x-x-x-x-x-17/---|---------------------|---------------------|


                                                                  
---------------------|---------------------|---------------------|
---------------------|---------------------|---------------------|
---------------------|-------8/7-----------|---------------------|
--7----8-5-----------|--7----x-x-----------|--0----0-1-----------|
--5----6-3-----------|--5----6/5-----------|--0----0-1-----------|
---------------------|---------------------|--0----0-1-----------|


                                                                               
-----------------------------|---------------------|--------------------------|
-----------------------------|---------------------|--------------------------|
-----------------------------|---------------------|-------------3-3-3-3-5----|
--0----0-1---8-8-8-8-7-7-7-7-|--0----0-1-----------|--0----0-1---3-3-3-3-5----|
--0----0-1---8-8-8-8-7-7-7-7-|--0----0-1-----------|--0----0-1---1-1-1-1-3----|
--0----0-1---8-8-8-8-7-7-7-7-|--0----0-1-----------|--0----0-1----------------|


                                                                  
---------------------|---------------------|---------------------|
---------------------|---------------------|---------------------|
---------------------|-------8/7-----------|---------------------|
--7----8-5-----------|--7----x-x-----------|--7----8-5-----------|
--5----6-3-----------|--5----6/5-----------|--5----6-3-----------|
---------------------|---------------------|---------------------|


                                                                  
---------------------|---------------------|---------------------|
---------------------|---------------------|---------------------|
-------8/7-----------|---------------------|-------8/7-----------|
--7----x-x-----------|--7----8-5-----------|--7----x-x-----------|
--5----6/5-----------|--5----6-3-----------|--5----6/5-----------|
---------------------|---------------------|---------------------|


                                                                
---------------------|---------------------|-------------------|
---------------------|---------------------|-------------------|
---------------------|-------8/7-----------|-------------------|
--7----8-5-----------|--7----x-x-----------|--0----------------|
--5----6-3-----------|--5----6/5-----------|--0----------------|
---------------------|---------------------|--0----------------|


                                                               
--------------------|-------------------|---------------------|
--------------------|-------------------|---------------------|
--------------------|-------------------|---------------------|
--8--------5--------|--0----------------|--8--------10--------|
--8--------5--------|--0----------------|--8--------10--------|
--8--------5--------|--0----------------|--8--------10--------|


                                        
---------------------------------------|
---------------------------------------|
---------------------------------------|
---------------------------------------|
--12-----10-------------12---13---12---|
-----8-8----8-8-8-8-8-8----8----8----8-|


                                                                         
--------------------------------------------------|---------------------|
--------------------------------------------------|---------------------|
--------------------------------------------------|---------------------|
--------------------------------------------------|--0----0-1-----------|
--12-------10-------------13-12-10----12-10-------|--0----0-1-----------|
-----10-10----10-10-10-10----------13-------13-12-|--0----0-1-----------|


                                                                               
-----------------------------|---------------------|--------------------------|
-----------------------------|---------------------|--------------------------|
-----------------------------|---------------------|-------------3-3-3-3-5----|
--0----0-1---8-8-8-8-7-7-7-7-|--0----0-1-----------|--0----0-1---3-3-3-3-5----|
--0----0-1---8-8-8-8-7-7-7-7-|--0----0-1-----------|--0----0-1---1-1-1-1-3----|
--0----0-1---8-8-8-8-7-7-7-7-|--0----0-1-----------|--0----0-1----------------|


                                                                          
---------------------|-----------------------------|---------------------|
---------------------|-----------------------------|---------------------|
---------------------|-----------------------------|---------------------|
--0----0-1-----------|--0----0-1---8-8-8-8-7-7-7-7-|--0----0-1-----------|
--0----0-1-----------|--0----0-1---8-8-8-8-7-7-7-7-|--0----0-1-----------|
--0----0-1-----------|--0----0-1---8-8-8-8-7-7-7-7-|--0----0-1-----------|


                                                                  
--------------------------|-------------------|------------------|
--------------------------|-------------------|------------------|
-------------3-3-3-3-5----|-------------------|------------------|
--0----0-1---3-3-3-3-5----|--0----------------|------------------|
--0----0-1---1-1-1-1-3----|--0----------------|------------------|
--0----0-1----------------|--0----------------|------------------|


                                                                     
----------------------|-----------------------|---------------------|
----------------------|-----------------------|---------------------|
--15--------14--------|--12--------11----8----|---------------------|
--x---------x---------|--x---------x-----x----|--7----8-5-----------|
--13--------12--------|--10--------9-----6----|--5----6-3-----------|
----------------------|-----------------------|---------------------|


                                                                  
---------------------|---------------------|---------------------|
---------------------|---------------------|---------------------|
-------8/7-----------|---------------------|-------8/7-----------|
--7----x-x-----------|--7----8-5-----------|--7----x-x-----------|
--5----6/5-----------|--5----6-3-----------|--5----6/5-----------|
---------------------|---------------------|---------------------|


                                                             
-------------------|--------------------|-------------------|
-------------------|--------------------|-------------------|
-------------------|--------------------|-------------------|
--0----------------|--8--------5--------|--0----------------|
--0----------------|--8--------5--------|--0----------------|
--0----------------|--8--------5--------|--0----------------|


                                                              
---------------------|---------------------------------------|
---------------------|---------------------------------------|
---------------------|---------------------------------------|
--8--------10--------|---------------------------------------|
--8--------10--------|--12-----10-------------12---13---12---|
--8--------10--------|-----8-8----8-8-8-8-8-8----8----8----8-|


                                                                         
--------------------------------------------------|---------------------|
--------------------------------------------------|---------------------|
--------------------------------------------------|---------------------|
--------------------------------------------------|--0----0-1-----------|
--12-------10-------------13-12-10----12-10-------|--0----0-1-----------|
-----10-10----10-10-10-10----------13-------13-12-|--0----0-1-----------|


                                                                               
-----------------------------|---------------------|--------------------------|
-----------------------------|---------------------|--------------------------|
-----------------------------|---------------------|-------------3-3-3-3-5----|
--0----0-1---8-8-8-8-7-7-7-7-|--0----0-1-----------|--0----0-1---3-3-3-3-5----|
--0----0-1---8-8-8-8-7-7-7-7-|--0----0-1-----------|--0----0-1---1-1-1-1-3----|
--0----0-1---8-8-8-8-7-7-7-7-|--0----0-1-----------|--0----0-1----------------|


                                                                          
---------------------|-----------------------------|---------------------|
---------------------|-----------------------------|---------------------|
---------------------|-----------------------------|---------------------|
--0----0-1-----------|--0----0-1---8-8-8-8-7-7-7-7-|--0----0-1-----------|
--0----0-1-----------|--0----0-1---8-8-8-8-7-7-7-7-|--0----0-1-----------|
--0----0-1-----------|--0----0-1---8-8-8-8-7-7-7-7-|--0----0-1-----------|


                                                                  
--------------------------|-------------------|------------------|
--------------------------|-------------------|------------------|
-------------3-3-3-3-5----|--7----------------|------------------|
--0----0-1---3-3-3-3-5----|--x----------------|------------------|
--0----0-1---1-1-1-1-3----|--5----------------|------------------|
--0----0-1----------------|-------------------|------------------|


                                                             
------------------|-------------------|---------------------|
------------------|-------------------|---------------------|
------------------|--7----------------|--9--------10--------|
------------------|--x----------------|--x--------x---------|
------------------|--5----------------|--7--------8---------|
------------------|-------------------|---------------------|


                                                              
-------------------|---------------------|-------------------|
-------------------|---------------------|-------------------|
--3----------------|--10--------9--------|--7----------------|
--x----------------|--x---------x--------|--x----------------|
--1----------------|--8---------7--------|--5----------------|
-------------------|---------------------|-------------------|


                                                                
---------------------|-------------------|---------------------|
---------------------|-------------------|---------------------|
--9--------10--------|--3----------------|--10--------9--------|
--x--------x---------|--x----------------|--x---------x--------|
--7--------8---------|--1----------------|--8---------7--------|
---------------------|-------------------|---------------------|


                                                                             
-------------------|------------------|------------------|------------------|
-------------------|------------------|------------------|------------------|
-------------------|------------------|------------------|------------------|
--0----------------|------------------|------------------|------------------|
--0----------------|------------------|------------------|------------------|
--0----------------|------------------|------------------|------------------|


                                                                    
----------------------|---------------------|----------------------|
----------------------|---------------------|----------------------|
----------------------|---------------------|----------------------|
----------------------|---------------------|----------------------|
----------------------|---------------------|----------------------|
--0--0--0--0----------|--0--0--0------------|--0--0--0--0----------|


                                                                    
----------------------|----------------------|---------------------|
----------------------|----------------------|---------------------|
----------------------|----------------------|---------------------|
----------------------|----------------------|---------------------|
----------------------|--0--0--0--0----------|--0--0--0------------|
--0--0------0--0------|--0--0--0--0----------|--0--0--0------------|


                                                                     
----------------------|----------------------|----------------------|
----------------------|----------------------|----------------------|
----------------------|----------------------|----------------------|
----------------------|----------------------|----------------------|
--0--0--0--0----------|--0--0------0--0------|--0--0--0--0----------|
--0--0--0--0----------|--0--0------0--0------|--0--0--0--0----------|


                                                                    
---------------------|----------------------|----------------------|
---------------------|----------------------|----------------------|
---------------------|----------------------|----------------------|
---------------------|----------------------|----------------------|
--0--0--0------------|--0--0--0--0----------|--0--0------0--0------|
--0--0--0------------|--0--0--0--0----------|--0--0------0--0------|


                                                                    
----------------------|---------------------|----------------------|
----------------------|---------------------|----------------------|
----------------------|---------------------|----------------------|
----------------------|---------------------|----------------------|
--0--0--0--0----------|--0--0--0------------|--0--0--0--0----------|
--0--0--0--0----------|--0--0--0------------|--0--0--0--0----------|


                                                                    
----------------------|----------------------|---------------------|
----------------------|----------------------|---------------------|
----------------------|----------------------|---------------------|
----------------------|----------------------|---------------------|
--0--0------0--0------|--0--0--0--0----------|--0--0--0------------|
--0--0------0--0------|--0--0--0--0----------|--0--0--0------------|


                                                                  
----------------------|----------------------|-------------------|
----------------------|----------------------|-------------------|
----------------------|----------------------|--7----------------|
----------------------|----------------------|--x----------------|
--0--0--0--0----------|--0--0------0--0------|--5----------------|
--0--0--0--0----------|--0--0------0--0------|-------------------|


                                                                               
------------------|-------------------|------------------|--------------------|
------------------|-------------------|------------------|--------------------|
------------------|--9----------------|------------------|--10----------------|
------------------|--x----------------|------------------|--x-----------------|
------------------|--7----------------|------------------|--8-----------------|
------------------|-------------------|------------------|--------------------|


                                                             
------------------|--------------------|--------------------|
------------------|--------------------|--------------------|
------------------|--12----------------|--14----------------|
------------------|--x-----------------|--x-----------------|
------------------|--10----------------|--12----------------|
------------------|--------------------|--------------------|


                                                                    
----------------------|---------------------|----------------------|
----------------------|---------------------|----------------------|
----------------------|---------------------|----------------------|
----------------------|---------------------|----------------------|
--0--0--0--0----------|--0--0--0------------|--0--0--0--0----------|
--0--0--0--0----------|--0--0--0------------|--0--0--0--0----------|


                                                                    
----------------------|----------------------|---------------------|
----------------------|----------------------|---------------------|
----------------------|----------------------|---------------------|
----------------------|----------------------|---------------------|
--0--0------0--0------|--0--0--0--0----------|--0--0--0------------|
--0--0------0--0------|--0--0--0--0----------|--0--0--0------------|


                                                                  
----------------------|----------------------|-------------------|
----------------------|----------------------|-------------------|
----------------------|----------------------|--7----------------|
----------------------|----------------------|--x----------------|
--0--0--0--0----------|--0--0------0--0------|--5----------------|
--0--0--0--0----------|--0--0------0--0------|-------------------|


                                                                               
------------------|-------------------|------------------|--------------------|
------------------|-------------------|------------------|--------------------|
------------------|--9----------------|------------------|--10----------------|
------------------|--x----------------|------------------|--x-----------------|
------------------|--7----------------|------------------|--8-----------------|
------------------|-------------------|------------------|--------------------|


                                                             
------------------|--------------------|--------------------|
------------------|--------------------|--------------------|
------------------|--12----------------|--14----------------|
------------------|--x-----------------|--x-----------------|
------------------|--10----------------|--12----------------|
------------------|--------------------|--------------------|


                                                                              
-------------------|------------------|-------------------|------------------|
-------------------|------------------|-------------------|------------------|
--7----------------|------------------|--9----------------|------------------|
--x----------------|------------------|--x----------------|------------------|
--5----------------|------------------|--7----------------|------------------|
-------------------|------------------|-------------------|------------------|


                                                             
--------------------|------------------|--------------------|
--------------------|------------------|--------------------|
--10----------------|------------------|--12----------------|
--x-----------------|------------------|--x-----------------|
--8-----------------|------------------|--10----------------|
--------------------|------------------|--------------------|


                                                                                
--------------------|-------------------|------------------|-------------------|
--------------------|-------------------|------------------|-------------------|
--14----------------|--7----------------|------------------|--9----------------|
--x-----------------|--x----------------|------------------|--x----------------|
--12----------------|--5----------------|------------------|--7----------------|
--------------------|-------------------|------------------|-------------------|


                                                                                
------------------|--------------------|------------------|--------------------|
------------------|--------------------|------------------|--------------------|
------------------|--10----------------|------------------|--12----------------|
------------------|--x-----------------|------------------|--x-----------------|
------------------|--8-----------------|------------------|--10----------------|
------------------|--------------------|------------------|--------------------|


                                                                                
--------------------|-------------------|------------------|-------------------|
--------------------|-------------------|------------------|-------------------|
--14----------------|--7----------------|------------------|--9----------------|
--x-----------------|--x----------------|------------------|--x----------------|
--12----------------|--5----------------|------------------|--7----------------|
--------------------|-------------------|------------------|-------------------|


                                                                                
------------------|--------------------|------------------|--------------------|
------------------|--------------------|------------------|--------------------|
------------------|--10----------------|------------------|--12----------------|
------------------|--x-----------------|------------------|--x-----------------|
------------------|--8-----------------|------------------|--10----------------|
------------------|--------------------|------------------|--------------------|


                                                            
--------------------|-------------------|------------------|
--------------------|--5----------------|------------------|
--14----------------|--8----------------|------------------|
--x-----------------|-------------------|------------------|
--12----------------|-------------------|------------------|
--------------------|-------------------|------------------|


                                                          
----------------------------|----------------------------|
----------------------------|----------------------------|
----------------------------|----------------------------|
----------------------------|----------------------------|
----------------------------|----------------------------|
--0-0-0-0-0-0-0-0-1--0------|--0-0-0-0-0-0-0-0-1--0------|


                                                          
----------------------------|----------------------------|
----------------------------|----------------------------|
----------------------------|----------------------------|
----------------------------|----------3------------2----|
----------------------------|----------1------------0----|
--0-0-0-0-0-0-0-0-1--0------|--0-0-0-0------0-0-0-0------|


                                                          
----------------------------|----------------------------|
----------------------------|----------------------------|
----------------------------|----------------------------|
----------------------------|----------------------------|
----------------------------|----------------------------|
--0-0-0-0-0-0-0-0-1--0------|--0-0-0-0-0-0-0-0-1--0------|


                                                      
----------------------------|------------------------|
----------------------------|------------------------|
----------------------------|------------------------|
----------------------------|------------------------|
----------------------------|----------1----------3--|
--0-0-0-0-0-0-0-0-1--0------|--0---3------0---5------|


                                                          
----------------------------|----------------------------|
----------------------------|----------------------------|
----------------------------|----------------------------|
----------------------------|----------------------------|
----------------------------|----------------------------|
--0-0-0-0-0-0-0-0-1--0------|--0-0-0-0-0-0-0-0-1--0------|


                                                          
----------------------------|----------------------------|
----------------------------|----------------------------|
----------------------------|----------------------------|
----------------------------|----------3------------2----|
----------------------------|----------1------------0----|
--0-0-0-0-0-0-0-0-1--0------|--0-0-0-0------0-0-0-0------|


                                                          
----------------------------|----------------------------|
----------------------------|----------------------------|
----------------------------|----------------------------|
----------------------------|----------------------------|
----------------------------|----------------------------|
--0-0-0-0-0-0-0-0-1--0------|--0-0-0-0-0-0-0-0-1--0------|


                                                                          
----------------------------|------------------------|-------------------|
----------------------------|------------------------|-------------------|
----------------------------|------------------------|-------------------|
----------------------------|------------------------|--0----------------|
----------------------------|----------1----------3--|--0----------------|
--0-0-0-0-0-0-0-0-1--0------|--0---3------0---5------|--0----------------|


                                                          
------------------|------------------|------------------||
------------------|------------------|------------------||
------------------|------------------|------------------||
------------------|------------------|------------------||
------------------|------------------|------------------||
------------------|------------------|------------------||
thats it.


comments
print report bad tab
2 comments total.
0 reply
Cone 21 wrote on April 18 2006, 05:25 pm

not bad, Guitar World with The Edge on the cover right?

0 reply
I-Dai wrote on October 9 2009, 09:56 am

Have you posted Corey's part yet?

I want to post or [tab]
guest
You may want to rate the tab now too:
select rating
Please do not post tabs as comments. Select "correction" instead!