Oops, an error
Loading. Please wait.

Rain Tab

ver5
ver5
More versions @911Tabs.com
3,052 views 1 this week
1 commentread comment
1 2 3 4 5
worth learning
x 4
Autoscroll
+/-
esc
set tempo
stop
Contributor
Tuning
D A D G B E
Hey! There's an official Ultimate Guitar app which is ideal
for learning songs when you're away from computer. Get the app
WARNING: You are trying to view
                                    content from Ultimate-Guitar.com
                                    in an unauthorized application,
                                    which is prohibited.

                                    Please use an official Ultimate
                                    Guitar Tabs application for iPhone,
                                    iPad or Android to access legitimate
                                    chords, guitar, bass, and drum tabs
                                    from Ultimate-Guitar.com database.

                                    Type "ultimate guitar tabs" in Apple
                                    App Store's or Android Market's
                                    search to find the application.
#----------------------------------PLEASE NOTE---------------------------------#
#This file is the author's own work and represents their interpretation of the #
#song. You may only use this file for private study, scholarship, or research. #
#------------------------------------------------------------------------------#

RAIN
As recorded by Trivium
(From the 2005 Album ASCENDANCY)

Transcribed by Luke Slater (Lukige)
        

Words by Matthew K. Heafy Music by Matthew K. Heafy, Corey K. Beaulieu
Arranged by Matthew K. Heafy

Gtr I (D A D G B E) - 'Matt Heafy'
Gtr II (D A D G B E) - 'Corey Beaulieu'
Gtr III (D A D G B E) - 'Harmony'

 Intro
  Q=200
  D5        EbC5
 4/4
  Gtr I
    PM----|      PM------------------------|
  E E S S E E E  E E   S S E E S S E E S S E
|--------------------|-----------------------|
|--------------------|-----------------------|
|--------------------|-----------------------|
|--------------------|-----------------------|
|-5---------6-3------|-----------------------|
|---0-0-0-0------0-0-|-0-0-0-0-0-0-0-0-0-0-0-|
|
| Gtr II
| h         E q.       W
|--------------------|-----------------------|
|--------------------|-----------------------|
|--------------------|-----------------------|
|-7---------8s5------|-----------------------|
|-5---------6s3------|-----------------------|
|--------------------|-----------------------|


  D5
    PM----|        PM------------------------|
  E E S S E  E  E  E E   S S E E S S E E S S E
|----------------------|-------------------------|
|----------------------|-------------------------|
|-----------12s11------|-------------------------|
|------------x--x------|-------------------------|
|-5---------10s=9------|-------------------------|
|---0-0-0-0--------0-0-|-0-0-0-0-0-0-0-0-0-0-0---|
|
| h          E  q.       W
|----------------------|-------------------------|
|----------------------|-------------------------|
|------------8s=7------|-------------------------|
|-7----------x--x------|-------------------------|
|-5----------6s=5------|-------------------------|
|----------------------|-------------------------|


  D5        EbC5
    PM----|      PM------------------------|
  E E S S E E E  E E   S S E E S S E E S S E
|--------------------|-----------------------|
|--------------------|-----------------------|
|--------------------|-----------------------|
|--------------------|-----------------------|
|-5---------6-3------|-----------------------|
|---0-0-0-0------0-0-|-0-0-0-0-0-0-0-0-0-0-0-|
|
| h         E q.       W
|--------------------|-----------------------|
|--------------------|-----------------------|
|--------------------|-----------------------|
|-7---------8s5------|-----------------------|
|-5---------6s3------|-----------------------|
|--------------------|-----------------------|


  D5
    PM----|        PM|        PM       PM
  E E S S E  E  E  E E   E  E E  E  E  E E E
|----------------------|----------------------|
|----------------------|----------------------|
|-----------12s11------|-8s10---10s=8----7s8--|
|------------x--x------|-x--x----x--x----x-x--|
|-5---------10s=9------|-6s=8----8s=6----5s6--|
|---0-0-0-0--------0-0-|------0--------0------|
|
| h          E  q.       H          H
|----------------------|----------------------|
|----------------------|----------------------|
|------------8s=7------|----------------------|
|-7----------x--x------|----------------------|
|-5----------6s=5------|----------------------|
|----------------------|-----------12\--------|


  N.C.
    PM----|     PM------------------------|
  E E S S E E E E E   S S E E S S E E S S E
|-------------------|-----------------------|
|-------------------|-----------------------|
|-------------------|-----------------------|
|-------------------|-----------------------|
|-5---------6-3-----|-----------------------|
|---0-0-0-0-----0-0-|-0-0-0-0-0-0-0-0-0-0-0-|
|
|   PM----|     PM------------------------|
| E E S S E E E E E   S S E E S S E E S S E
|-------------------|-----------------------|
|-------------------|-----------------------|
|-------------------|-----------------------|
|-------------------|-----------------------|
|-5---------6-3-----|-----------------------|
|---0-0-0-0-----0-0-|-0-0-0-0-0-0-0-0-0-0-0-|


    PM----|       PM------------------------|
  E E S S E  E  E E E   S S E E S S E E S S E
|---------------------|-----------------------|
|---------------------|-----------------------|
|-----------12s11-----|-----------------------|
|------------x--x-----|-----------------------|
|-5---------10s=9-----|-----------------------|
|---0-0-0-0-------0-0-|-0-0-0-0-0-0-0-0-0-0-0-|
|
|   PM----|       PM------------------------|
| E E S S E  E  E E E   S S E E S S E E S S E
|---------------------|-----------------------|
|---------------------|-----------------------|
|------------8s=7-----|-----------------------|
|------------x--x-----|-----------------------|
|-5----------6s=5-----|-----------------------|
|---0-0-0-0-------0-0-|-0-0-0-0-0-0-0-0-0-0-0-|


  N.C.
    PM----|     PM------------------------|
  E E S S E E E E E   S S E E S S E E S S E
|-------------------|-----------------------|
|-------------------|-----------------------|
|-------------------|-----------------------|
|-------------------|-----------------------|
|-5---------6-3-----|-----------------------|
|---0-0-0-0-----0-0-|-0-0-0-0-0-0-0-0-0-0-0-|
|
|   PM----|     PM------------------------|
| E E S S E E E E E   S S E E S S E E S S E
|-------------------|-----------------------|
|-------------------|-----------------------|
|-------------------|-----------------------|
|-------------------|-----------------------|
|-5---------6-3-----|-----------------------|
|---0-0-0-0-----0-0-|-0-0-0-0-0-0-0-0-0-0-0-|


    PM----|       PM|        PM     PM
  E E S S E  E  E E E   E  E E  E E E E E
|---------------------|--------------------|
|---------------------|--------------------|
|-----------12s11-----|-8s10---10s8---7s8--|
|------------x--x-----|-x--x----x-x---x-x--|
|-5---------10s=9-----|-6s=8----8s6---5s6--|
|---0-0-0-0-------0-0-|------0------0------|
|
|   PM----|       PM|        PM     PM
| E E S S E  E  E E E   E  E E  E E E E E
|---------------------|--------------------|
|---------------------|--------------------|
|------------8s=7-----|--------------------|
|------------x--x-----|--------------------|
|-5----------6s=5-----|-6h=8----8p6---5h6--|
|---0-0-0-0-------0-0-|------0------0------|


  Q=100
  D5     Eb5                D5     Eb5   Bb5       A5
 4/4
   Q   S  E.  +Q.    S  S    Q   E     Q       E   Q
|-------------------------|--------------------------------|
|-------------------------|--------------------------------|
|-11--11s12--(12)---11s12-|-14--12----11------12---8-------|
|--x---x--x----------x--x-|--x---x-----x-------x---x-------|
|--9---9s10--(10)----9s10-|-12--10-----9------10---6-------|
|-------------------------|--------------------------------|
|
|  Q   S  E.  +H             Q   S E.     S S  S S S S S S
|-------------------------|--------------------------------|
|-------------------------|--------------------------------|
|-------------------------|--------------------------------|
|-------------------------|--------------------------------|
|--0---0--1---(1)---------|--0---0-1-----/8-8--8-8-7-7-7-7-|
|--0---0--1---(1)---------|--0---0-1-----/8-8--8-8-7-7-7-7-|


  D5         Eb5            D5               EbBb5C5
   Q   S  E.  +Q.    S  S    Q   E     Q      E   Q
|-------------------------|----------------------------|
|-------------------------|----------------------------|
|-11--11s12--(12)---11s12-|-14--12----11-----12---8----|
|--x---x--x----------x--x-|--x---x-----x------x---x----|
|--9---9s10--(10)----9s10-|-12--10-----9-----10---6----|
|-------------------------|----------------------------|
|
|  Q   S  E.  +H             Q   S E.    S S  S S Q
|-------------------------|----------------------------|
|-------------------------|----------------------------|
|-------------------------|----------------------------|
|-------------------------|--------------3-3--3-3-5----|
|--0---0--1---(1)---------|--0---0-1-----1-1--1-1-3----|
|--0---0--1---(1)---------|--0---0-1-------------------|


 Verse
  Q=200
  N.C.
 4/4
    PM-----|     PM------------------------|
  E E S  S E E E E E   S S E E S S E E S S E
|--------------------|-----------------------|
|--------------------|-----------------------|
|--------------------|-----------------------|
|--------------------|-----------------------|
|-5----------6-3-----|-----------------------|
|---0-0--0-0-----0-0-|-0-0-0-0-0-0-0-0-0-0-0-|
|
| q   H.               W
|--------------------|-----------------------|
|--------------------|-----------------------|
|--------------------|-----------------------|
|--------------------|-----------------------|
|-0------------------|-----------------------|
|-0------------------|-----------------------|


    PM----|       PM------------------------|
  E E S S E  E  E E E   S S E E S S E E S S E
|---------------------|-------------------------|
|---------------------|-------------------------|
|-----------12s11-----|-------------------------|
|------------x--x-----|-------------------------|
|-5---------10s=9-----|-------------------------|
|---0-0-0-0-------0-0-|-0-0-0-0-0-0-0-0-0-0-0---|
|
| W                     W
|---------------------|-------------------------|
|---------------------|-------------------------|
|---------------------|-------------------------|
|---------------------|-------------------------|
|---------------------|-------------------------|
|---------------------|-------------------------|


  N.C.
    PM----|     PM------------------------|
  E E S S E E E E E   S S E E S S E E S S E
|-------------------|-----------------------|
|-------------------|-----------------------|
|-------------------|-----------------------|
|-------------------|-----------------------|
|-5---------6-3-----|-----------------------|
|---0-0-0-0-----0-0-|-0-0-0-0-0-0-0-0-0-0-0-|
|
| W                   W
|-------------------|-----------------------|
|-------------------|-----------------------|
|-------------------|-----------------------|
|-------------------|-----------------------|
|-------------------|-----------------------|
|-------------------|-----------------------|


    PM----|       PM|        PM       PM
  E E S S E  E  E E E   E  E E  E  E  E E E
|---------------------|----------------------|
|---------------------|----------------------|
|-----------12s11-----|-8s10---10s=8----7s8--|
|------------x--x-----|-x--x----x--x----x-x--|
|-5---------10s=9-----|-6s=8----8s=6----5s6--|
|---0-0-0-0-------0-0-|------0--------0------|
|
| W                     H          H
|---------------------|----------------------|
|---------------------|----------------------|
|---------------------|----------------------|
|---------------------|----------------------|
|---------------------|----------------------|
|---------------------|-----------12\--------|


  N.C.
    PM----|     PM------------------------|
  E E S S E E E E E   S S E E S S E E S S E
|-------------------|-----------------------|
|-------------------|-----------------------|
|-------------------|-----------------------|
|-------------------|-----------------------|
|-5---------6-3-----|-----------------------|
|---0-0-0-0-----0-0-|-0-0-0-0-0-0-0-0-0-0-0-|
|
|   PM----|     PM------------------------|
| E E S S E E E E E   S S E E S S E E S S E
|-------------------|-----------------------|
|-------------------|-----------------------|
|-------------------|-----------------------|
|-------------------|-----------------------|
|-5---------6-3-----|-----------------------|
|---0-0-0-0-----0-0-|-0-0-0-0-0-0-0-0-0-0-0-|


    PM----|       PM------------------------|
  E E S S E  E  E E E   S S E E S S E E S S E
|---------------------|-----------------------|
|---------------------|-----------------------|
|-----------12s11-----|-----------------------|
|------------x--x-----|-----------------------|
|-5---------10s=9-----|-----------------------|
|---0-0-0-0-------0-0-|-0-0-0-0-0-0-0-0-0-0-0-|
|
|   PM----|       PM------------------------|
| E E S S E  E  E E E   S S E E S S E E S S E
|---------------------|-----------------------|
|---------------------|-----------------------|
|------------8s=7-----|-----------------------|
|------------x--x-----|-----------------------|
|-5----------6s=5-----|-----------------------|
|---0-0-0-0-------0-0-|-0-0-0-0-0-0-0-0-0-0-0-|


  N.C.
    PM----|     PM------------------------|
  E E S S E E E E E   S S E E S S E E S S E
|-------------------|-----------------------|
|-------------------|-----------------------|
|-------------------|-----------------------|
|-------------------|-----------------------|
|-5---------6-3-----|-----------------------|
|---0-0-0-0-----0-0-|-0-0-0-0-0-0-0-0-0-0-0-|
|
|   PM----|     PM------------------------|
| E E S S E E E E E   S S E E S S E E S S E
|-------------------|-----------------------|
|-------------------|-----------------------|
|-------------------|-----------------------|
|-------------------|-----------------------|
|-5---------6-3-----|-----------------------|
|---0-0-0-0-----0-0-|-0-0-0-0-0-0-0-0-0-0-0-|


    PM----|       PM|        PM     PM
  E E S S E  E  E E E   E  E E  E E E E E
|---------------------|--------------------|
|---------------------|--------------------|
|-----------12s11-----|-8s10---10s8---7s8--|
|------------x--x-----|-x--x----x-x---x-x--|
|-5---------10s=9-----|-6s=8----8s6---5s6--|
|---0-0-0-0-------0-0-|------0------0------|
|
|   PM----|       PM|        PM     PM
| E E S S E  E  E E E   E  E E  E E E E E
|---------------------|--------------------|
|---------------------|--------------------|
|------------8s=7-----|--------------------|
|------------x--x-----|--------------------|
|-5----------6s=5-----|-6h=8----8p6---5h6--|
|---0-0-0-0-------0-0-|------0------0------|


 Pre-Chorus
  E5                                    Bb5              G5
    PM|   PM|   PM------|   PM  PM      PM--|   PM|      PM|   PM  PM
  E E E E E E E E    E  E E E E E E E   E E E E E E Q    E E E E E E E E
|-----------------|-------------------|----------------|------------------|
|-----------------|-------------------|----------------|------------------|
|-----------------|-------------------|----------------|------------------|
|-----------------|-------------------|----------------|------------------|
|-5-----3-----5---|-------8---7---5-7-|-------5-----7--|-----8---7---7h8--|
|---0-0---0-0---0-|--0--0---0---0-----|-8-8-8---8-8----|-5-5---5---5------|
|
| W                 +W                  W                W
|-----------------|-------------------|----------------|------------------|
|-----------------|-------------------|----------------|------------------|
|-----------------|-------------------|----------------|------------------|
|-0---------------|-(0)---------------|-8--------------|-5----------------|
|-0---------------|-(0)---------------|-8--------------|-5----------------|
|-0---------------|-(0)---------------|-8--------------|-5----------------|


  D5                                    Bb5              C5
    PM|   PM|   PM------|   PM  PM      PM--|   PM|       PM|   PM  PM
  E E E E E E E E    E  E E E E E E E   E E E E E E Q     E E E E E E E E
|-----------------|-------------------|----------------|-------------------|
|-----------------|-------------------|----------------|-------------------|
|-----------------|-------------------|----------------|-------------------|
|-----------------|-------------------|----------------|-------------------|
|-5-----3-----5---|-------8---7---5-7-|-------5-----7--|------8---7---7h8--|
|---0-0---0-0---0-|--0--0---0---0-----|-8-8-8---8-8----|--5-5---5---5------|
|
| W                 +W                  W                 W
|-----------------|-------------------|----------------|-------------------|
|-----------------|-------------------|----------------|-------------------|
|-----------------|-------------------|----------------|-------------------|
|-0---------------|-(0)---------------|-8--------------|-10----------------|
|-0---------------|-(0)---------------|-8--------------|-10----------------|
|-0---------------|-(0)---------------|-8--------------|-10----------------|


  Bb5
     PM|    PM----------|    PM   PM
   E E E  E E E E E   E E  E E  E E  Q
|-------------------|-------------------|
|-------------------|-------------------|
|-------------------|-------------------|
|-------------------|-------------------|
|-12-----10---------|-----12---13---12--|
|----8-8----8-8-8-8-|-8-8----8----8-----|
|
|    PM|    PM----------|    PM   PM
|  E E E  E E E E E   E E  E E  E E  Q
|-------------------|-------------------|
|-------------------|-------------------|
|-------------------|-------------------|
|-------------------|-------------------|
|-12-----10---------|-----12---13---12--|
|----8-8----8-8-8-8-|-8-8----8----8-----|


  C5
      PM|      PM------|
   E  E  E  E  E  E  E  E    E  E  E  E  E  E  E  E
|-------------------------|--------------------------|
|-------------------------|--------------------------|
|-------------------------|--------------------------|
|-------------------------|--------------------------|
|-12-------10-------------|-13-12-10----12-10--------|
|----10-10----10-10-10-10-|----------13-------13-12--|
|
|     PM|      PM------|
|  E  E  E  E  E  E  E  E    E  E  E  E  E  E  E  E
|-------------------------|--------------------------|
|-------------------------|--------------------------|
|-------------------------|--------------------------|
|-------------------------|--------------------------|
|-12-------10-------------|-13-12-10----12-10--------|
|----10-10----10-10-10-10-|----------13-------13-12--|


   Chorus
    Q=100
    D5         Eb5            D5           Eb5  Bb5  A5
   4/4
     Q   S  E.  +Q.    S  S    Q   E     Q       E   Q
||--------------------------|--------------------------------|
||o-------------------------|--------------------------------|
||--11--11s12--(12)---11s12-|-14--12----11------12---8-------|
||---x---x--x----------x--x-|--x---x-----x-------x---x-------|
||o--9---9s10--(10)----9s10-|-12--10-----9------10---6-------|
||--------------------------|--------------------------------|
|
|    Q   S  E.  +H             Q   S E.     S S  S S S S S S
||--------------------------|--------------------------------|
||o-------------------------|--------------------------------|
||--------------------------|--------------------------------|
||--------------------------|--------------------------------|
||o--0---0--1---(1)---------|--0---0-1-----/8-8--8-8-7-7-7-7-|
||---0---0--1---(1)---------|--0---0-1-----/8-8--8-8-7-7-7-7-|


  D5         Eb5            D5               EbBb5C5
   Q   S  E.  +Q.    S  S    Q   E     Q      E   Q
|-------------------------|-----------------------------||
|-------------------------|----------------------------o||
|-11--11s12--(12)---11s12-|-14--12----11-----12---8-----||
|--x---x--x----------x--x-|--x---x-----x------x---x-----||
|--9---9s10--(10)----9s10-|-12--10-----9-----10---6----o||
|-------------------------|-----------------------------||
|
|  Q   S  E.  +H             Q   S E.    S S  S S Q
|-------------------------|-----------------------------||
|-------------------------|----------------------------o||
|-------------------------|-----------------------------||
|-------------------------|--------------3-3--3-3-5-----||
|--0---0--1---(1)---------|--0---0-1-----1-1--1-1-3----o||
|--0---0--1---(1)---------|--0---0-1--------------------||


 Verse
  Q=200
  E5
 4/4
    PM----|     PM--------------------------|
  E E S S E E E E E    S  S E E S S E E S S E
|-------------------|-------------------------|
|-------------------|-------------------------|
|-------------------|-------------------------|
|-------------------|-------------------------|
|-5---------6-3-----|-------------------------|
|---0-0-0-0-----0-0-|--0--0-0-0-0-0-0-0-0-0-0-|
|
| W                   +W
|-------------------|-------------------------|
|-------------------|-------------------------|
|-------------------|-------------------------|
|-------------------|-------------------------|
|-0-----------------|-(0)---------------------|
|-0-----------------|-(0)---------------------|


      PM----|       PM--------------------------|
   E  E S S E  E  E E E    S  S E E S S E E S S E
|-----------------------|---------------------------|
|-----------------------|---------------------------|
|-------------12s11-----|---------------------------|
|--------------x--x-----|---------------------------|
|--5----------10s=9-----|---------------------------|
|-----0-0-0-0-------0-0-|--0--0-0-0-0-0-0-0-0-0-0---|
|
| +W                      +W
|-----------------------|---------------------------|
|-----------------------|---------------------------|
|-----------------------|---------------------------|
|-----------------------|---------------------------|
|-(0)-------------------|-(0)-----------------------|
|-(0)-------------------|-(0)-----------------------|


  N.C.
      PM-----|         PM--------------------------------|
   E  E  S S  E  E  E  E  E    S S  E  E  S S  E  E  S S  E
|---------------------------|-------------------------------|
|---------------------------|-------------------------------|
|---------------------------|-------------------------------|
|---------------------------|-------------------------------|
|--5-------------6--3-------|-------------------------------|
|-----0--0-0--0--------0--0-|--0-0--0--0--0-0--0--0--0-0--0-|
|
|  E  E  E    E  E  E  E  E    E    E  E  E    E  E  E    E
|---------------------------|-------------------------------|
|---------------------------|-------------------------------|
|-15-15-15---15-15-15-15-15-|-14---14-14-14---14-14-14---14-|
|--x--x--x----x--x--x--x--x-|--x----x--x--x----x--x--x----x-|
|-13-13-13---13-13-13-13-13-|-12---12-12-12---12-12-12---12-|
|---------------------------|-------------------------------|


      PM-----|         PM|           PM     PM
   E  E  S S  E  E  E  E  E    E  E  E  E E E E E
|---------------------------|----------------------|
|---------------------------|----------------------|
|---------------12s11-------|--8s10----10s8---7s8--|
|----------------x--x-------|--x--x-----x-x---x-x--|
|--5------------10s=9-------|--6s=8-----8s6---5s6--|
|-----0--0-0--0--------0--0-|--------0------0------|
|
|  E  E  E    E  E  E  E  E    E  E  E  E E E E E
|---------------------------|----------------------|
|---------------------------|----------------------|
|-12-12-12---12-12-12-12-12-|-11-11-11-11-8-8-8-8--|
|--x--x--x----x--x--x--x--x-|--x--x--x--x-x-x-x-x--|
|-10-10-10---10-10-10-10-10-|--9--9--9--9-6-6-6-6--|
|---------------------------|----------------------|


  N.C.
    PM----|     PM------------------------|
  E E S S E E E E E   S S E E S S E E S S E
|-------------------|-----------------------|
|-------------------|-----------------------|
|-------------------|-----------------------|
|-------------------|-----------------------|
|-5---------6-3-----|-----------------------|
|---0-0-0-0-----0-0-|-0-0-0-0-0-0-0-0-0-0-0-|
|
|   PM----|     PM------------------------|
| E E S S E E E E E   S S E E S S E E S S E
|-------------------|-----------------------|
|-------------------|-----------------------|
|-------------------|-----------------------|
|-------------------|-----------------------|
|-5---------6-3-----|-----------------------|
|---0-0-0-0-----0-0-|-0-0-0-0-0-0-0-0-0-0-0-|


    PM----|       PM------------------------|
  E E S S E  E  E E E   S S E E S S E E S S E
|---------------------|-----------------------|
|---------------------|-----------------------|
|-----------12s11-----|-----------------------|
|------------x--x-----|-----------------------|
|-5---------10s=9-----|-----------------------|
|---0-0-0-0-------0-0-|-0-0-0-0-0-0-0-0-0-0-0-|
|
|   PM----|       PM------------------------|
| E E S S E  E  E E E   S S E E S S E E S S E
|---------------------|-----------------------|
|---------------------|-----------------------|
|------------8s=7-----|-----------------------|
|------------x--x-----|-----------------------|
|-5----------6s=5-----|-----------------------|
|---0-0-0-0-------0-0-|-0-0-0-0-0-0-0-0-0-0-0-|


  N.C.
    PM----|     PM------------------------|
  E E S S E E E E E   S S E E S S E E S S E
|-------------------|-----------------------|
|-------------------|-----------------------|
|-------------------|-----------------------|
|-------------------|-----------------------|
|-5---------6-3-----|-----------------------|
|---0-0-0-0-----0-0-|-0-0-0-0-0-0-0-0-0-0-0-|
|
|   PM----|     PM------------------------|
| E E S S E E E E E   S S E E S S E E S S E
|-------------------|-----------------------|
|-------------------|-----------------------|
|-------------------|-----------------------|
|-------------------|-----------------------|
|-5---------6-3-----|-----------------------|
|---0-0-0-0-----0-0-|-0-0-0-0-0-0-0-0-0-0-0-|


    PM----|       PM------------------------|
  E E S S E  E  E E E   S S E E S S E E S S E
|---------------------|-----------------------|
|---------------------|-----------------------|
|-----------12s11-----|-----------------------|
|------------x--x-----|-----------------------|
|-5---------10s=9-----|-----------------------|
|---0-0-0-0-------0-0-|-0-0-0-0-0-0-0-0-0-0-0-|
|
|   PM----|       PM|         PM      PM
| E E S S E  E  E E E   E   E E E   E E E   E
|---------------------|-----------------------|
|---------------------|-----------------------|
|------------8s=7-----|-----------------------|
|------------x--x-----|-----------------------|
|-5----------6s=5-----|-6h==8---8p==6---5h==6-|
|---0-0-0-0-------0-0-|-------0-------0-------|


 Pre-Chorus
  D5                                    Bb5              G5
    PM|   PM|   PM------|   PM  PM      PM--|   PM|      PM|   PM  PM
  E E E E E E E E    E  E E E E E E E   E E E E E E Q    E E E E E E E E
|-----------------|-------------------|----------------|------------------|
|-----------------|-------------------|----------------|------------------|
|-----------------|-------------------|----------------|------------------|
|-----------------|-------------------|----------------|------------------|
|-5-----3-----5---|-------8---7---5-7-|-------5-----7--|-----8---7---7h8--|
|---0-0---0-0---0-|--0--0---0---0-----|-8-8-8---8-8----|-5-5---5---5------|
|
| W                 +W                  W                W
|-----------------|-------------------|----------------|------------------|
|-----------------|-------------------|----------------|------------------|
|-----------------|-------------------|----------------|------------------|
|-0---------------|-(0)---------------|-8--------------|-5----------------|
|-0---------------|-(0)---------------|-8--------------|-5----------------|
|-0---------------|-(0)---------------|-8--------------|-5----------------|


  D5                                    Bb5              C5
    PM|   PM|   PM------|   PM  PM      PM--|   PM|       PM|   PM  PM
  E E E E E E E E    E  E E E E E E E   E E E E E E Q     E E E E E E E E
|-----------------|-------------------|----------------|-------------------|
|-----------------|-------------------|----------------|-------------------|
|-----------------|-------------------|----------------|-------------------|
|-----------------|-------------------|----------------|-------------------|
|-5-----3-----5---|-------8---7---5-7-|-------5-----7--|------8---7---7h8--|
|---0-0---0-0---0-|--0--0---0---0-----|-8-8-8---8-8----|--5-5---5---5------|
|
| W                 +W                  W                 W
|-----------------|-------------------|----------------|-------------------|
|-----------------|-------------------|----------------|-------------------|
|-----------------|-------------------|----------------|-------------------|
|-0---------------|-(0)---------------|-8--------------|-10----------------|
|-0---------------|-(0)---------------|-8--------------|-10----------------|
|-0---------------|-(0)---------------|-8--------------|-10----------------|


  Bb5
     PM|    PM----------|    PM   PM
   E E E  E E E E E   E E  E E  E E  Q
|-------------------|-------------------|
|-------------------|-------------------|
|-------------------|-------------------|
|-------------------|-------------------|
|-12-----10---------|-----12---13---12--|
|----8-8----8-8-8-8-|-8-8----8----8-----|
|
|    PM|    PM----------|    PM   PM
|  E E E  E E E E E   E E  E E  E E  Q
|-------------------|-------------------|
|-------------------|-------------------|
|-------------------|-------------------|
|-------------------|-------------------|
|-12-----10---------|-----12---13---12--|
|----8-8----8-8-8-8-|-8-8----8----8-----|


  C5
      PM|      PM------|
   E  E  E  E  E  E  E  E    E  E  E  E  E  E  E  E
|-------------------------|--------------------------|
|-------------------------|--------------------------|
|-------------------------|--------------------------|
|-------------------------|--------------------------|
|-12-------10-------------|-13-12-10----12-10--------|
|----10-10----10-10-10-10-|----------13-------13-12--|
|
|     PM|      PM------|
|  E  E  E  E  E  E  E  E    E  E  E  E  E  E  E  E
|-------------------------|--------------------------|
|-------------------------|--------------------------|
|-------------------------|--------------------------|
|-------------------------|--------------------------|
|-12-------10-------------|-13-12-10----12-10--------|
|----10-10----10-10-10-10-|----------13-------13-12--|


   Chorus
    Q=100
    D5         Eb5            D5                EbBb5A5
   4/4
     Q   S  E.  +Q.    S  S    Q   E     Q       E   Q
||--------------------------|--------------------------------|
||o-------------------------|--------------------------------|
||--11--11s12--(12)---11s12-|-14--12----11------12---8-------|
||---x---x--x----------x--x-|--x---x-----x-------x---x-------|
||o--9---9s10--(10)----9s10-|-12--10-----9------10---6-------|
||--------------------------|--------------------------------|
|
|    Q   S  E.  +H             Q   S E.     S S  S S S S S S
||--------------------------|--------------------------------|
||o-------------------------|--------------------------------|
||--------------------------|--------------------------------|
||--------------------------|--------------------------------|
||o--0---0--1---(1)---------|--0---0-1-----/8-8--8-8-7-7-7-7-|
||---0---0--1---(1)---------|--0---0-1-----/8-8--8-8-7-7-7-7-|


  D5         Eb5            D5               EbBb5C5
   Q   S  E.  +Q.    S  S    Q   E     Q      E   Q
|-------------------------|-----------------------------||
|-------------------------|----------------------------o||
|-11--11s12--(12)---11s12-|-14--12----11-----12---8-----||
|--x---x--x----------x--x-|--x---x-----x------x---x-----||
|--9---9s10--(10)----9s10-|-12--10-----9-----10---6----o||
|-------------------------|-----------------------------||
|
|  Q   S  E.  +H             Q   S E.    S S  S S Q
|-------------------------|-----------------------------||
|-------------------------|----------------------------o||
|-------------------------|-----------------------------||
|-------------------------|--------------3-3--3-3-5-----||
|--0---0--1---(1)---------|--0---0-1-----1-1--1-1-3----o||
|--0---0--1---(1)---------|--0---0-1--------------------||


 Interlude
  N.C.
   W           +H     H         H    Q   Q     H     Q   Q
|-----------|--------------||----------------|----------------||
|-----------|--------------||o---------------|---------------o||
|-10--------|-(10)---------||--10----5---3/--|-7----14--12----||
|--x--------|--------------||---x----x---x---|-x-----x---x----||
|--8--------|--(8)---------||o--8----3---1/--|-5----12--10---o||
|-----------|--------------||----------------|----------------||
|
|  W           +H     H         H    Q   Q     H     Q   Q
|-----------|--------------||----------------|----------------||
|-----------|--------------||o---------------|---------------o||
|--7--------|--(7)---------||---7----9--10\--|-3----10---9----||
|--x--------|--------------||---x----x---x---|-x-----x---x----||
|--5--------|--(5)---------||o--5----7---8\--|-1-----8---7---o||
|-----------|--------------||----------------|----------------||


  D5
  Gtr I
  Q   S S  S S E.  S S  S S S    Q    S S  S S S  S S S  S  S S  S
|--------------------8--------|------------------------------------|
|----10---11------11---11---8-|------10---11-----------------------|
|-------7----7------------5---|---------7----7---10-9---12-10------|
|-----------------------------|----------------8------8-------8-12-|
|-----------------------------|------------------------------------|
|-----------------------------|------------------------------------|
|
| Gtr II
| W                             +W
|-----------------------------|------------------------------------|
|-----------------------------|------------------------------------|
|-----------------------------|------------------------------------|
|-----------------------------|------------------------------------|
|-0---------------------------|-(0)--------------------------------|
|-0---------------------------|-(0)--------------------------------|
|
| Gtr III
| Q   S S  S S E.  S S  S S S    Q    S S  S S S  S S S  S  S S  S
|-----------------------------|------------------------------------|
|-----------------------------|------------------------------------|
|--------------------5--------|------------------------------------|
|-----7----8-------8----8---5-|-------7----8-----------------------|
|-------5----5------------3---|---------5----5----8-7---10--8----5-|
|-----------------------------|----------------8------8-------8----|


   Q   S S  S S E.  S  S   S S S   Q   S S  S S  S  S S S  S  S S  S
|----------------------8---------|--------------------------------------|
|-----10---11------11-----11---8-|----10---11---------------------------|
|--------7----7--------------5---|-------7----7----10-9---12-10---------|
|--------------------------------|---------------8------8-------8-12----|
|--------------------------------|--------------------------------------|
|--------------------------------|--------------------------------------|
|
|  H            Q      Q           H             Q         Q
|--------------------------------|--------------------------------------|
|--------------------------------|--------------------------------------|
|--7------------9-----10\--------|-3------------10---------9------------|
|--x------------x------x---------|-x-------------x---------x------------|
|--5------------7------8\--------|-1-------------8---------7------------|
|--------------------------------|--------------------------------------|
|
|  H            Q      Q           H             Q         Q
|--------------------------------|--------------------------------------|
|--------------------------------|--------------------------------------|
|-10------------5------3/--------|-7------------14--------12------------|
|--x------------x------x---------|-x-------------x---------x------------|
|--8------------3------1/--------|-5------------12--------10------------|
|--------------------------------|--------------------------------------|


   Breakdown
    D5
    Q        S S  S S E.      S S  S S S
||------------------------------8--------|
||o---------10---11----------11---11---8-|
||-------------7----7----------------5---|
||---------------------------------------|
||o--------------------------------------|
||---------------------------------------|
|
|   PM----|           PM---|
|   S S S S  Q        S  S S  Q        S
||---------------------------------------|
||o--------------------------------------|
||---------------------------------------|
||---------------------------------------|
||o-0-0-0-0-----------0--0-0-------------|
||--0-0-0-0-----------0--0-0-------------|
|
|   Q        S S  S S E.      S S  S S S
||---------------------------------------|
||o--------------------------------------|
||------------------------------5--------|
||-----------7----8-----------8----8---5-|
||o------------5----5----------------3---|
||---------------------------------------|


  Q        S S  S S S  S S S  S  S S  S
|----------------------------------------||
|---------10---11-----------------------o||
|------------7----7---10-9---12-10-------||
|-------------------8------8-------8-12--||
|---------------------------------------o||
|----------------------------------------||
|
| PM----|           PM|       PM|
| S S S S  Q        S  S E    S  S E
|----------------------------------------||
|---------------------------------------o||
|----------------------------------------||
|----------------------------------------||
|-0-0-0-0-----------0--0------0--0------o||
|-0-0-0-0-----------0--0------0--0-------||
|
| Q        S S  S S S  S S S  S  S S  S
|----------------------------------------||
|---------------------------------------o||
|----------------------------------------||
|----------7----8------------------------||
|------------5----5----8-7---10--8----5-o||
|-------------------8------8-------8-----||


  D5
  Q        S  S  S S E.      S   S   S S S
|--------------------------------8---------|
|---------10----11----------11------11---8-|
|-------------7----7-------------------5---|
|------------------------------------------|
|------------------------------------------|
|------------------------------------------|
|
| PM----------------------------------------
| S S S S +Q         S  S S +S  +Q
|------------------------------------------|
|------------------------------------------|
|------------------------------------------|
|------------------------------------------|
|-0-0-0-0-(0)--------0--0-0-(0)-(0)--------|
|-0-0-0-0-(0)--------0--0-0-(0)-(0)--------|
|
| Q        S  S  S S E.      S   S   S S S
|------------------------------------------|
|------------------------------------------|
|--------------------------------5---------|
|----------7-----8-----------8-------8---5-|
|-------------5----5-------------------3---|
|------------------------------------------|


  Q        S  S  S S S  S  S S  S  S  S  S
|------------------------------------------|
|---------10----11-------------------------|
|-------------7----7---10--9---12-10-------|
|--------------------8-------8--------8-12-|
|------------------------------------------|
|------------------------------------------|
|
|---------------------------------|
| S S S S +Q         S  E.      S  E.
|------------------------------------------|
|------------------------------------------|
|------------------------------------------|
|------------------------------------------|
|-0-0-0-0-(0)--------0--0-------0--0-------|
|-0-0-0-0-(0)--------0--0-------0--0-------|
|
| Q        S  S  S S S  S  S S  S  S  S  S
|------------------------------------------|
|------------------------------------------|
|------------------------------------------|
|----------7-----8-------------------------|
|-------------5----5----8--7---10--8-----5-|
|--------------------8-------8--------8----|


  D5
  Q        S S  S S E.      S S  S S S   Q        S S  S S S  S S S  S  S S  S
|-----------------------------8--------|---------------------------------------|
|---------10---11----------11---11---8-|---------10---11-----------------------|
|------------7----7----------------5---|------------7----7---10-9---12-10------|
|--------------------------------------|-------------------8------8-------8-12-|
|--------------------------------------|---------------------------------------|
|--------------------------------------|---------------------------------------|
|
| PM----|           PM---|               PM----|           PM|       PM|
| S S S S  Q        S  S S  Q        S   S S S S  Q        S  S E    S  S E
|--------------------------------------|---------------------------------------|
|--------------------------------------|---------------------------------------|
|--------------------------------------|---------------------------------------|
|--------------------------------------|---------------------------------------|
|-0-0-0-0-----------0--0-0-------------|-0-0-0-0-----------0--0------0--0------|
|-0-0-0-0-----------0--0-0-------------|-0-0-0-0-----------0--0------0--0------|
|
| Q        S S  S S E.      S S  S S S   Q        S S  S S S  S S S  S  S S  S
|--------------------------------------|---------------------------------------|
|--------------------------------------|---------------------------------------|
|-----------------------------5--------|---------------------------------------|
|----------7----8-----------8----8---5-|----------7----8-----------------------|
|------------5----5----------------3---|------------5----5----8-7---10--8----5-|
|--------------------------------------|-------------------8------8-------8----|


 Interlude
  N.C.
  Gtr I
  W          W           W
|----------|----------|-----------|
|----------|----------|-----------|
|-3--------|-5--------|--7--------|
|-x--------|-x--------|--x--------|
|-1--------|-3--------|--5--------|
|----------|----------|-----------|
|
| Gtr II
| W          W           W
|----------|----------|-----------|
|----------|----------|-----------|
|-7--------|-9--------|-10--------|
|-x--------|-x--------|--x--------|
|-5--------|-7--------|--8--------|
|----------|----------|-----------|


   S  S  S  S  S  S  S  S  S  S  S  S  S  S  S  S
|-------------------------------------------------|
|-------------------------------------------------|
|--9--9--9--9--9--9--9--9-10-10-10-10-10-10-10-10-|
|--x--x--x--x--x--x--x--x--x--x--x--x--x--x--x--x-|
|--7--7--7--7--7--7--7--7--8--8--8--8--8--8--8--8-|
|-------------------------------------------------|
|
|  S  S  S  S  S  S  S  S  S  S  S  S  S  S  S  S
|-------------------------------------------------|
|-------------------------------------------------|
|-12-12-12-12-12-12-12-12-14-14-14-14-14-14-14-14-|
|--x--x--x--x--x--x--x--x--x--x--x--x--x--x--x--x-|
|-10-10-10-10-10-10-10-10-12-12-12-12-12-12-12-12-|
|-------------------------------------------------|


   Breakdown
    D5
    Gtr I
    Q        S S  S S E.      S S  S S S
||------------------------------8--------|
||o---------10---11----------11---11---8-|
||-------------7----7----------------5---|
||---------------------------------------|
||o--------------------------------------|
||---------------------------------------|
|
|   Gtr II
|   PM----|           PM---|
|   S S S S  Q        S  S S  Q        S
||---------------------------------------|
||o--------------------------------------|
||---------------------------------------|
||---------------------------------------|
||o-0-0-0-0-----------0--0-0-------------|
||--0-0-0-0-----------0--0-0-------------|
|
|   Gtr III
|   Q        S S  S S E.      S S  S S S
||---------------------------------------|
||o--------------------------------------|
||------------------------------5--------|
||-----------7----8-----------8----8---5-|
||o------------5----5----------------3---|
||---------------------------------------|


  Q        S S  S S S  S S S  S  S S  S
|----------------------------------------||
|---------10---11-----------------------o||
|------------7----7---10-9---12-10-------||
|-------------------8------8-------8-12--||
|---------------------------------------o||
|----------------------------------------||
|
| PM----|           PM|       PM|
| S S S S  Q        S  S E    S  S E
|----------------------------------------||
|---------------------------------------o||
|----------------------------------------||
|----------------------------------------||
|-0-0-0-0-----------0--0------0--0------o||
|-0-0-0-0-----------0--0------0--0-------||
|
| Q        S S  S S S  S S S  S  S S  S
|----------------------------------------||
|---------------------------------------o||
|----------------------------------------||
|----------7----8------------------------||
|------------5----5----8-7---10--8----5-o||
|-------------------8------8-------8-----||


   Interlude
    N.C.
    Gtr I
    W          W           W
||-----------|----------|-----------|
||o----------|----------|-----------|
||--3--------|-5--------|--7--------|
||--x--------|-x--------|--x--------|
||o-1--------|-3--------|--5--------|
||-----------|----------|-----------|
|
|   Gtr II
|   W          W           W
||-----------|----------|-----------|
||o----------|----------|-----------|
||--7--------|-9--------|-10--------|
||--x--------|-x--------|--x--------|
||o-5--------|-7--------|--8--------|
||-----------|----------|-----------|


   S  S  S  S  S  S  S  S  S  S  S  S  S  S  S  S
|----------------------------------------------------||
|---------------------------------------------------o||
|--9--9--9--9--9--9--9--9-10-10-10-10-10-10-10-10----||
|--x--x--x--x--x--x--x--x--x--x--x--x--x--x--x--x----||
|--7--7--7--7--7--7--7--7--8--8--8--8--8--8--8--8---o||
|----------------------------------------------------||
|
|  S  S  S  S  S  S  S  S  S  S  S  S  S  S  S  S
|----------------------------------------------------||
|---------------------------------------------------o||
|-12-12-12-12-12-12-12-12-14-14-14-14-14-14-14-14----||
|--x--x--x--x--x--x--x--x--x--x--x--x--x--x--x--x----||
|-10-10-10-10-10-10-10-10-12-12-12-12-12-12-12-12---o||
|----------------------------------------------------||


 Guitar Solo
  N.C.
  E.  +E. E H       E.  +E. E Q  Q      Q.   Q.   Q
|-----------------|------------------|---------------|
|-----------------|------------------|---------------|
|-5b7r(5)---------|-5b7r(5)----------|--5---------5--|
|---------7-------|---------7--------|-------7-------|
|-----------8-----|-----------7--8---|---------------|
|-----------------|------------------|---------------|
|
| W                 W                   W
|-----------------|------------------|---------------|
|-----------------|------------------|---------------|
|-7---------------|-9----------------|-10------------|
|-x---------------|-x----------------|--x------------|
|-5---------------|-7----------------|--8------------|
|-----------------|------------------|---------------|


    Q.                 Q.                 Q
|----------------------------------------------------|
|-/13-----------------10-----------------13----------|
|----------------------------------------------------|
|----------------------------------------------------|
|----------------------------------------------------|
|----------------------------------------------------|
|
|   S   S  S  S  S  S  S   S  S  S  S  S  S  S  S  S
|----------------------------------------------------|
|----------------------------------------------------|
|--12--12-12-12-12-12-12--12-14-14-14-14-14-14-14-14-|
|---x---x--x--x--x--x--x---x--x--x--x--x--x--x--x--x-|
|--10--10-10-10-10-10-10--10-12-12-12-12-12-12-12-12-|
|----------------------------------------------------|


  N.C.
  Gtr I
                                                                                 ~~~~~~~~~~~~~~~~
   E     +Q     S  S  Q.      +E     S.  S   S.  S.   S.  S  E     +Q    S  S    Q   Q   Q   Q
|--------------12----12b13---(12)-|-12----------------------------------------|-----------------|
|-13b15-(13)r-----15--------------|-----15------------------------------------|-----------------|
|---------------------------------|--------/15--14----------------------------|-----------------|
|---------------------------------|-----------------/14--15-15b17-(15)r=15-14-|-12--15--14--17--|
|---------------------------------|-------------------------------------------|-----------------|
|---------------------------------|-------------------------------------------|-----------------|
|
| Gtr II
|  W                                 W                                           W
|---------------------------------|-------------------------------------------|-----------------|
|---------------------------------|-------------------------------------------|-----------------|
|--7------------------------------|--9----------------------------------------|-10--------------|
|--x------------------------------|--x----------------------------------------|--x--------------|
|--5------------------------------|--7----------------------------------------|--8--------------|
|---------------------------------|-------------------------------------------|-----------------|
|
| Gtr III
|                                                                                ~~~~~~~~~~~~~~~~
|  W                                 W                                           Q   Q   Q   Q
|---------------------------------|-------------------------------------------|-----------------|
|---------------------------------|-------------------------------------------|-----------------|
|---------------------------------|-------------------------------------------|-10--14--12--15--|
|---------------------------------|-------------------------------------------|-----------------|
|---------------------------------|-------------------------------------------|-----------------|
|---------------------------------|-------------------------------------------|-----------------|


 ~~~~~~~~~~~~~~~~
                           |---3----|  |---3----|  |---3----|  |---3----|
   Q           Q           S  S     S  S  S     S  S  S     S  S  S     S    W
|-------------------------17p15p===13-17p15p===13-------------------------|-------|
|-------------------------------------------------17p15p===13-17p15p===13-|--8----|
|-------------------------------------------------------------------------|-11----|
|-15----------19----------------------------------------------------------|-------|
|-------------------------------------------------------------------------|-------|
|-------------------------------------------------------------------------|-------|
|
|  S  S  S  S  S  S  S  S  S     S     S     S     S     S     S     S       W
|-------------------------------------------------------------------------|-------|
|-------------------------------------------------------------------------|--5----|
|-12-12-12-12-12-12-12-12-14----14----14----14----14----14----14----14----|--8----|
|--x--x--x--x--x--x--x--x--x-----x-----x-----x-----x-----x-----x-----x----|-------|
|-10-10-10-10-10-10-10-10-12----12----12----12----12----12----12----12----|-------|
|-------------------------------------------------------------------------|-------|
|
|~~~~~~~~~~~~~~~~
|  Q           Q           H                                                 W
|-------------------------------------------------------------------------|-------|
|-------------------------------------------------------------------------|-------|
|-14----------17----------------------------------------------------------|-------|
|-------------------------------------------------------------------------|-------|
|-------------------------------------------------------------------------|-------|
|-------------------------------------------------------------------------|-------|


 Outro
  Gtr I
  PM----------------|   PM----------------|
  T T T T T T T T S S E T T T T T T T T S S E
|---------------------------------------------|
|---------------------------------------------|
|---------------------------------------------|
|---------------------------------------------|
|---------------------------------------------|
|-0-0-0-0-0-0-0-0-1-0---0-0-0-0-0-0-0-0-1-0---|
|
| Gtr II
| PM----------------|   PM----------------|
| T T T T T T T T S S E T T T T T T T T S S E
|---------------------------------------------|
|---------------------------------------------|
|---------------------------------------------|
|---------------------------------------------|
|---------------------------------------------|
|-0-0-0-0-0-0-0-0-1-0---0-0-0-0-0-0-0-0-1-0---|


                                Bb5         A5
  PM----------------|   PM--|     PM----|
  T T T T T T T T S S E S   S   S S S   S   S S
|-----------------------------------------------|
|-----------------------------------------------|
|---------------------------------------------5-|
|-------------------------------8-----------8---|
|-----------------------5---6-----6-5---6-------|
|-0-0-0-0-0-0-0-0-1-0---------------------------|
|
| PM----------------|   PM----|     PM----|
| T T T T T T T T S S E T T T T E   T T T T E
|-----------------------------------------------|
|-----------------------------------------------|
|-----------------------------------------------|
|-------------------------------3-----------2---|
|-------------------------------1-----------0---|
|-0-0-0-0-0-0-0-0-1-0---0-0-0-0-----0-0-0-0-----|


  N.C.
  PM----------------|   PM----------------|
  T T T T T T T T S S E T T T T T T T T S S E
|---------------------------------------------|
|---------------------------------------------|
|---------------------------------------------|
|---------------------------------------------|
|---------------------------------------------|
|-0-0-0-0-0-0-0-0-1-0---0-0-0-0-0-0-0-0-1-0---|
|
| PM--------------------------------------|
| T T T T T T T T S S E T T T T T T T T S S E
|---------------------------------------------|
|---------------------------------------------|
|---------------------------------------------|
|---------------------------------------------|
|---------------------------------------------|
|-0-0-0-0-0-0-0-0-1-0---0-0-0-0-0-0-0-0-1-0---|


  PM----------------|   PM-|    PM-|
  T T T T T T T T S S E S. S. S S. S. S
|----------------------------------------|
|----------------------------------------|
|----------------------------------------|
|----------------------------------------|
|-----------------------------1-------3--|
|-0-0-0-0-0-0-0-0-1-0---0--3----0--5-----|
|
| PM----------------|   PM-|    PM-|
| T T T T T T T T S S E S. S. S S. S. S
|----------------------------------------|
|----------------------------------------|
|----------------------------------------|
|----------------------------------------|
|-----------------------------1-------3--|
|-0-0-0-0-0-0-0-0-1-0---0--3----0--5-----|


  PM-------------------------------------------------
  T T T T T T T T S S  S S T T T T T T T T S S  S S
|---------------------------------------------------|
|---------------------------------------------------|
|---------------------------------------------------|
|---------------------------------------------------|
|---------------------------------------------------|
|-0-0-0-0-0-0-0-0-1-0--0-0-0-0-0-0-0-0-0-0-1-0--0-0-|
|
| PM-------------------------------------------------
| T T T T T T T T S E.     T T T T T T T T S E.
|---------------------------------------------------|
|---------------------------------------------------|
|---------------------------------------------------|
|---------------------------------------------------|
|---------------------------------------------------|
|-0-0-0-0-0-0-0-0-1-0------0-0-0-0-0-0-0-0-1-0------|


                                   Bb5         A5
 ------------------------------|     PM----|
  T T T T T T T T S S  S S S   S   S S S   S   S S
|---------------------------------------------------|
|---------------------------------------------------|
|------------------------------------------------5--|
|----------------------------------8-----------8----|
|--------------------------5---6-----6-5---6--------|
|-0-0-0-0-0-0-0-0-1-0--0-0--------------------------|
|
|--------------------------------|     PM----|
| T T T T T T T T S E.     T T T T E   T T T T E
|---------------------------------------------------|
|---------------------------------------------------|
|---------------------------------------------------|
|----------------------------------3-----------2----|
|----------------------------------1-----------0----|
|-0-0-0-0-0-0-0-0-1-0------0-0-0-0-----0-0-0-0------|


  N.C.
  PM-------------------------------------------------
  T T T T T T T T S S  S S T T T T T T T T S S  S S
|---------------------------------------------------|
|---------------------------------------------------|
|---------------------------------------------------|
|---------------------------------------------------|
|---------------------------------------------------|
|-0-0-0-0-0-0-0-0-1-0--0-0-0-0-0-0-0-0-0-0-1-0--0-0-|
|
| PM-------------------------------------------------
| T T T T T T T T S E.     T T T T T T T T S E.
|---------------------------------------------------|
|---------------------------------------------------|
|---------------------------------------------------|
|---------------------------------------------------|
|---------------------------------------------------|
|-0-0-0-0-0-0-0-0-1-0------0-0-0-0-0-0-0-0-1-0------|


 -----------------------------|    PM-|
  T T T T T T T T S S  S S S. S. S S. S. S
|------------------------------------------|
|------------------------------------------|
|------------------------------------------|
|------------------------------------------|
|--------------------------------1-------3-|
|-0-0-0-0-0-0-0-0-1-0--0-0-0--3----0--5----|
|
|-----------------------------|    PM-|
| T T T T T T T T S E.     S. S. S S. S. S
|------------------------------------------|
|------------------------------------------|
|------------------------------------------|
|------------------------------------------|
|--------------------------------1-------3-|
|-0-0-0-0-0-0-0-0-1-0------0--3----0--5----|


  D5
  Gtrs I, II
  W          +W
|----------|--------*|
|----------|--------*|
|----------|--------*|
|----------|--------*|
|-0--------|-(0)----*|
|-0--------|-(0)----*|



Duration Legend
---------------
W - whole; H - half; Q - quarter; E - 8th; S - 16th; T - 32nd; X - 64th; a - acciaccatura
+ - note tied to previous; . - note dotted; .. - note double dotted
Uncapitalized letters represent notes that are staccato (1/2 duration)
Irregular groupings are notated above the duration line
Duration letters will always appear directly above the note/fret number it represents the
duration for.  Duration letters with no fret number below them represent rests.  Multi-
bar rests are notated in the form Wxn, where n is the number of bars to rest for.  Low
melody durations appear below the staff

Tablature Legend
----------------
 h   - hammer-on
 p   - pull-off
 b   - bend
 pb  - pre-bend
 r   - bend release (if no number after the r, then release immediately)
 /\  - slide into or out of (from/to "nowhere")
 s   - legato slide
 S   - shift slide
 - natural harmonic
[n]  - artificial harmonic
n(n) - tapped harmonic
 ~   - vibrato
 tr  - trill
 T   - tap
 TP  - trem. picking
 PM  - palm muting
\n/  - tremolo bar dip; n = amount to dip
 \n  - tremolo bar down
 n/  - tremolo bar up
/n\  - tremolo bar inverted dip
 =   - hold bend; also acts as connecting device for hammers/pulls
 <> - volume swell (louder/softer)
 x   - on rhythm slash represents muted slash
 o   - on rhythm slash represents single note slash

Misc Legend
-----------
 |  - bar
||  - double bar
||o - repeat start
o|| - repeat end
*|  - double bar (ending)
 :  - bar (freetime)
 $  - Segno
 &  - Coda
Tempo markers -  = BPM(8/16=s8/s16), where s8 = swing 8ths, s16 = swing 16ths

comments
print report bad tab
1 comment total.
0 reply
Greged wrote on January 1 2009, 03:47 pm

Great job! Finally a Rain tab that is correct, organized, and has rhythms. Thank you.

I want to post or [tab]
guest
You may want to rate the tab now too:
select rating
Please do not post tabs as comments. Select "correction" instead!