Oops, an error
Loading. Please wait.

Requiem Tab

ver2
ver2

Intro

Whole song

More versions @911Tabs.com
1,391 views 3 this week
3 commentsread comments
1 2 3 4 5
not so good
x 6
Autoscroll
+/-
esc
set tempo
stop
Contributor
Hey! There's an official Ultimate Guitar app which is ideal
for learning songs when you're away from computer. Get the app
WARNING: You are trying to view
                                    content from Ultimate-Guitar.com
                                    in an unauthorized application,
                                    which is prohibited.

                                    Please use an official Ultimate
                                    Guitar Tabs application for iPhone,
                                    iPad or Android to access legitimate
                                    chords, guitar, bass, and drum tabs
                                    from Ultimate-Guitar.com database.

                                    Type "ultimate guitar tabs" in Apple
                                    App Store's or Android Market's
                                    search to find the application.
 yeah i already did this but it all sort of screwed up and yeah i got the name 
anyway heres a better version (i hope)

this is mainly a 2 guitar song but ive done most of it with 1


standard tuning

intro
 |----------------------------------------------------------------------------------|
 |----------------------------------------------------------------------------------|
 |----------------------------------------------------------------------------------|
 |----------5----4-------5----4---2--------------5--4--2----------------------------|
 |-----3--------------3-------------2-------------------------3---------------------|
 |------------------------------------0---2--3--5-----------------------------------|

 |--------------------------------------------------------------------------------|
 |--------------------------------------------------------------------------------|
 |------------------------------------------------444-222-000---------------------|
 |---------5----4------5----4--2-------------555-444-222-444----------------------|
 |----3-------------3------------2----------------------------------555-----------|
 |---------------------------------0--2--3--5-------------------------------------|

 |----------------------------------------------------------------------------------|
 |----------------------------------------------------------------------------------|
 |----------------------------------------------------------------------------------|
 |---------5----4-------5----4----2----------------------555-444-222----------------|
 |----3--------------3-----------------------------------------------------------3--|
 |----------------------------------------222-333-555-------------------------------|

 |-----------------------------------------------------------------------------------|
 |-----------------------------------------------------------------------------------|
 |-----------------------------------------------------------444-222-000-------------|
 |--------5----4-------5----4----2----------------------555-444-222-444--------------|
 |----3-------------3-----------------------------------------------------------555--|
 |--------------------------------------222-333--555---------------------------------|

verse1

 |--------------------------------------------------------------------------|
 |--------------------------------------------------------------------------|
 |5----------5----------5---------------------------------------------------|
 |5----------5----------5---------------------------------------------------|
 |3--3--3--3--3--3--3--3--3--3--5--2----------2----------2----------2-------|
 |--------------------------------------------0--0--0--0--0--0--0--0--0--0--|

 |--------------------------------------------------------------------------|
 |--------------------------------------------------------------------------|
 |5----------5----------5---------------------------------------------------|
 |5----------5----------5---------------------------------------------------|
 |3--3--3--3--3--3--3--3--3--3--5--2----------2----------2----------2-------|
 |--------------------------------------------0--0--0--0--0--0--0--0--0--0--|

-|--------------------------------------------------------------------------|
 |--------------------------------------------------------------------------|
 |5----------5----------5---------------------------------------------------|
 |5----------5----------5---------------------------------------------------|
 |3--3--3--3--3--3--3--3--3--3--5--2----------2----------2----------2-------|
 |--------------------------------------------0--0--0--0--0--0--0--0--0--0--|

 |--------------------------------------------------------------------------|
 |--------------------------------------------------------------------------|
 |5----------5----------5---------------------------------------------------|
 |5----------5----------5---------------------------------------------------|
 |3--3--3--3--3--3--3--3--3--3--5--2----------2----------2----------2-------|
 |--------------------------------------------0--0--0--0--0--0--0--0--0--0--|

 |----------------------------------------------------------------------------------|
 |----------------------------------------------------------------------------------|
 |----------------------------------------------------------------------------------|
 |---------5----4-------5----4----2----------------------555-444-222----------------|
 |----3--------------3-----------------------------------------------------------3--|
 |---------------------------------------222-333-555--------------------------------|

 |----------------------------------------------------------------------------------|
 |----------------------------------------------------------------------------------|
 |-----------------------------------------------------------444-222-000------------|
 |--------5----4------5----4----2-----------------------555-444-222-444-------------|
 |----3------------3--------------2--------------------------------------------555--|
 |----------------------------------0--222-333-555----------------------------------|


verse2
 |----------------------------------------------------------------------------|
 |----------------------------------------------------------------------------|
 |--5----------5----------5---------------------------------------------------|
 |--5----------5----------5---------------------------------------------------|
 |--3--3--3--3--3--3--3--3--3--3--5--2----------2----------2----------2-------|
 |----------------------------------------------0--0--0--0--0--0--0--0--0--0--|

 |----------------------------------------------------------------------------|
 |----------------------------------------------------------------------------|
 |--5----------5----------5---------------------------------------------------|
 |--5----------5----------5---------------------------------------------------|
 |--3--3--3--3--3--3--3--3--3--3--5--2----------2----------2----------2-------|
 |----------------------------------------------0--0--0--0--0--0--0--0--0--0--|

 |--------------------------------------------|
 |--------------------------------------------|
 |--------------------------------------------|
 |--------------------------------------------|  3 times
 |--------------------------------------------|
 |-----3--0--0--0--0--0--0--0--0--2--3--5--3--|

 |--------------------------------------------------------------------|
 |--------------------------------------------------------------------|
 |----------------------------------0--2--4-------5-------4--------4--|
 |-5-------5--------5--------5-------------222---222---222-----5--4---|
 |---333----333---333-------------------------------------------------|
 |--------------------------------------------------------------------|

 |--------------------------------------------------------------------|
 |--------------------------------------------------------------------|
 |----------------------------------0--2--4-------5-------4--------4--|
 |-5-------5--------5--------5-------------222---222---222-----5--4---|
 |---333----333---333-------------------------------------------------|
 |--------------------------------------------------------------------|


 |---------------------------------------------------------------------------|
 |---------------------------------------------------------------------------|
 |-----5-------7-------------5-------7----9----------------------------------|
 |-----5-------7-----2------5-------7----9-----------4-----------5-----------|
 |-----3-------5-----2------3-------5----7-----------------------------------|
 |---------------------0-------------------------------------0-0-0----0-0-0--|

 |--------------------------------------------------------------------------------------|
 |--------------------------------------------------------------------------------------|
 |---------4--2--0------4--2--4--5------------------------------------------------------|
 |---2----------------4------------------------------------------------------5---4---5--|
 |---2----------------4-------------------10-------9-----12-----10----5---4---5---------|
 |---0----------------2------------------------888--888---888-------3---2---3-----------|

 |--------------------------------------------------------------------------------------|
 |--------------------------------------------------------------------------------------|
 |---------4--2--0------4--2--4--5------------------------------------------------------|
 |---2----------------4------------------------------------------------------5---4---5--|
 |---2----------------4-------------------10-----9-------12-----10----5---4---5---------|
 |---0----------------2------------------------888--888---888-------3---2---3-----------|

repeat all verse 2 again

 break down
 |-------------------------------------------------------------------------------|
 |-------------------------------------------------------------------------------|
 |-------------------------------------------------------------------------------|
 |-------5-----4-----5-----4----2--------5-----4-----7-----5--4---5--------------|
 |-------------------------------------------------------------------------------|
 |---00---00---00---00---0------00---00---00---00---0--0-------------------------|

               twice
 |-------------------------------------------------------------------------------|
 |-------------------------------------------------------------------------------|
 |----------------------------------------5-5-5-5--7-7-7-7-----------------------|
 |--------5----4-----5-----4---2-----5-5-5-5--7-7-7-7----------------------------|
 |----------------------------------------3-3-3-3--5-5-5-5-----------------------|
 |---00---00---00---00--0--------------------------------------------------------|


 |-------------------------------------------------------------------------------|
 |-------------------------------------------------------------------------------|
 |-------------------------------------------------------------------------------|
 |-------5-----4-----5----4----2-------5-----4-----7-----5---4----5--------------|
 |-------------------------------------------------------------------------------|
 |---00---00---00---00---0-----00---00---00---00---0--0--------------------------|
this is 2 guitars playing at the same time
 |-------------------------------------------------------------------------------|
 |-------------------------------------------------------------------------------|
 |-------------------------------------------------------------------------------|
 |--------9-----7-----9-----7---5-------9------7---10----9---7---9---------------|
 |-------------------------------------------------------------------------------|
 |---00---00---00---00---0------00---00---00---00--0---0-------------------------|


 |-------------------------------------------------------------------------------|
 |-------------------------------------------------------------------------------|
 |---------------------------------------5-5-5-5--7-7-7-7------------------------|
 |--------5----4-----5-----4---2----5-5-5-5--7-7-7-7-----------------------------|
 |---------------------------------------3-3-3-3--5-5-5-5------------------------|
 |---00---00---00---00---0-------------------------------------------------------|
                             and here aswell
 |-------------------------------------------------------------------------------|
 |-------------------------------------------------------------------------------|
 |-------------------------------------------------------------------------------|
 |--------9-----7-----9----7---5-------------------------------------------------|
 |-------------------------------------------------------------------------------|
 |---00---00---00---00--0--------------------------------------------------------|


solo
 |-----------------------------------------------------------------------15b--------|
 |----------------------------17-17-17-17h19h20h22p19-------------------------------|
 |--7/9--11--9--12b-----------------------------------------------------------------|
 |----------------------------------------------------------------------------------|
 |----------------------------------------------------------------------------------|
 |----------------------------------------------------------------------------------|

 |---------------------------------17b--------------------------------------------------|
 |---20-18-17-15------------------20b--18b---17b----------------------------------------|
 |-----------------------17------------------------------------17--14--11--7------------|
 |--------------------------------------------------------------------------------------|
 |--------------------------------------------------------------------------------------|
 |--------------------------------------------------------------------------------------|

 |---19---17---15---17---15---14---15---14------------------19p17p15------------------------|
 |----------------------------------------------------------15---17---------------------17--|
 |------------------------------------------------------------------------------------------|
 |------------------------------------------------------------------------------------------|
 |------------------------------------------------------------------------------------------|
 |------------------------------------------------------------------------------------------|

 |---------------------------15h17h18-22-----------------------------------------|
 |-----------15h17h18------------------------------------------------------------|
 |-------------------------------------------------------------------------------|
 |-------------------------------------------------------------------------------|
 |--5---7-------------------------------------555-777-888-77777------------------|
 |-------------------------------------------------------------------------------|

im not sure about this at all but i gave it my best shot anyway
 |-------------------------------------------------------------------------------|
 |-------------------------------------------------------------------------------|
 |-------------------------------------------------------------------------------|
 |-----------------------------------------------------------15-17-19------------|
 |-12-14-15-14-15-17-15-17-19-15-17-19-------------------------------------------|
 |-------------------------------------------------------------------------------|

 |-------------------------------------------------------------------------------|
 |-------------------------------------------------------------------------------|
 |-------------------------------------------------------------------------------|
 |-22-22-22-21-21-21-19-19-19----------------------------------------------------|
 |---------------------------------------------22-22-22--------------------------|
 |-------------------------------------------------------------------------------|

 |---------------------------------------------------------------------------------|
 |---------------------------------------------------------------------------------|
 |---------------------------------------------------------------------------------|
 |22-22-22-21-21-21-17-17-17-17-19-19-19-21-21-21----------------------------------|
 |---------------------------------------------------------------------------------|
 |---------------------------------------------------------------------------------|

 |----------------------------------------------------|
 |----------------------------------------------------|
 |----------------------------------------------------|
 |22-22-22-21-21-21-17-17-17-17-19-19-19-21-21-21-14--|
 |----------------------------------------------------|
 |----------------------------------------------------|


 |-----------------------------------------------------------|
 |-----------------------------------------------------------|
 |-----------------------------------------------------------|
 |----------2-------5----7----2-------5----7-----------------|
 |----------2-------5----7----2-------5----7-----------------|
 |----------0-------3----5----0-------3----5-----------------|

 |----------------------------------------------------|
 |----------------------------------------------------|
 |----------------------------------------------------|
 |----------------------------------------------2-----|
 |-2-2-2-2-2-2-2-2-2-2-2-2-2-2-2-2--------------------|
 |-0-0-0-0-0-0-0-0-0-0-0-0-0-0-0-0--------------------|

 |-----------------------------------------------------------------------------|
 |-----------------------------------------------------------------------------|
 |----------------------------------5-4---------------------2-0----------------|
 |----------222-333-555----------------5-4-------------------------------------|
 |-------------------------------3--------------------000----------------------|
 |--000--------------------------------333-------------------------------------|

 |-----------------------------------------------------------------------------|
 |-----------------------------------------------------------------------------|
 |----------------------------------5-4---------------------2-0----------------|
 |----------222-333-555----------------5-4-------------------------------------|
 |-------------------------------3--------------------000----------------------|
 |--000--------------------------------333-------------------------------------|

    one part is slightly differant here but i cant be bothered to work it out

 |-----------------------------------------------------------------------------|
 |-----------------------------------------------------------------------------|
 |----------------------------------5-4---------------------2-0----------------|
 |----------222-333-555----------------5-4-------------------------------------|
 |-------------------------------3--------------------000----------------------|
 |--000--------------------------------333-------------------------------------|

 |-----------------------------------------------------------------------------|
 |-----------------------------------------------------------------------------|
 |----------------------------------5-4---------------------2-0----------------|
 |----------222-333-555----------------5-4-------------------------------------|
 |-------------------------------3--------------------000----------------------|
 |--000--------------------------------333-------------------------------------|


verse 2 again


outro
 |------------------------------------------------------------------------------|
 |------------------------------------------------------------------------------|
 |------------------------------------------------------------------------------|
 |----------5----4-------5----4---2--------------5--4--2------------------------|
 |-----3--------------3-------------2-------------------------3-----------------|
 |------------------------------------0---2--3--5-------------------------------|

 |-------------------------------------------------------------------------------|
 |-------------------------------------------------------------------------------|
 |-------------------------------------------------------------------------------|
 |----------5----4-------5----4---2----------------------------------------------|
 |-----3--------------3-------------2--------------------------------------------|
 |------------------------------------0------------------------------------------|


| /  slide up
| \  slide down
| h  hammer-on
| p  pull-off
| ~  vibrato
| +  harmonic
| x  Mute note
===============================================================================
comments
print report bad tab
3 comments total.
0 reply
arsonite wrote on June 5 2006, 12:24 pm

It's all over the place. Jeez!!

0 reply
m1dnight wrote on June 5 2006, 05:51 pm

its alright for a first tab il give it a 3/4 out of 5

0 reply
ibanezeric82 wrote on January 21 2010, 12:32 am

WAAAAY off. see the higher rated versions to get closer (but even those aren't right either).

I want to post or [tab]
guest
You may want to rate the tab now too:
select rating
Please do not post tabs as comments. Select "correction" instead!