Oops, an error
Loading. Please wait.

Requiem Tab

ver3
ver3

Intro

Whole song

More versions @911Tabs.com
3,150 views 1 this week
2 commentsread comments
1 2 3 4 5
accurate
x 3
Autoscroll
+/-
esc
set tempo
stop
Contributor
Difficulty
intermediate
WARNING: You are trying to view
                                    content from Ultimate-Guitar.com
                                    in an unauthorized application,
                                    which is prohibited.

                                    Please use an official Ultimate
                                    Guitar Tabs application for iPhone,
                                    iPad or Android to access legitimate
                                    chords, guitar, bass, and drum tabs
                                    from Ultimate-Guitar.com database.

                                    Type "ultimate guitar tabs" in Apple
                                    App Store's or Android Market's
                                    search to find the application.
Intro (Part 1)
e|-----------------------------------------------|
B|-----------------------------------------------|
G|-----------------------------------------------|
D|--5--5--4^-----5--5--4^------2--------5-4-2-0--|
A|--3------------3--------------2----------------|
E|--------------------------------3-5------------|
                      
e|-------------------------------------------------------|
B|-------------------------------------------------------|
G|-------------------------------------------------------|
D|--5--5--4^-----5--5--4^------2--------5Tr-4Tr-2Tr-0Tr--|
A|--3------------3--------------2------------------------|
E|--------------------------------3-5--------------------|

Intro (Part 2 After Drums Kick In)
e|--------------------------------------------------------------|
B|--------------------------------------------------------------|
G|--------------------------------------------------------------|
D|--5--5--4^-----5--5--4^------2---------------5Tr-4Tr-2Tr-0Tr--|
A|--3------------3----------------------------------------------|
E|--------------------------------2Tr-3Tr-5Tr-------------------|
                 
e|--------------------------------------------------------------|
B|--------------------------------------------------------------|
G|---------------------------------------------5Tr-4Tr-2Tr-4Tr--|
D|--5--5--4^-----5--5--4^------2--------------------------------|
A|--3------------3----------------------------------------------|
E|--------------------------------2Tr-3Tr-5Tr-------------------|
                 
Verse 
e|---------------------------------------------|
B|---------------------------------------------|
G|---------------------------------------------|
D|-5-5-5-5-5-5-5-5-5/7-------------------------|
A|-3-3-3-3-3-3-3-3-3/5-2-2-2-2-2-2-2-2-2-2-2-2-|
E|---------------------0-0-0-0-0-0-0-0-0-0-0-0-| x2
PM   . .   . .   .  .    . .   . .   . . 

e|--------------------------------------------------------------|
B|--------------------------------------------------------------|
G|--------------------------------------------------------------|
D|--5--5--4^-----5--5--4^------2---------------5Tr-4Tr-2Tr-0Tr--|
A|--3------------3----------------------------------------------|
E|--------------------------------2Tr-3Tr-5Tr-------------------|
                 
e|--------------------------------------------------------------|
B|--------------------------------------------------------------|
G|---------------------------------------------5Tr-4Tr-2Tr-4Tr--|
D|--5--5--4^-----5--5--4^------2--------------------------------|
A|--3------------3----------------------------------------------|
E|--------------------------------2Tr-3Tr-5Tr-------------------|

Verse 2
e|---------------------------------------------|
B|---------------------------------------------|
G|---------------------------------------------|
D|-5-5-5-5-5-5-5-5-5/7-------------------------|
A|-3-3-3-3-3-3-3-3-3/5-2-2-2-2-2-2-2-2-2-2-2-2-|
E|---------------------0-0-0-0-0-0-0-0-0-0-0-0-| x2
PM   . .   . .   .  .    . .   . .   . . 

PreChorus Part 1: (Gallop The Strings On The Zeros)
e|-------------------------------------------------|
B|-------------------------------------------------|
G|-------------------------------------------------|
D|---------------12\11/12--------------------------|
A|-5-------------10\9-/10-------5------------------|
E|-3-00000000000----------------3-00000000000—-----|
PM     ...........                    ...........

PreChorus Part 2
e|-----------------------------------------------------|
B|-----------------------------------------------------|
G|-----------------------------------------------------|
D|-5---5---4---7---5---4-----9---10---9---7------------|  
A|---33--33--33--33--33----77--77---77--77-7-10p9p7----|
E|-----------------------------------------------------| x2
PM   ..  ..  ..  ..  ..    ..  ..    .. .. .

PreChrorus Part 3
e|----------|-------------------------|
B|----------|-------------------------|
G|----------|-------------------------|
D|-5----7---|-5----7-9----------------|
A|-3----5-2-|-3----5-7-----9-----10---|
E|--------0-|------------00--0-00--000|
PM                       ..  . ..  ...

Chorus
e|----0~---------------------------------------------|
B|----0~---------------------------------------------|
G|----------0----------------------------------------|
D|-2------4--------------5---4---7---5---------------|  
A|-2------5----------5—----33--33--33--33--5--5—-5---|
E|-0-----------------3---------------------3--2—-3---| x2
PM                          ..  ..  ..  ..  

Verse 3
e|---------------------------------------------|
B|---------------------------------------------|
G|---------------------------------------------|
D|-5-5-5-5-5-5-5-5-5/7-------------------------|
A|-3-3-3-3-3-3-3-3-3/5-2-2-2-2-2-2-2-2-2-2-2-2-|
E|---------------------0-0-0-0-0-0-0-0-0-0-0-0-| x2
PM   . .   . .   .  .    . .   . .   . . 

PreChorus Part 1: (Gallop The Strings On The Zeros)
e|-------------------------------------------------|
B|-------------------------------------------------|
G|-------------------------------------------------|
D|---------------12\11/12--------------------------|
A|-5-------------10\9-/10-------5------------------|
E|-3-00000000000----------------3-00000000000—-----|
PM     ...........                    ...........

PreChorus Part 2
e|-----------------------------------------------------|
B|-----------------------------------------------------|
G|-----------------------------------------------------|
D|-5---5---4---7---5---4-----9---10---9---7------------|  
A|---33--33--33--33--33----77--77---77--77-7-10p9p7----|
E|-----------------------------------------------------| x2
PM   ..  ..  ..  ..  ..    ..  ..    .. .. .

PreChrorus Part 3
e|----------|-------------------------|
B|----------|-------------------------|
G|----------|-------------------------|
D|-5----7---|-5----7-9----------------|
A|-3----5-2-|-3----5-7-----9-----10---|
E|--------0-|------------00--0-00--000|
PM                       ..  . ..  ...

Chorus
e|----0~---------------------------------------------|
B|----0~---------------------------------------------|
G|----------0----------------------------------------|
D|-2------4--------------5---4---7---5---------------|  
A|-2------5----------5—----33--33--33--33--5--5—-5---|
E|-0-----------------3---------------------3--2—-3---| x2
PM                          ..  ..  ..  ..  

Bridge Guitar 2:  (Part 1)
e|-------------------------------------------------------------|
B|-------------------------------------------------------------|
G|-------------------------------------------------------------|
D|-------------------------------------------------------------|
A|----10----9----10----9---7-----10----9----12---10---9---9h10-|
E|-00----00---00----00--0-----00----00---00----0----0---0------|
PM ..    ..   ..    ..  .     ..    ..   ..     .    .   .

e|--------------------------------------------|
B|--------------------------------------------|
G|--------------------------------------------|
D|----------------------------555555-777777---|
A|----10----9----10----9---7--333333-555555---|
E|-00----00---00----00--0---------------------| x2 Of The Entire Bridge
PM ..    ..   ..    ..  .    


Bridge Part 2
e|-------------------------------------------------------------------|
B|-------------------------------------------------------------------|
G|-------------------------------------------------------------------|
D|-------------------------------------------------------------------|
A|----14----12----14----12---10-----14----12----15---14---12---12h14-|
E|-00----00----00----00----00-----00----00----00----0----0---0-------|
PM ..    ..    ..    ..    ..     ..    ..    ..    .    .   .

e|------------------------------------------------|
B|------------------------------------------------|
G|------------------------------------------------|
D|-------------------------------555555-777777----|
A|----14----12----14----12---10--333333-555555----|
E|-00----00---00----00----00----------------------| x2 Of The Entire Bridge
PM ..    ..   ..    ..    ..    

Solo (Its Just What I Hear So It May Not Be Perfect But All Of It Is Done)
|------------------------------------------|
|------------------------------------------|
|-------------15-12-14-15~-----------------|
|---15-14-15~------------------------------|
|------------------------------------------|
|------------------------------------------|

|-------------------12-15-12---------------|
|--15^-15^-15^-15^-----------15-12-15~-----|
|------------------------------------------|
|------------------------------------------|
|------------------------------------------|
|------------------------------------------|

|------------------------------------------|
|------------------------------------------|
|--19-17-15-14~--22-21-19-17---------------|
|---------------------------19-17-15-------|
|------------------------------------------|
|------------------------------------------|

|--19--17--15--17--15--14--15--14----------|
|----------------------------------15--17--|
|------------------------------------------|
|------------------------------------------|
|------------------------------------------|
|------------------------------------------|

|--19p17p15--------------------------------|
|----------19p17p15------------------------|
|-------------------17-19~-----------------|
|------------------------------------------|
|------------------------------------------|
|------------------------------------------|

|---------------------19-21----------------|
|------------15h17h19----------------------|
|---15h17h19-------------------------------|
|------------------------------------------|
|------------------------------------------|
|------------------------------------------|

|---------------------------------------------------------------------|
|---------------------------------------------------------------------|
|---------------------------------------------------------------------|
|---------------------------------------------------------------------|
|---------------------------------------15h17h18-15h17h18-------------|
|--12h14h15-12h14h15--15h17h18-15h17h18-------------------------------|

|----------------------------------------------------------|
|----------------------------------------------------------|
|----------------------------------------------------------|
|--------------------------------------15h17h18-15h17h18---|
|--------------------15h17h18-15h17h18---------------------|
|--15h17h18-15h17h18---------------------------------------|
|--------------------------------------------------------------------|
|--------------------------------------------------------------------|
|--------------------------------------------------------------------|
|--------------------15h17h18-15h17h18-----22Tr-21Tr-19Tr-17Tr-------|
|--15h17h18-15h17h18-------------------------------------------------|
|--------------------------------------------------------------------|

|-----------------------------------------------------|
|-----------------------------------------------------|
|-----------------------------------------------------|
|--22-22-22-21-21-21-19-19-19-21-21-21-22-22-22-------|
|-----------------------------------------------------|
|-----------------------------------------------------|

|---------------------------------------------------------|
|---------------------------------------------------------|
|---------------------------------------------------------|
|--22-22-22-21-21-21-19-19-19-----------------------------|
|-----------------------------19-19-19-17-17-16-16-14~----|
|---------------------------------------------------------|


Backing Solo
e|-------------|----------------|------------|---|
B|-------------|----------------|------------|---|
G|-------------|----------------|------------|---|
D|-------5---7-|----------5-7---|-------5-7--|---|
A|-2-----3---5-|-2--2222--3-5---|-2-----3-5--|-2-|
E|-0-----------|-0--0000--------|-0----------|-0-|
PM                  ....

Post Solo
e|---------------|---------------|-------------------|
B|---------------|---------------|-------------------|
G|---------------|---------------|-------------------|
D|---------------|---------------|-------------------|
A|-2~~--5~~--7~~-|-2~~-5~~-7~~---|-222222222222222-2-|
E|-0~~--3~~--5~~-|-0~~-3~~-5~~---|-000000000000000-0-|
PM                                 ...............

Trem Picking
e|-------------------------------|
B|-------------------------------|
G|-------------------------------|
D|-------------10-9----5-4---7-5-|
A|---7-9-10----------------------|
E|-0---------8-------3-----5-----|

Then Back To...
e|---------------------------------------------|
B|---------------------------------------------|
G|---------------------------------------------|
D|-5-5-5-5-5-5-5-5-5/7-------------------------|
A|-3-3-3-3-3-3-3-3-3/5-2-2-2-2-2-2-2-2-2-2-2-2-|
E|---------------------0-0-0-0-0-0-0-0-0-0-0-0-| x2
PM   . .   . .   .  .    . .   . .   . . 

PreChorus Part 1: (Gallop The Strings On The Zeros)
e|-------------------------------------------------|
B|-------------------------------------------------|
G|-------------------------------------------------|
D|---------------12\11/12--------------------------|
A|-5-------------10\9-/10-------5------------------|
E|-3-00000000000----------------3-00000000000—-----|
PM     ...........                    ...........

PreChorus Part 2
e|-----------------------------------------------------|
B|-----------------------------------------------------|
G|-----------------------------------------------------|
D|-5---5---4---7---5---4-----9---10---9---7------------|  
A|---33--33--33--33--33----77--77---77--77-7-10p9p7----|
E|-----------------------------------------------------| x2
PM   ..  ..  ..  ..  ..    ..  ..    .. .. .

PreChrorus Part 3
e|----------|-------------------------|
B|----------|-------------------------|
G|----------|-------------------------|
D|-5----7---|-5----7-9----------------|
A|-3----5-2-|-3----5-7-----9-----10---|
E|--------0-|------------00--0-00--000|
PM                       ..  . ..  ...

Chorus
e|----0~---------------------------------------------|
B|----0~---------------------------------------------|
G|----------0----------------------------------------|
D|-2------4--------------5---4---7---5---------------|  
A|-2------5----------5—----33--33--33--33--5--5—-5---|
E|-0-----------------3---------------------3--2—-3---| x2
PM                          ..  ..  ..  ..  

e|-----------------------------------------------|
B|-----------------------------------------------|
G|-----------------------------------------------|
D|--5--5--4^-----5--5--4^------2--------5-4-2-0--|
A|--3------------3--------------2----------------|
E|--------------------------------3-5------------|

e|------------------------------------|
B|------------------------------------|
G|------------------------------------|
D|--5--5--4^-----5--5--4^------2------|
A|--3------------3-------------0------|
E|-----------------------------0------|


comments
We did not receive enough feedback on this tab! Please rate:
print report bad tab
1 2 3 4 5
2 comments total.
0 reply
cubspackers4 wrote on June 23 2009, 10:49 am

hey nice tab, the solo might be off but still 5/5

0 reply
ibanezeric82 wrote on January 21 2010, 12:30 am

WAAAAY off. I'd post the correct one, but I didn't write it and I can't find it online. only saved on my computer from 2004.

I want to post or [tab]
guest
You may want to rate the tab now too:
select rating
Please do not post tabs as comments. Select "correction" instead!