Oops, an error
Loading. Please wait.

Shogun Tab

ver1
ver1

Album

Solo

Whole song

More versions @911Tabs.com
5,456 views 18 this week
3 commentsread comments
1 2 3 4 5
worth learning
x 3
Autoscroll
+/-
esc
set tempo
stop
Contributor
Difficulty
advanced
Hey! There's an official Ultimate Guitar app which is ideal
for learning songs when you're away from computer. Get the app
WARNING: You are trying to view
                                    content from Ultimate-Guitar.com
                                    in an unauthorized application,
                                    which is prohibited.

                                    Please use an official Ultimate
                                    Guitar Tabs application for iPhone,
                                    iPad or Android to access legitimate
                                    chords, guitar, bass, and drum tabs
                                    from Ultimate-Guitar.com database.

                                    Type "ultimate guitar tabs" in Apple
                                    App Store's or Android Market's
                                    search to find the application.
Trivium
Shogun (2008)
Tabbed by osiris12

 1. Kirisute Gomen - Alex
 2. Torn Between Schylla and Charybdis - Luke Slater
 3. Down From the Sky - 169290
 4. Into the Mouth of Hell We March - Dan O'Brien
 5. Throes of Perdition - slipknot836
 6. Insurrection - Unregistered
 7. The Calamity - jjhand
 8. He Who Spawned the Furies - slipknot836
 9. Of Prometheus and the Crucifix - Luke Slater
10. Like Callisto to a Star in Heaven - #Black Label
11. Shogun - Dan O'Brien

All songs on the album, with the exception of Insurrection and Like Callisto to a 
Star in Heaven, are played on 7-string guitars in standard tuning (B E A D G B e). 
Insurrection and Like Callisto to a Star in Heaven are played on 6-string guitars 
in standard tuning (E A D G B e).

None of these tabs belong to me in any way, shape, form, fashion or matter. The 
authors are printed directly above in order of the tracklist.

1. Kirisute Gomen

Guitar I (B E A D G B e)
Guitar II (B E A D G B e)

BEWARE - this song is played with a 7 string guitar so some parts you may be unable to 
on a 6 stringed guitar, which most people do.


| /  slide up
| \  slide down
| h  hammer-on
| p  pull-off
| ~  vibrato
| +  harmonic
| PM Palm mute
| b  Bend
| br Bend release
|(?) Natural Harmonic


 Intro (0:00 - 0:16)

Guitar I - Clean
e|--------------------------------------------------------------------------------|
B|--------------------------------------------------------------------------------|
G|--12-11--9--5~---16--14--12--9--8~---12-11--9--17----17--16--17---16--16--14~---|
D|--------------------------------------------------------------------------------|
A|--10--9--7--3~---14--12--10--7--6~---10--9--7--15----15--14--15---14--14--12~---|
E|--------------------------------------------------------------------------------|
B|--------------------------------------------------------------------------------|

Guitar II - Clean
e|--------------------------------------------------------------------------------------------|
B|--------------------------------------------------------------------------------------------|
G|--------------------------------------------------------------------------------------------|
D|--------------------------------------------------------------------------------------------|
A|--------------------------------------------------------------------------------------------|
E|-----------(12)-(12)-(12)-(12)-(12)-(12)-(12)-(12)-(12)-(12)-(12)-(12)-(12)-(12)-(12)-(12)--|
B|--------------------------------------------------------------------------------------------|
  PM          .    .    .    .    .    .    .     .   .    .    .    .    .    .    .    .

 Solo 1 (0:21 - 0:52)

Guitar I - Distortion
e|---------------------------------------------------------------------|
B|---------------------------------------------------------------------|
G|--------------------8--8--8--8h9p8-----------------------------------|
D|--9-9h10p9--------------------------10-9-----------------7--9-9------| x2
A|-----------12-10-9------------------------6--7---10-7-9--------------|
E|---------------------------------------------------------------------|
B|---------------------------------------------------------------------|
Guitar II - Distortion
e|------------------------------------------------------------------------|
B|------------------------------------------------------------------------|
G|------------------------------------------------------------------------|
D|-2----------------------------------------------------------------------|
A|-2----------------4-----------------------6--7---10-7-9---7--9----------|
E|-0----------------2---------------------------------------5--7----------|
B|------------------------------------------4--5----8-5-7-----------------|

Guitar I - Distortion
e|------------------------------------------------------------------------------|
B|----------------------16-16-16-16h17p16---------------------------------------|
G|-16-16h17p16----------------------------17-16------------------14-16-(16)-----|
D|-------------19-17-16-------------------------13-14---17-14-16----------------| x2
A|------------------------------------------------------------------------------|
E|------------------------------------------------------------------------------|
B|------------------------------------------------------------------------------|
Guitar II - Distortion
e|------------------------------------------------------------------------|
B|------------------------------------------------------------------------|
G|------------------------------------------------------------------------|
D|-2----------------------------------------------------------------------|
A|-2------------------4-------------------------6--7----10-7-9----7--9----|
E|-0------------------2-------------------------------------------5--7----|
B|----------------------------------------------4--5-----8-5-7------------|


 "Verse" (0:52 - 1:05)

Guitar I

e|--------------------------------------------------------------------------------|
B|--------------------------------------------------------------------------------|
G|--------------------------------------------------------------------------------|
D|------5-5---4-4---------------------------------5-5---4-4-----------------------|
A|------7-7---6-6---------------------------------7-7---6-6-----------------------|
E|---0------0------0--0-0-0---0--0-0-0--0-0-0---0-----0-------0-3p0-3p0-2p0-2p0---|
B|--------------------------------------------------------------------------------|
       PM   .      .  . . .   .  . . .  . . .
e|----------------------------------------------------------------------------------------------|
B|----------------------------------------------------------------------------------------------|
G|----------------------------------------------------------------------------------------------|
D|------5-5---4-4---------------------------------5-5---4-4-------------------------------------|
A|------7-7---6-6---------------------------------7-7---6-6---2p0-2p0---------3p0-3p0-----------|
E|---0------0------0--0-0-0---0--0-0-0--0-0-0---0-----0---------------3p0-3p0----------2p0-2p0--|
B|----------------------------------------------------------------------------------------------|
       PM   .      .  . . .   .  . . .  . . .

Guitar II

e|--------------------------------------------------------------------------------|
B|--------------------------------------------------------------------------------|
G|--------------------------------------------------------------------------------|
D|------5-5---4-4---------------------------------2-2---1-1-----------------------|
A|------7-7---6-6---------------------------------3-3---2-2-----------------------|
E|---0------0------0--0-0-0---0--0-0-0--0-0-0---0-----0-------0-3p0-3p0-2p0-2p0---|
B|--------------------------------------------------------------------------------|
       PM   .      .  . . .   .  . . .  . . .
e|----------------------------------------------------------------------------------------------|
B|----------------------------------------------------------------------------------------------|
G|----------------------------------------------------------------------------------------------|
D|------5-5---4-4---------------------------------2-2---1-1-------------------------------------|
A|------7-7---6-6---------------------------------3-3---2-2---2p0-2p0---------3p0-3p0-----------|
E|---0------0------0--0-0-0---0--0-0-0--0-0-0---0-----0---------------3p0-3p0----------2p0-2p0--|
B|----------------------------------------------------------------------------------------------|
       PM   .      .  . . .   .  . . .  . . .


Riff 2 (1:05 - 1:14)

e|-----------------------------------------------------------------------------------------------|
B|-----------------------------------------------------------------------------------------------|
G|-----------------------------------------------------------------------------------------------|
D|-----------------------------------------------------------------------------------------------|
A|-----------------------------------------------------------------------------2-2-2-3-3-3-6-6-6-|
E|-----------------------------------------------------5-5-5-7-7-7-8-8-8-------------------------|
B|-5-5-5-5-5-4-4-4-5-5-5-7-7-7-8-8-8-7-7-7-5-5-5-0-0-0-------------------1-1-1-------------------|
PM . . . . . . . . . . . . . . . . . . . . . . . . . .                   . . .


e|----------------------------------------------------------------------------|
B|----------------------------------------------------------------------------|
G|--------------------------------------------------------12-11--9--8~--------|
D|----------------------------------------------------------------------------|
A|--------------------------------------------------------10--9--7--6~--------|
E|----------------------------------------------------------------------------|
B|--5-5-5-5-5-4-4-4-5-5-5-7-7-7-8-8-8-7-7-7-5-5-5-0-0-0-----------------12\---|
 PM . . . . . . . . . . . . . . . . . . . . . . . . . .


 "Verse" (1:14 - 1:37)

Guitar I

e|--------------------------------------------------------------------------------|
B|--------------------------------------------------------------------------------|
G|--------------------------------------------------------------------------------|
D|------5-5---4-4---------------------------------5-5---4-4-----------------------|
A|------7-7---6-6---------------------------------7-7---6-6-----------------------|
E|---0------0------0--0-0-0---0--0-0-0--0-0-0---0-----0-------0-3p0-3p0-2p0-2p0---|
B|--------------------------------------------------------------------------------|
       PM   .      .  . . .   .  . . .  . . .
e|----------------------------------------------------------------------------------------------|
B|----------------------------------------------------------------------------------------------|
G|----------------------------------------------------------------------------------------------|
D|------5-5---4-4---------------------------------5-5---4-4-------------------------------------|
A|------7-7---6-6---------------------------------7-7---6-6---2p0-2p0---------3p0-3p0-----------|
E|---0------0------0--0-0-0---0--0-0-0--0-0-0---0-----0---------------3p0-3p0----------2p0-2p0--|
B|----------------------------------------------------------------------------------------------|
       PM   .      .  . . .   .  . . .  . . .

Guitar II

e|--------------------------------------------------------------------------------|
B|--------------------------------------------------------------------------------|
G|--------------------------------------------------------------------------------|
D|------5-5---4-4---------------------------------2-2---1-1-----------------------|
A|------7-7---6-6---------------------------------3-3---2-2-----------------------|
E|---0------0------0--0-0-0---0--0-0-0--0-0-0---0-----0-------0-3p0-3p0-2p0-2p0---|
B|--------------------------------------------------------------------------------|
       PM   .      .  . . .   .  . . .  . . .
e|----------------------------------------------------------------------------------------------|
B|----------------------------------------------------------------------------------------------|
G|----------------------------------------------------------------------------------------------|
D|------5-5---4-4---------------------------------2-2---1-1-------------------------------------|
A|------7-7---6-6---------------------------------3-3---2-2---2p0-2p0---------3p0-3p0-----------|
E|---0------0------0--0-0-0---0--0-0-0--0-0-0---0-----0---------------3p0-3p0----------2p0-2p0--|
B|----------------------------------------------------------------------------------------------|
       PM   .      .  . . .   .  . . .  . . .


Riff 2 (1:37 - 1:51)


e|-----------------------------------------------------------------------------------------------|
B|-----------------------------------------------------------------------------------------------|
G|-----------------------------------------------------------------------------------------------|
D|-----------------------------------------------------------------------------------------------|
A|-----------------------------------------------------------------------------2-2-2-3-3-3-6-6-6-|
E|-----------------------------------------------------5-5-5-7-7-7-8-8-8-------------------------|
B|-5-5-5-5-5-4-4-4-5-5-5-7-7-7-8-8-8-7-7-7-5-5-5-0-0-0-------------------1-1-1-------------------|
PM . . . . . . . . . . . . . . . . . . . . . . . . . .                   . . .


e|----------------------------------------------------------------------------|
B|----------------------------------------------------------------------------|
G|--------------------------------------------------------12-11--9--8~--------|
D|----------------------------------------------------------------------------|
A|--------------------------------------------------------10--9--7--6~--------|
E|----------------------------------------------------------------------------|
B|--5-5-5-5-5-4-4-4-5-5-5-7-7-7-8-8-8-7-7-7-5-5-5-0-0-0-----------------12\---|
 PM . . . . . . . . . . . . . . . . . . . . . . . . . .

 "Chorus" (1:51 - 2:01)

e|-------------------------------------------------------------------------------|
B|-------------------------------------------------------------------------------|
G|-------------------------------------------------------------------------------|
D|----------------------------------------------7-7-9-9-----10-10-9-9-7-7--------|
A|--------7-7-9-9-5-5-------9-9-10-10-6-6---------------7-7---------------7-7----|
E|-------------------------------------------------------------------------------|
B|--5-5-5-------------7-7-7---------------8-8-8----------------------------------|
 PM . . . . . . . . . . . . . . .  .  . . . . . . . . . . . .  .  . . . . . .

    "i    can   see     in     their      eyes             they've already died"

e|--------------------------------------------------------------------------------------------|
B|--------------------------------------------------------------------------------------------|
G|--------------------------------------------------------------------------------------------|
D|---------------------------------------------------------7-7-7-9-9-9-7-7-7------------------|
A|--9-9---------------10-10----------------12-12-----------------------------10-10-10-9-9-9---|
E|------7-7-------7-7-------7-7--------7-7-------8-8------------------------------------------|
B|----------10-10----------------11-11---------------12-12------------------------------------|
 PM . . . . .  .  . . .  .  . .  .  .  . . .  .  . . .  .  . . . . . . . . . .  .  .  . . .

   "inside,   but    as    for   the     outside      i'll take their fucking heads"


"Verse" (2:01 - 2:11)

Guitar I

e|--------------------------------------------------------------------------------|
B|--------------------------------------------------------------------------------|
G|--------------------------------------------------------------------------------|
D|------5-5---4-4---------------------------------5-5---4-4-----------------------|
A|------7-7---6-6---------------------------------7-7---6-6-----------------------|
E|---0------0------0--0-0-0---0--0-0-0--0-0-0---0-----0-------0-3p0-3p0-2p0-2p0---|
B|--------------------------------------------------------------------------------|
       PM   .      .  . . .   .  . . .  . . .
e|----------------------------------------------------------------------------------------------|
B|----------------------------------------------------------------------------------------------|
G|----------------------------------------------------------------------------------------------|
D|------5-5---4-4---------------------------------5-5---4-4-------------------------------------|
A|------7-7---6-6---------------------------------7-7---6-6---2p0-2p0---------3p0-3p0-----------|
E|---0------0------0--0-0-0---0--0-0-0--0-0-0---0-----0---------------3p0-3p0----------2p0-2p0--|
B|----------------------------------------------------------------------------------------------|
       PM   .      .  . . .   .  . . .  . . .

Guitar II

e|--------------------------------------------------------------------------------|
B|--------------------------------------------------------------------------------|
G|--------------------------------------------------------------------------------|
D|------5-5---4-4---------------------------------2-2---1-1-----------------------|
A|------7-7---6-6---------------------------------3-3---2-2-----------------------|
E|---0------0------0--0-0-0---0--0-0-0--0-0-0---0-----0-------0-3p0-3p0-2p0-2p0---|
B|--------------------------------------------------------------------------------|
       PM   .      .  . . .   .  . . .  . . .
e|----------------------------------------------------------------------------------------------|
B|----------------------------------------------------------------------------------------------|
G|----------------------------------------------------------------------------------------------|
D|------5-5---4-4---------------------------------2-2---1-1-------------------------------------|
A|------7-7---6-6---------------------------------3-3---2-2---2p0-2p0---------3p0-3p0-----------|
E|---0------0------0--0-0-0---0--0-0-0--0-0-0---0-----0---------------3p0-3p0----------2p0-2p0--|
B|----------------------------------------------------------------------------------------------|
       PM   .      .  . . .   .  . . .  . . .


Riff 2 (2:12 - 2:26)


e|-----------------------------------------------------------------------------------------------|
B|-----------------------------------------------------------------------------------------------|
G|-----------------------------------------------------------------------------------------------|
D|-----------------------------------------------------------------------------------------------|
A|-----------------------------------------------------------------------------2-2-2-3-3-3-6-6-6-|
E|-----------------------------------------------------5-5-5-7-7-7-8-8-8-------------------------|
B|-5-5-5-5-5-4-4-4-5-5-5-7-7-7-8-8-8-7-7-7-5-5-5-0-0-0-------------------1-1-1-------------------|
PM . . . . . . . . . . . . . . . . . . . . . . . . . .                   . . .


e|----------------------------------------------------------------------------|
B|----------------------------------------------------------------------------|
G|--------------------------------------------------------12-11--9--8~--------|
D|----------------------------------------------------------------------------|
A|--------------------------------------------------------10--9--7--6~--------|
E|----------------------------------------------------------------------------|
B|--5-5-5-5-5-4-4-4-5-5-5-7-7-7-8-8-8-7-7-7-5-5-5-0-0-0-----------------12\---|
 PM . . . . . . . . . . . . . . . . . . . . . . . . . .

"Chorus" (2:26 - 2:45)



e|-------------------------------------------------------------------------------|
B|-------------------------------------------------------------------------------|
G|-------------------------------------------------------------------------------|
D|----------------------------------------------7-7-9-9-----10-10-9-9-7-7--------|
A|--------7-7-9-9-5-5-------9-9-10-10-6-6---------------7-7---------------7-7----|
E|-------------------------------------------------------------------------------|
B|--5-5-5-------------7-7-7---------------8-8-8----------------------------------|
 PM . . . . . . . . . . . . . . .  .  . . . . . . . . . . . .  .  . . . . . .

    "i    can   see     in     their      eyes             they've already died"

e|--------------------------------------------------------------------------------------------|
B|--------------------------------------------------------------------------------------------|
G|--------------------------------------------------------------------------------------------|
D|---------------------------------------------------------7-7-7-9-9-9-7-7-7------------------|
A|--9-9---------------10-10----------------12-12-----------------------------10-10-10-9-9-9---|
E|------7-7-------7-7-------7-7--------7-7-------8-8------------------------------------------|
B|----------10-10----------------11-11---------------12-12------------------------------------|
 PM . . . . .  .  . . .  .  . .  .  .  . . .  .  . . .  .  . . . . . . . . . .  .  .  . . .

   "inside,   but    as    for   the     outside      i'll take their fucking heads"


"Bridge" (2:45 - 3:16)


e|--------------------------------------------|--------------------------------------------|
B|--------------------------------------------|--------------------------------------------|
G|-12-12-12--9-9-9-9-9--12-12-12--9-9-9-9-12--|--11-11-11--8-8-8-8-8---8---8-9---9-11------|
D|--------------------------------------------|--------------------------------------------|
A|-10-10-10--7-7-7-7-7--10-10-10--7-7-7-7-10--|---9--9--9--6-6-6-6-6---6-0-6-7-0-7-9--0----|
E|--------------------------------------------|--------------------------------------------|
B|--------------------------------------------|--------------------------------------------|
  "i      will             never         be       what    they       want me to"

e|--------------------------------------------|----------------------------------------------|
B|--------------------------------------------|----------------------------------------------|
G|-12-12-12--9-9-9-9-9--12-12-12--9-9-9-9-12--|--11-11-11--8-8-8-8-8-----16----14----11------|
D|--------------------------------------------|----------------------------------------------|
A|-10-10-10--7-7-7-7-7--10-10-10--7-7-7-7-10--|---9--9--9--6-6-6-6-6-----14----12-----9------|
E|--------------------------------------------|----------------------------------------------|
B|--------------------------------------------|----------------------------------------------|
  "i      live       by      my    own              path  in life       no turning"

e|--------------------------------------------|--------------------------------------------|
B|--------------------------------------------|--------------------------------------------|
G|-12-12-12--9-9-9-9-9--12-12-12--9-9-9-9-12--|--11-11-11--8-8-8-8-8---8---8-9---9-11------|
D|--------------------------------------------|--------------------------------------------|
A|-10-10-10--7-7-7-7-7--10-10-10--7-7-7-7-10--|---9--9--9--6-6-6-6-6---6-0-6-7-0-7-9--0----|
E|--------------------------------------------|--------------------------------------------|
B|--------------------------------------------|--------------------------------------------|
  "back    now,      i    won't      be          held      down         forced into a"

e|--------------------------------------------|-------------------------|
B|--------------------------------------------|-------------------------|
G|-12-12-12--9-9-9-9-9--12-12-12--9-9-9-9-12--|--11-11-11--8-8-8-8-8----|
D|--------------------------------------------|-------------------------|
A|-10-10-10--7-7-7-7-7--10-10-10--7-7-7-7-10--|---9--9--9--6-6-6-6-6----|
E|--------------------------------------------|-------------------------|
B|--------------------------------------------|-------------------------|
   "shallow grave     built      upon   their      empty    ways


e|--------------------|---------------------|
B|--------------------|---------------------|
G|--11-----11----11---|11----11----11---9---|
D|--------------------|---------------------|
A|---9-0-0--9-0-0-9-0-|-9-0-0-9-0-0-9-0-7---|
E|--------------------|---------------------|
B|--------------------|---------------------|
 there's no   turning    back~"

"Pre Solo Riff" (3:17 - 3:39)

Guitar II
e|-----------------------------------------------------------------|
B|-----------------------------------------------------------------|
G|-----------------------------------------------------------------|
D|-----------------------------------------------------------------|
A|-----------------------------------------------------------------|
E|--12-0-0-12-0-0-12-0-0-11-0-0-14-0-14-0-14-0-15-0-15-0-15-0-0-0--|
B|-----------------------------------------------------------------|

e|-----------------------------------------------------------------|
B|-----------------------------------------------------------------|
G|-----------------------------------------------------------------|
D|-----------------------------------------------------------------|
A|-----------------------------------------------------------------|
E|--12-0-0-12-0-0-12-0-0-11-0-0--12-0-11-0-8-0-11-0-8-0-7-0-7------|
B|-----------------------------------------------------------------|


e|-----------------------------------------------------------------|
B|-----------------------------------------------------------------|
G|-----------------------------------------------------------------|
D|-----------------------------------------------------------------|
A|-----------------------------------------------------------------|
E|--12-0-0-12-0-0-12-0-0-11-0-0-14-0-14-0-14-0-15-0-15-0-15-0-0-0--|
B|-----------------------------------------------------------------|

e|-----------------------------------------------------------------|
B|-----------------------------------------------------------------|
G|-----------------------------------------------------------------|
D|-----------------------------------------------------------------|
A|-----------------------------------------------------------------|
E|---12-0-0-12-0-0-12-0-0-11-0-12-0-14-0-15-0-14-0-15-0-17~--------|
B|-----------------------------------------------------------------|


Solo (3:39 - 4:39)

Guitar I - wah wah pedal
e|----------------------------------------------------------------------|
B|--17-17-17-17\--17-17-17-17-16-16-17-17-19-19-19-20-20-20-19-19-19~---|
G|----------------------------------------------------------------------|
D|----------------------------------------------------------------------|
A|----------------------------------------------------------------------|
E|----------------------------------------------------------------------|
B|----------------------------------------------------------------------|

e|-20-19-17-------------------------------------------------------------------------------------|
B|----------20-19-17-16-17-19-17-16-------------------------------------------------------------|
G|----------------------------------17-16-14----------------------------------------------------|
D|-------------------------------------------17-16-14-13-14-16-14-13----------------------------|
A|--------------------------------------------------------------------15-14-12------------------|
E|-----------------------------------------------------------------------------15-14-12-11-12~--|
B|----------------------------------------------------------------------------------------------|

e|------------------------------------------------------------------------------------|
B|------------------------------------------------------------------------------------|
G|--------------------------------------14--16h17p16p14----------17p16p14-------------|
D|--14~--16-14-16--17-16h17p16-14-16-17-----------------17p16p14----------17p16p14----|
A|------------------------------------------------------------------------------------|
E|------------------------------------------------------------------------------------|
B|------------------------------------------------------------------------------------|

e|----------------------------------------------17-19-20---|
B|-------------------17-19-20----------17-19-20------------|
G|----------14-16-17----------14-16-17---------------------|
D|-14-16-17------------------------------------------------|
A|---------------------------------------------------------|
E|---------------------------------------------------------|
B|---------------------------------------------------------|

e|--19-19-19-19-19-19-20-19-17-19-19-19-19-19-19-20-19-17--20-19-17-------------------------|
B|------------------------------------------------------------------20-19-17----------------|
G|---------------------------------------------------------------------------20-19-17--16---|
D|------------------------------------------------------------------------------------------|
A|------------------------------------------------------------------------------------------|
E|------------------------------------------------------------------------------------------|
B|------------------------------------------------------------------------------------------|

e|----------------------------------------------------------------|
B|----------------------------------------------------------------|
G|--14-14-14-16-16-14-14-14-16-16-14-14-14-17-17-14-14-14-16-16---|
D|----------------------------------------------------------------|
A|----------------------------------------------------------------|
E|----------------------------------------------------------------|
B|----------------------------------------------------------------|

e|--------------------------------------------------|
B|--------------------------------------------------|
G|--12-12-12-14-14-12-12-12-16-16-12-12-12--14~-----|
D|--------------------------------------------------|
A|--------------------------------------------------|
E|--------------------------------------------------|
B|--------------------------------------------------|

 T  .      .       .       .        .        .        .        .
e|------------------------------------------------------------------------|
B|------------------------------------------------------------------------|
G|-12p11p9-12p11p9-12p11p9-12p11p9--14p12p11-14p12p11-14p12p11-14p12p11---|
D|------------------------------------------------------------------------|
A|------------------------------------------------------------------------|
E|------------------------------------------------------------------------|
B|------------------------------------------------------------------------|

 T .        .        .        .         .        .        .        .
e|----------------------------------------------------------------------------|
B|----------------------------------------------------------------------------|
G|-16p14p12-16p14p12-16p14p12-16p14p12--17p16p14-17p16p14-17p16p14-17p16p14---|
D|----------------------------------------------------------------------------|
A|----------------------------------------------------------------------------|
E|----------------------------------------------------------------------------|
B|----------------------------------------------------------------------------|

 T .        .        .        .         .        .        .         .
e|---------------------------------------------------------------------------24\---|
B|-20p19p17-20p19p17-20p19p17-20p19p17--22p20p19-22p20p19-22p20p19-22p20p19--------|
G|---------------------------------------------------------------------------------|
D|---------------------------------------------------------------------------------|
A|---------------------------------------------------------------------------------|
E|---------------------------------------------------------------------------------|
B|---------------------------------------------------------------------------------|

Guitar II

e|-----------------------------------------------------------------------|
B|-----------------------------------------------------------------------|
G|-----------------------------------------------------------------------|
D|-----------------------------------------------------------------------|
A|-----------------------------------------------------------------------|
E|-----------------------------------------------------------------------|
B|---[5\0]--(dime squeal on the 5th fret, then lower the tremolo bar)----|


e|--------12-----12h14p12-14b15-12h14p12---------|
B|--------15b17--------------------------15b17---|
G|-----------------------------------------------|
D|-----------------------------------------------|
A|-----------------------------------------------|
E|-----------------------------------------------|
B|-----------------------------------------------|

e|--15-14-12h14p12-11h12p11------------------------------------------|
B|----------------------------13-12h13p12-10h12p10-------------------|
G|-------------------------------------------------11h12p11-9-8~-----|
D|-------------------------------------------------------------------|
A|-------------------------------------------------------------------|
E|-------------------------------------------------------------------|
B|-------------------------------------------------------------------|

e|---------------------------------------------20-------|
B|--------13-12h13h12--\20--19h20p19---20b21~-----------|
G|--11-12-----------------------------------------------|
D|------------------------------------------------------|
A|------------------------------------------------------|
E|------------------------------------------------------|
B|------------------------------------------------------|

e|-------------------------------------------------------------------------------|
B|-------------------------------------------------------16-17-20-16-17-20-20----|
G|------------------------16-17-20-16-17-20-20~-16-17-20-------------------------|
D|--16-17-21-21--16-17-21--------------------------------------------------------|
A|-------------------------------------------------------------------------------|
E|-------------------------------------------------------------------------------|
B|-------------------------------------------------------------------------------|

e|----------16-17-20-17-16--------------------------------------------------|
B|-16-17-20----------------20-17-16-20-17-16--------------------------------|
G|-------------------------------------------20-17-16-20-17-16--------------|
D|-------------------------------------------------------------21-17-16-----|
A|--------------------------------------------------------------------------|
E|--------------------------------------------------------------------------|
B|--------------------------------------------------------------------------|

e|--------------------17------------------|
B|--------------16-19----19-16-17---------|
G|-----------17---------------------------|
D|-----16-19------------------------------|
A|--18------------------------------------|
E|----------------------------------------|
B|----------------------------------------|


Guitar I
e|-------------------------------------|
B|-------------------------------------|
G|---12-11---9--8---5---8---6----------|
D|-------------------------------------|
A|---10--9---7--6---3---6---4----------|
E|-------------------------------------|
B|-------------------------------------|

e|------------------------------17--20-17----17---------------------------|
B|--20-19h20p19--17----17-19-20-----------19---19----19-------------------|
G|------------------20----------------------------20----20-17-20-17-------|
D|------------------------------------------------------------------19----|
A|------------------------------------------------------------------------|
E|------------------------------------------------------------------------|
B|------------------------------------------------------------------------|

e|----------------------------------------------------------|
B|--------------------------------------17--16h17p16--------|
G|--17-16----------16-17-16----------16---------------------|
D|--------19-18-19----------19-18-19------------------------|
A|----------------------------------------------------------|
E|----------------------------------------------------------|
B|----------------------------------------------------------|

e|------------------------------17---------------------------------------------------------------|
B|--20-19h20p19--17----17-19-20-----16-13---13---------------------------------------------------|
G|------------------20--------------------14---14---14-------------------------------------------|
D|------------------------------------------------16---16-13-16-13---13--------------------------|
A|-----------------------------------------------------------------15---15-12-15-12---12---------|
E|----------------------------------------------------------------------------------14---14-11---|
B|-----------------------------------------------------------------------------------------------|

e|----------------------------------------------------------------------------------|
B|----------------------------------------------------------------------------------|
G|--16-17p16h17p16h17p16--16p14h16p14h16p14--14p12h14p12h14p12--12p11h12p11h12p11---|
D|----------------------------------------------------------------------------------|
A|----------------------------------------------------------------------------------|
E|----------------------------------------------------------------------------------|
B|----------------------------------------------------------------------------------|


"Verse" (4:40 - 4:50)

Guitar I

e|--------------------------------------------------------------------------------|
B|--------------------------------------------------------------------------------|
G|--------------------------------------------------------------------------------|
D|------5-5---4-4---------------------------------5-5---4-4-----------------------|
A|------7-7---6-6---------------------------------7-7---6-6-----------------------|
E|---0------0------0--0-0-0---0--0-0-0--0-0-0---0-----0-------0-3p0-3p0-2p0-2p0---|
B|--------------------------------------------------------------------------------|
       PM   .      .  . . .   .  . . .  . . .
e|----------------------------------------------------------------------------------------------|
B|----------------------------------------------------------------------------------------------|
G|----------------------------------------------------------------------------------------------|
D|------5-5---4-4---------------------------------5-5---4-4-------------------------------------|
A|------7-7---6-6---------------------------------7-7---6-6---2p0-2p0---------3p0-3p0-----------|
E|---0------0------0--0-0-0---0--0-0-0--0-0-0---0-----0---------------3p0-3p0----------2p0-2p0--|
B|----------------------------------------------------------------------------------------------|
       PM   .      .  . . .   .  . . .  . . .

Guitar II

e|--------------------------------------------------------------------------------|
B|--------------------------------------------------------------------------------|
G|--------------------------------------------------------------------------------|
D|------5-5---4-4---------------------------------2-2---1-1-----------------------|
A|------7-7---6-6---------------------------------3-3---2-2-----------------------|
E|---0------0------0--0-0-0---0--0-0-0--0-0-0---0-----0-------0-3p0-3p0-2p0-2p0---|
B|--------------------------------------------------------------------------------|
       PM   .      .  . . .   .  . . .  . . .
e|----------------------------------------------------------------------------------------------|
B|----------------------------------------------------------------------------------------------|
G|----------------------------------------------------------------------------------------------|
D|------5-5---4-4---------------------------------2-2---1-1-------------------------------------|
A|------7-7---6-6---------------------------------3-3---2-2---2p0-2p0---------3p0-3p0-----------|
E|---0------0------0--0-0-0---0--0-0-0--0-0-0---0-----0---------------3p0-3p0----------2p0-2p0--|
B|----------------------------------------------------------------------------------------------|
       PM   .      .  . . .   .  . . .  . . .

Riff 2 (4:50 - 5:05)


e|-----------------------------------------------------------------------------------------------|
B|-----------------------------------------------------------------------------------------------|
G|-----------------------------------------------------------------------------------------------|
D|-----------------------------------------------------------------------------------------------|
A|-----------------------------------------------------------------------------2-2-2-3-3-3-6-6-6-|
E|-----------------------------------------------------5-5-5-7-7-7-8-8-8-------------------------|
B|-5-5-5-5-5-4-4-4-5-5-5-7-7-7-8-8-8-7-7-7-5-5-5-0-0-0-------------------1-1-1-------------------|
PM . . . . . . . . . . . . . . . . . . . . . . . . . .                   . . .


e|----------------------------------------------------------------------------|
B|----------------------------------------------------------------------------|
G|--------------------------------------------------------12-11--9--8~--------|
D|----------------------------------------------------------------------------|
A|--------------------------------------------------------10--9--7--6~--------|
E|----------------------------------------------------------------------------|
B|--5-5-5-5-5-4-4-4-5-5-5-7-7-7-8-8-8-7-7-7-5-5-5-0-0-0-----------------12\---|
 PM . . . . . . . . . . . . . . . . . . . . . . . . . .

"Chorus" (5:05 - 5:25)



e|-------------------------------------------------------------------------------|
B|-------------------------------------------------------------------------------|
G|-------------------------------------------------------------------------------|
D|----------------------------------------------7-7-9-9-----10-10-9-9-7-7--------|
A|--------7-7-9-9-5-5-------9-9-10-10-6-6---------------7-7---------------7-7----|
E|-------------------------------------------------------------------------------|
B|--5-5-5-------------7-7-7---------------8-8-8----------------------------------|
 PM . . . . . . . . . . . . . . .  .  . . . . . . . . . . . .  .  . . . . . .

    "i    can   see     in     their      eyes             they've already died"

e|--------------------------------------------------------------------------------------------|
B|--------------------------------------------------------------------------------------------|
G|--------------------------------------------------------------------------------------------|
D|---------------------------------------------------------7-7-7-9-9-9-7-7-7------------------|
A|--9-9---------------10-10----------------12-12-----------------------------10-10-10-9-9-9---|
E|------7-7-------7-7-------7-7--------7-7-------8-8------------------------------------------|
B|----------10-10----------------11-11---------------12-12------------------------------------|
 PM . . . . .  .  . . .  .  . .  .  .  . . .  .  . . .  .  . . . . . . . . . .  .  .  . . .

   "inside,   but    as    for   the     outside      i'll take their fucking heads"

"Bridge" (5:28 - 6:12)


e|--------------------------------------------|--------------------------------------------|
B|--------------------------------------------|--------------------------------------------|
G|-12-12-12--9-9-9-9-9--12-12-12--9-9-9-9-12--|--11-11-11--8-8-8-8-8---8---8-9---9-11------|
D|--------------------------------------------|--------------------------------------------|
A|-10-10-10--7-7-7-7-7--10-10-10--7-7-7-7-10--|---9--9--9--6-6-6-6-6---6-0-6-7-0-7-9--0----|
E|--------------------------------------------|--------------------------------------------|
B|--------------------------------------------|--------------------------------------------|
  "i      will             never         be       what    they       want me to"

e|--------------------------------------------|----------------------------------------------|
B|--------------------------------------------|----------------------------------------------|
G|-12-12-12--9-9-9-9-9--12-12-12--9-9-9-9-12--|--11-11-11--8-8-8-8-8-----16----14----11------|
D|--------------------------------------------|----------------------------------------------|
A|-10-10-10--7-7-7-7-7--10-10-10--7-7-7-7-10--|---9--9--9--6-6-6-6-6-----14----12-----9------|
E|--------------------------------------------|----------------------------------------------|
B|--------------------------------------------|----------------------------------------------|
  "i      live       by      my    own              path  in life       no turning"

e|--------------------------------------------|--------------------------------------------|
B|--------------------------------------------|--------------------------------------------|
G|-12-12-12--9-9-9-9-9--12-12-12--9-9-9-9-12--|--11-11-11--8-8-8-8-8---8---8-9---9-11------|
D|--------------------------------------------|--------------------------------------------|
A|-10-10-10--7-7-7-7-7--10-10-10--7-7-7-7-10--|---9--9--9--6-6-6-6-6---6-0-6-7-0-7-9--0----|
E|--------------------------------------------|--------------------------------------------|
B|--------------------------------------------|--------------------------------------------|
  "back    now,      i    won't      be          held      down         forced into a"

e|--------------------------------------------|-------------------------|
B|--------------------------------------------|-------------------------|
G|-12-12-12--9-9-9-9-9--12-12-12--9-9-9-9-12--|--11-11-11--8-8-8-8-8----|
D|--------------------------------------------|-------------------------|
A|-10-10-10--7-7-7-7-7--10-10-10--7-7-7-7-10--|---9--9--9--6-6-6-6-6----|
E|--------------------------------------------|-------------------------|
B|--------------------------------------------|-------------------------|
   "shallow grave     built      upon   their      empty    ways


e|--------------------|---------------------|
B|--------------------|---------------------|
G|--11-----11----11---|11----11----11---9---|
D|--------------------|---------------------|
A|---9-0-0--9-0-0-9-0-|-9-0-0-9-0-0-9-0-7---|
E|--------------------|---------------------|
B|--------------------|---------------------|
 there's no   turning    back~"

2. Torn Between Schylla and Charybdis

Gtr I (B E A D G B E) - 'Matt Heafy'
Gtr II (B E A D G B E) - 'Corey Beaulieu'
Gtr III (B E A D G B E) - 'Harmony Guitar'
Gtr IV (B E A D G B E) - 'Additional Harmony'

 Intro
  Q=142
 4/4
  Gtr II
|----------------------------------------------|
|-12-0-0-12-0-0-12-0-0-12-0-0-12-0-12-0--------|
|----------------------------------------------|
|----------------------------------------------|   \
|---------------------------------------|   ---|
|---------------------------------------|   ---|
|---------------------------------------|   ---|
					     |
					     |
|----------------------------------------|
|-15-0-0-15-0-0-15-0-14-0-0-14-0-0-14-0--|
|----------------------------------------|
|----------------------------------------|
|----------------------------------------|
|----------------------------------------|
|----------------------------------------| This plays throughout the intro


|---------------------------------------|
|-10-0-0-10-0-0-10-0-0-10-0-0-10-0-10-0-|
|---------------------------------------|
|---------------------------------------|
|---------------------------------------|
|---------------------------------------|
|---------------------------------------|


|---------------------------------------|  ---|
|-15-0-0-15-0-0-15-0-14-0-0-14-0-0-14-0-|  ---|
|---------------------------------------|  ---|
|---------------------------------------|  ---|
|---------------------------------------|  ---|
|---------------------------------------|  ---|
|---------------------------------------------|  /

After 2 repeats of Gtr 2, Gtr I and Gtr III come in with this

Gtr I

|------------------------------------------|
|------------------------------------------|
|------------------------------------------|
|------------------------------------------|
|------------------------------------------|
|------------------------------------------|
|------------------------------/10\--------|


Gtr III
||----------------------------------------|
||--15-0-0-15-0-0-15-0-0-15-0-0-15-0-15-0-|
||----------------------------------------|
||----------------------------------------|
||----------------------------------------|
||----------------------------------------|
||----------------------------------------|


Gtr I
||----------------------------------------|
||----------------------------------------|
||----------------------------------------|
||----------------------------------------|
||----------------------------------------|
||----------------------------------------|
||---0---------------------------0----2---|


Gtr III
|----------------------------------------|
|-19-0-0-19-0-0-19-0-17-0-0-17-0-0-17-0--|
|----------------------------------------|
|----------------------------------------|
|----------------------------------------|
|----------------------------------------|
|----------------------------------------|
|
|  ~~
|----------------------------------------|
|----------------------------------------|
|----------------------------------------|
|----------------------------------------|
|----------------------------------------|
|----------------0--------2---------5----|
|--3-------------------------------------|

|---------------------------------------|
|-14-0-0-14-0-0-14-0-0-14-0-0-14-0-14-0-|
|---------------------------------------|
|---------------------------------------|
|---------------------------------------|
|---------------------------------------|
|---------------------------------------|
|
|  ~~
|---------------------------------------|
|---------------------------------------|
|---------------------------------------|
|---------------------------------------|
|---------------------------------------|
|--3------------------------------------|
|---------------------------------------|

|----------------------------------------||
|-19-0-0-19-0-0-19-0-17-0-0-17-0-0-17-0--||
|----------------------------------------||
|----------------------------------------||
|----------------------------------------||
|----------------------------------------||
|----------------------------------------||
|
|----------------------------------------||
|----------------------------------------||
|----------------------------------------||
|-/4-------------2--------4---------0----||
|-/5-------------4--------5---------0----|| 2 Guitars play this harmony
|----------------------------------------||
|----------------------------------------||


Guitars II and III then continue to play the same part as

Guitar IV* enters and Guitar I changes rhythm
*This part was recorded with a human capo on the 12th fret (someone standing and 
down on the fret) but sounds just as good with open b anyway
||--------------------------------------------------|
||--24-12-12-24-12-12-24-12-12-24-12-12-24-12-24-12-|
||o-------------------------------------------------|
||--------------------------------------------------|
||o-------------------------------------------------|
||--------------------------------------------------|
||--------------------------------------------------|
|
||----------------------------------------|
||----------------------------------------|
||o---------------------------------------|
||----------------------------------------|
||o---------------------------------------|
||----------------------------------------|
||---0-0-0--0------0-0-0--0------0-0--2-2-|

|--------------------------------------------------|
|-19-12-12-19-12-12-19-12-22-12-12-22-12-12-22-12--|
|--------------------------------------------------|
|--------------------------------------------------|
|--------------------------------------------------|
|--------------------------------------------------|
|--------------------------------------------------|
|
|----------------------------------------|
|----------------------------------------|
|----------------------------------------|
|----------------------------------------|
|----------------------------------------|
|----------------0-0--0-0-2--2-2-2--5-5--|
|--3-3-3--3------------------------------|

|-------------------------------------------------|
|-17-12-12-17-12-12-17-12-12-17-12-12-17-12-17-12-|
|-------------------------------------------------|
|-------------------------------------------------|
|-------------------------------------------------|
|-------------------------------------------------|
|-------------------------------------------------|
|
|---------------------------------------|
|---------------------------------------|
|---------------------------------------|
|---------------------------------------|
|---------------------------------------|
|--3-3-3--3------3-3-3--3------3-3--3-3-|
|---------------------------------------|

|
|--------------------------------------------------||
|-24-12-12-24-12-12-24-12-22-12-12-22-12-12-22-12--||
|-------------------------------------------------o||
|--------------------------------------------------||
|-------------------------------------------------o||	X2
|--------------------------------------------------||
|--------------------------------------------------||
|
|----------------------------------------||
|----------------------------------------||
|---------------------------------------o||
|-/4-------------2--------4---------0----||
|-/5-------------4--------5---------0---o||
|----------------------------------------||
|----------------------------------------||


|-----------|----------------|
|-15--------|-(15)-----------|
|-----------|----------------|
|-----------|----------------|
|-----------|----------------|
|-----------|----------------|
|-----------|----------------|

|-----------|----------------|
|-12--------|-(12)-----------|
|-----------|----------------|
|-----------|----------------|
|-----------|----------------|
|-----------|----------------|
|-----------|----------------|
|
|-----------|----------------|
|-24--------|-(24)-----------|
|-----------|----------------|
|-----------|----------------|
|-----------|----------------|
|-----------|----------------|
|-----------|----------------|
|
|-----------|----------------|
|-----------|----------------|
|-----------|----------------|
|-----------|----------------|
|-----------|----------------|
|-----------|-----------12\--|
|--0--------|--(0)-----------|

 Pre-Verse
    Q.=70
   6/8
    Gtrs I, II
    PM----|       PM----|           PM----------------------------|   PM|    PM|   PM
||--------------------------------|-------------------------------|
||--------------------------------|-------------------------------|
||o-------------------------------|-------------------------------|
||--------------------------------|---------7---------------------|
||o-------------------------------|---------------10-----9---10---|
||----------9p7h9---------10p7h10-|-------------------------------|
||--0-0-0-0-------0-0-0-0---------|-5-5-5-5---5-5----5-5---5------|


  PM----|   PM|   PM|
                                                        4x
|------------------------|------------------------------||
|------------------------|------------------------------||
|------------------------|-----------------------------o||
|---------------------9\-|----------0h=4----------0h=2--||
|---------9-----7--------|------0h2-----------0h1------o||
|-6-6-6-6---6-6---6-6----|------------------------------||
|------------------------|-0h=3----------0h=2-----------||
|
| Gtr II
| PM----|   PM|   PM|
|                                                       4x
|------------------------|------------------------------||
|------------------------|------------------------------||
|------------------------|-----------------------------o||
|---------------------9\-|----------0h12----------0h11--||
|---------9-----7--------|------0h9-----------0h9------o||
|-6-6-6-6---6-6---6-6----|------------------------------||
|------------------------|-0h12----------0h11-----------||

 Pre-Verse
    Q.=70
   6/8
    Gtrs I, II
    PM----|       PM----|           PM----------------------------|   PM|    PM|   PM
||--------------------------------|-------------------------------|
||--------------------------------|-------------------------------|
||o-------------------------------|-------------------------------|
||--------------------------------|---------7---------------------|
||o-------------------------------|---------------10-----9---10---|
||----------9p7h9---------10p7h10-|-------------------------------|
||--0-0-0-0-------0-0-0-0---------|-5-5-5-5---5-5----5-5---5------|


  PM----|   PM|   PM|
                                                        4x
|------------------------|------------------------------||
|------------------------|------------------------------||
|------------------------|-----------------------------o||
|---------------------9\-|----------0h=4----------0h=2--||
|---------9-----7--------|------0h2-----------0h1------o||
|-6-6-6-6---6-6---6-6----|------------------------------||
|------------------------|-0h=3----------0h=2-----------||
|
| Gtr II
| PM----|   PM|   PM|
|                                                       4x
|------------------------|------------------------------||
|------------------------|------------------------------||
|------------------------|-----------------------------o||
|---------------------9\-|----------0h12----------0h11--||
|---------9-----7--------|------0h9-----------0h9------o||
|-6-6-6-6---6-6---6-6----|------------------------------||
|------------------------|-0h12----------0h11-----------||


 Verse
  Gtrs I, II
     PM----|   PM|   PM       PM--------------------|
|------------------------|--------------------------|
|------------------------|--------------------------|
|------------------------|--------------------------|
|------------------------|--------------------------|
|-9\---------5-----5---9-|-9\-----------------------|
|-7\---------2-----3---6-|-7\---------7-7-7S9-9-9---|
|----0-0-0-0---0-0---0---|----0-0-0-0-3-3-3S6-6-6---|


  Gtr I
     PM----|   PM|   PM
|------------------------|-------------------------------||
|------------------------|-------------------------------||
|------------------------|-------------------------------||
|------------------------|----------0h=4-5--4--2---------||
|-9\---------5-----5---9-|------0h2--------------5--4--2-||
|-7\---------2-----3---6-|-------------------------------||
|----0-0-0-0---0-0---0---|-0h=3--------------------------||
|
| Gtr II
|    PM----|   PM|   PM
|------------------------|-------------------------------||
|------------------------|-------------------------------||
|------------------------|---------------9---------------||
|------------------------|----------0h12---12-11-9-------||
|-9\---------5-----5---9-|------0h9----------------12-10-||
|-7\---------2-----3---6-|-------------------------------||
|----0-0-0-0---0-0---0---|-0h12--------------------------||


  Gtrs I, II
     PM----|   PM|   PM       PM--------------------|
|------------------------|--------------------------|
|------------------------|--------------------------|
|------------------------|--------------------------|
|------------------------|--------------------------|
|-9\---------5-----5---9-|-9\-----------------------|
|-7\---------2-----3---6-|-7\---------7-7-7S9-9-9---|
|----0-0-0-0---0-0---0---|----0-0-0-0-3-3-3S7-7-7---|


  Gtr I
     PM----|   PM|   PM
|------------------------|-------------------------------|
|------------------------|-------------------------------|
|------------------------|-------------------------------|
|------------------------|----------0h=4-5--4--2---------|
|-9\---------5-----5---9-|------0h2--------------5--4--2-|
|-7\---------2-----3---6-|-------------------------------|
|----0-0-0-0---0-0---0---|-0h=3--------------------------|
|
| Gtr II
|    PM----|   PM|   PM
|------------------------|-------------------------------|
|------------------------|-------------------------------|
|------------------------|---------------9---------------|
|------------------------|----------0h12---12-11-9-------|
|-9\---------5-----5---9-|------0h9----------------12-10-|
|-7\---------2-----3---6-|-------------------------------|
|----0-0-0-0---0-0---0---|-0h12--------------------------|


|------------------------------|
|------------------------------|
|------------------------------|
|----------0h2--4--2-0---------|
|------0h1--------------4--2-1-|
|------------------------------|
|-0h=2-------------------------|
|
|------------------------------|
|------------------------------|
|------------------------------|
|----------0h9-12-11-9---------|
|------0h9-------------13-10-9-|
|------------------------------|
|-0h11-------------------------|


 Pre-Chorus
    PM|   PM|    PM|    PM|      PM|    PM|    PM   PM   PM
|---------------------------|------------------------------|
|---------------------------|------------------------------|
|---------------------------|---------------11---12---11---|
|-9-----9-----11-----11-----|-12-----12--------------------|
|---9-9---9-9----9-9----9-9-|----9-9----9-9----9----9----9-|
|---------------------------|------------------------------|
|---------------------------|------------------------------|
|
|---------------------------|------------------------------|
|---------------------------|------------------------------|
|---------------------------|------------------------------|
|-9-9-9-9------7-7-7--7-----|--5-5-5--5------4-4--4-4------|
|-9-9-9-9------7-7-7--7-----|--5-5-5--5------4-4--4-4------|
|-7-7-7-7------5-5-5--5-----|--3-3-3--3------2-2--2-2------|
|---------------------------|------------------------------|


    PM|   PM|    PM|    PM|
|---------------------------|----------------------------------|
|---------------------------|----------------------------------|
|---------------------------|----------------------------------|
|-9-----9-----11-----11-----|-12p11----9-------12p11----9------|
|---9-9---9-9----9-9----9-9-|-------12---12-10-------12---12-9-|
|---------------------------|----------------------------------|
|---------------------------|----------------------------------|
|
|---------------------------|----------------------------------|
|---------------------------|----------------------------------|
|---------------------------|----------------------------------|
|-2-2-2-2------4-4-4--4-----|--5--5--5-5--------7--7--7-7------|
|-2-2-2-2------4-4-4--4-----|--5--5--5-5--------7--7--7-7------|
|-0-0-0-0------2-2-2--2-----|--3--3--3-3--------5--5--5-5------|
|---------------------------|----------------------------------|


  Gtr I
     PM|    PM|    PM|    PM|      PM|    PM|    PM   PM   PM
|-----------------------------|------------------------------|
|-----------------------------|------------------------------|
|-----------------------------|---------------11---12---11---|
|--9------9-----11-----11-----|-12-----12--------------------|
|----9-9----9-9----9-9----9-9-|----9-9----9-9----9----9----9-|
|-----------------------------|------------------------------|
|-----------------------------|------------------------------|
|
| Gtr III
|    PM|    PM|    PM|    PM|      PM|    PM|    PM   PM   PM
|-----------------------------|------------------------------|
|-----------------------------|------------------------------|
|----------------9------9-----|-11-----11-----14---12---14---|
|-12-----12-------------------|------------------------------|
|----9-9----9-9----9-9----9-9-|----9-9----9-9----9----9----9-|
|-----------------------------|------------------------------|
|-----------------------------|------------------------------|
|
| Gtr II
|-----------------------------|------------------------------|
|-----------------------------|------------------------------|
|-----------------------------|------------------------------|
|--9-9-9--9------7-7-7--7-----|--5-5-5--5------4-4--4-4------|
|--9-9-9--9------7-7-7--7-----|--5-5-5--5------4-4--4-4------|
|--7-7-7--7------5-5-5--5-----|--3-3-3--3------2-2--2-2------|
|-----------------------------|------------------------------|


     PM|    PM|    PM|    PM|
|-----------------------------|----------------------------------|
|-----------------------------|----------------------------------|
|-----------------------------|----------------------------------|
|--9------9-----11-----11-----|-12p11----9-------12p11----9------|
|----9-9----9-9----9-9----9-9-|-------12---12-10-------12---12-9-|
|-----------------------------|----------------------------------|
|-----------------------------|----------------------------------|
|
|    PM|    PM|    PM|    PM|
|-----------------------------|------------------10p=9----7------|
|-----------------------------|------------------------10---10-7-|
|----------------9------9-----|-11p=9----9-----------------------|
|-12-----12-------------------|-------12---12-11-----------------|
|----9-9----9-9----9-9----9-9-|----------------------------------|
|-----------------------------|----------------------------------|
|-----------------------------|----------------------------------|
|
|-----------------------------|----------------------------------|
|-----------------------------|----------------------------------|
|-----------------------------|----------------------------------|
|--2-2-2--2------4-4-4--4-----|--5--5--5-5--------7--7--7-7------|
|--2-2-2--2------4-4-4--4-----|--5--5--5-5--------7--7--7-7------|
|--0-0-0--0------2-2-2--2-----|--3--3--3-3--------5--5--5-5------|
|-----------------------------|----------------------------------|


   Chorus
    Q=142
   4/4
||-------------------------|---------------------|
||-------------------------|---------------------|
||o------------------------|---------------------|
||-----------12------12h14-|-14s16-14--12---11---|
||o-12S14-------14---------|---------------------|
||-------------------------|---------------------|
||-------------------------|---------------------|
|
||-------------------------|-15s17-15--14---12---|
||-----------15------15h17-|---------------------|
||o-15S16-------16---------|---------------------|
||-------------------------|---------------------|
||o------------------------|---------------------|
||-------------------------|---------------------|
||-------------------------|---------------------|
|
|             PM--------|               PM---------|
||-------------------------|-----------------------|
||-------------------------|-----------------------|
||o------------------------|-----------------------|
||-------------------------|-----------------------|
||o-----2-----2----2-----2-|--5---------5-5----5---|
||------2-----2----2-----2-|--5---------5-5----5---|
||------0-----0----0-----0-|--3---------3-3----3---|


|----------------------|--------------------||
|----------------------|--------------------||
|----------------------|-------------------o||
|-----------12------12-|---------11-----11--||x2
|--9s10-10-----10------|--9---9------9-----o||
|----------------------|--------------------||
|----------------------|--------------------||
|
|----------------------|--------------------||
|-----------15------15-|---------14-----14--||
|-11s12-12-----12------|-11--11-----11-----o||
|----------------------|--------------------|| x2
|----------------------|-------------------o||
|----------------------|--------------------||
|----------------------|--------------------||
|
|            PM-----|
|----------------------|--------------------||
|----------------------|--------------------||
|----------------------|-------------------o||
|--5---------5----5--5-|--4-----------------||x2
|--5---------5----5--5-|--4----------------o||
|--3---------3----3--3-|--2-----------------||
|----------------------|----------2---------||


   Pre-Verse
    Q.=70
   6/8
    Gtrs I, II
    PM----|       PM----|           PM----------------------------|   PM|    PM|   PM
||--------------------------------|-------------------------------|
||--------------------------------|-------------------------------|
||o-------------------------------|-------------------------------|
||--------------------------------|---------7---------------------|
||o-------------------------------|---------------10-----9---10---|
||----------9p7h9---------10p7h10-|-------------------------------|
||--0-0-0-0-------0-0-0-0---------|-5-5-5-5---5-5----5-5---5------|


  Gtr I
  PM----|   PM|   PM|
|------------------------|------------------------------||
|------------------------|------------------------------||
|------------------------|-----------------------------o||
|---------------------9\-|----------0h=4----------0h=2--||x4
|---------9-----7--------|------0h2-----------0h1------o||
|-6-6-6-6---6-6---6-6----|------------------------------||
|------------------------|-0h=3----------0h=2-----------||
|
| Gtr II
| PM----|   PM|   PM|
|------------------------|------------------------------||
|------------------------|------------------------------||
|------------------------|-----------------------------o||
|---------------------9\-|----------0h12----------0h11--||x4
|---------9-----7--------|------0h9-----------0h9------o||
|-6-6-6-6---6-6---6-6----|------------------------------||
|------------------------|-0h12----------0h11-----------||

 Verse
  Gtrs I, II
     PM----|   PM|   PM       PM--------------------|
|------------------------|--------------------------|
|------------------------|--------------------------|
|------------------------|--------------------------|
|------------------------|--------------------------|
|-9\---------5-----5---9-|-9\-----------------------|
|-7\---------2-----3---6-|-7\---------7-7-7S9-9-9---|
|----0-0-0-0---0-0---0---|----0-0-0-0-3-3-3S6-6-6---|


  Gtr I
     PM----|   PM|   PM
|------------------------|-------------------------------||
|------------------------|-------------------------------||
|------------------------|-------------------------------||
|------------------------|----------0h=4-5--4--2---------||
|-9\---------5-----5---9-|------0h2--------------5--4--2-||
|-7\---------2-----3---6-|-------------------------------||
|----0-0-0-0---0-0---0---|-0h=3--------------------------||
|
| Gtr II
|    PM----|   PM|   PM
|------------------------|-------------------------------||
|------------------------|-------------------------------||
|------------------------|---------------9---------------||
|------------------------|----------0h12---12-11-9-------||
|-9\---------5-----5---9-|------0h9----------------12-10-||
|-7\---------2-----3---6-|-------------------------------||
|----0-0-0-0---0-0---0---|-0h12--------------------------||


  Gtrs I, II
     PM----|   PM|   PM       PM--------------------|
|------------------------|--------------------------|
|------------------------|--------------------------|
|------------------------|--------------------------|
|------------------------|--------------------------|
|-9\---------5-----5---9-|-9\-----------------------|
|-7\---------2-----3---6-|-7\---------7-7-7S9-9-9---|
|----0-0-0-0---0-0---0---|----0-0-0-0-3-3-3S7-7-7---|


  Gtr I
     PM----|   PM|   PM
|------------------------|-------------------------------|
|------------------------|-------------------------------|
|------------------------|-------------------------------|
|------------------------|----------0h=4-5--4--2---------|
|-9\---------5-----5---9-|------0h2--------------5--4--2-|
|-7\---------2-----3---6-|-------------------------------|
|----0-0-0-0---0-0---0---|-0h=3--------------------------|
|
| Gtr II
|    PM----|   PM|   PM
|------------------------|-------------------------------|
|------------------------|-------------------------------|
|------------------------|---------------9---------------|
|------------------------|----------0h12---12-11-9-------|
|-9\---------5-----5---9-|------0h9----------------12-10-|
|-7\---------2-----3---6-|-------------------------------|
|----0-0-0-0---0-0---0---|-0h12--------------------------|


|------------------------------|
|------------------------------|
|------------------------------|
|----------0h2--4--2-0---------|
|------0h1--------------4--2-1-|
|------------------------------|
|-0h=2-------------------------|
|
|------------------------------|
|------------------------------|
|------------------------------|
|----------0h9-12-11-9---------|
|------0h9-------------13-10-9-|
|------------------------------|
|-0h11-------------------------|


 Pre-Chorus
  Gtr II
     PM|    PM|    PM|    PM|      PM|    PM|    PM   PM   PM
|-----------------------------|------------------------------|
|-----------------------------|------------------------------|
|-----------------------------|---------------11---12---11---|
|--9------9-----11-----11-----|-12-----12--------------------|
|----9-9----9-9----9-9----9-9-|----9-9----9-9----9----9----9-|
|-----------------------------|------------------------------|
|-----------------------------|------------------------------|
|
| Gtr III
|    PM|    PM|    PM|    PM|      PM|    PM|    PM   PM   PM
|-----------------------------|------------------------------|
|-----------------------------|------------------------------|
|----------------9------9-----|-11-----11-----14---12---14---|
|-12-----12-------------------|------------------------------|
|----9-9----9-9----9-9----9-9-|----9-9----9-9----9----9----9-|
|-----------------------------|------------------------------|
|-----------------------------|------------------------------|
|
| Gtr I
|-----------------------------|------------------------------|
|-----------------------------|------------------------------|
|-----------------------------|------------------------------|
|--9-9-9--9------7-7-7--7-----|--5-5-5--5------4-4--4-4------|
|--9-9-9--9------7-7-7--7-----|--5-5-5--5------4-4--4-4------|
|--7-7-7--7------5-5-5--5-----|--3-3-3--3------2-2--2-2------|
|-----------------------------|------------------------------|


     PM|    PM|    PM|    PM|
|-----------------------------|----------------------------------|
|-----------------------------|----------------------------------|
|-----------------------------|----------------------------------|
|--9------9-----11-----11-----|-12p11----9-------12p11----9------|
|----9-9----9-9----9-9----9-9-|-------12---12-10-------12---12-9-|
|-----------------------------|----------------------------------|
|-----------------------------|----------------------------------|
|
|    PM|    PM|    PM|    PM|
|-----------------------------|------------------10p=9----7------|
|-----------------------------|------------------------10---10-7-|
|----------------9------9-----|-11p=9----9-----------------------|
|-12-----12-------------------|-------12---12-11-----------------|
|----9-9----9-9----9-9----9-9-|----------------------------------|
|-----------------------------|----------------------------------|
|-----------------------------|----------------------------------|
|
|-----------------------------|----------------------------------|
|-----------------------------|----------------------------------|
|-----------------------------|----------------------------------|
|--2-2-2--2------4-4-4--4-----|--5--5--5-5--------7--7--7-7------|
|--2-2-2--2------4-4-4--4-----|--5--5--5-5--------7--7--7-7------|
|--0-0-0--0------2-2-2--2-----|--3--3--3-3--------5--5--5-5------|
|-----------------------------|----------------------------------|


   Chorus
    Q=142
   4/4
||-------------------------|---------------------|
||-------------------------|---------------------|
||o------------------------|---------------------|
||-----------12------12h14-|-14s16-14--12---11---|
||o-12S14-------14---------|---------------------|
||-------------------------|---------------------|
||-------------------------|---------------------|
|
||-------------------------|-15s17-15--14---12---|
||-----------15------15h17-|---------------------|
||o-15S16-------16---------|---------------------|
||-------------------------|---------------------|
||o------------------------|---------------------|
||-------------------------|---------------------|
||-------------------------|---------------------|
|
|             PM--------|               PM---------|
||-------------------------|-----------------------|
||-------------------------|-----------------------|
||o------------------------|-----------------------|
||-------------------------|-----------------------|
||o-----2-----2----2-----2-|--5---------5-5----5---|
||------2-----2----2-----2-|--5---------5-5----5---|
||------0-----0----0-----0-|--3---------3-3----3---|


                                            4x
|----------------------|--------------------||
|----------------------|--------------------||
|----------------------|-------------------o||
|-----------12------12-|---------11-----11--||
|--9s10-10-----10------|--9---9------9-----o||
|----------------------|--------------------||
|----------------------|--------------------||
|
|                                           4x
|----------------------|--------------------||
|-----------15------15-|---------14-----14--||
|-11s12-12-----12------|-11--11-----11-----o||
|----------------------|--------------------||
|----------------------|-------------------o||
|----------------------|--------------------||
|----------------------|--------------------||
|
|            PM-----|
|                                           4x
|----------------------|--------------------||
|----------------------|--------------------||
|----------------------|-------------------o||
|--5---------5----5--5-|--4-----------------||
|--5---------5----5--5-|--4----------------o||
|--3---------3----3--3-|--2-----------------||
|----------------------|----------2---------||


   Breakdown
   5/4
    Gtr II
      PM-------------------------------------------------|
||-------------------------------------------------------|
||-------------------------------------------------------|
||o------------------------------------------------------|
||-------------------------------------------------------|
||o------------------------------------------------------|
||---15---0-0-0-11-0-12-0-14-0-15-0-0-0-11-0-12-0-14-0---|
||-------------------------------------------------------|
|
||-----------------------------------------------------|
||-----------------------------------------------------|
||o----------------------------------------------------|
||--(11)\----------------------------------------------|
||o----------------------------------------------------|
These slide offs are only played the first time
||-----------------------------------------------------|
||-----------------------------------------------------|
|
||-----------------------------------------------------|
||--(14)\----------------------------------------------|
||o----------------------------------------------------|
||-----------------------------------------------------|
||o----------------------------------------------------|
||-----------------------------------------------------|
||-----------------------------------------------------|


 ----------------------------------------------------|
|----------------------------------------------------|
|----------------------------------------------------|
|----------------------------------------------------|
|----------------------------------------------------|
|----------------------------------------------------|
|-15-0-0-0-11-0-12-0-14-0-15-0-0-0-11-0-12-0-14-0----|
|----------------------------------------------------|
|

  Gtrs I, II
|-------------------------------------------------|
|-------------------------------------------------|
|-------------------------------------------------|
|-------------------------------------------------|
|-------------------------------------------------|
|-------------------------------------------------|
|-15-0-0-11-0-0-12-0-14-0-15-0-0-11-0-0-12-0-14-0-|


  1.,2.,3.
                                                   4x
|--------------------------------------------------||
|--------------------------------------------------||
|-------------------------------------------------o||
|--------------------------------------------------||
|-------------------------------------------------o||
|--------------------------------------------------||
|-15-0-0-11-0-0-12-0-14-0-15-0-0-11-0-0-12-0-14-0--||


  4.
 4/4
        ~~     ~
|-----------------||
|-----------------||
|-----------------||
|-----------------||
|-----------------||
|-----------------||
|-/12--11--/8--7--||
|
| Gtr II
|       ~~     ~
|-----------------||
|-----------------||
|-----------------||
|-----------------||
|-----------------||
|-/10---9--/7--6--||
|-----------------||


 Solo
|-14p10------------10-14p10----------10-12p9------------9-12p9----------9--|
|-------12----12------------12----12-----------11----11--------11----11----|
|----------11------------------11-----------------12--------------12-------|
|--------------------------------------------------------------------------|
|--------------------------------------------------------------------------|
|--------------------------------------------------------------------------|
|--------------------------------------------------------------------------|
|
|--------------------------------------------------------------------------|
|--------------------------------------------------------------------------|
|--------------------------------------------------------------------------|
|--------------------------------------------------------------------------|
|--------------------------------------------------------------------------|
|-----------7p===6h====7-----------------9p==7h====9--------------10-------|
|--0----------------------------0--------------------------0---------------|


|-14p10------------10-14p10----------10-15p12-------------12-15p12------------15---|
|-------12----12------------12----12-------------14----14----------14------17------|
|----------11------------------11-------------------15----------------15-----------|
|----------------------------------------------------------------------------------|
|----------------------------------------------------------------------------------|
|----------------------------------------------------------------------------------|
|----------------------------------------------------------------------------------|
|
|----------------------------------------------------------------------------------|
|----------------------------------------------------------------------------------|
|----------------------------------------------------------------------------------|
|----------------------------------------------------------------------------------|
|----------------------------------------------------------------------------------|
|----------10p===9h===10----------------12p===10h===12----------------14h===15-----|
|--0----------------------------0-----------------------------0--------------------|


|-18p15----------------------------12-15p12-------------------------------|
|-------17-------14-17p14-------14----------14-------11-14p11----------14-|
|----------18--15---------15-------------------15- 12---------12-----15---|
|---------------------------17----------------------------------14--------|
|-------------------------------------------------------------------------|
|-------------------------------------------------------------------------|
|-------------------------------------------------------------------------|
|
|-------------------------------------------------------------------------|
|-------------------------------------------------------------------------|
|-------------------------------------------------------------------------|
|-------------------------------------------------------------------------|
|-------------------------------------------------------------------------|
|-14----------------12----------------10-----------------9----------------|
|-----------0-----------------0-----------------0-----------------0-------|


                               *Natural harmonic then whammy dive
|-----------------------------------------------|
|-17p14-----------------------------------------|
|-------15--------12-15p12----<15>*------(<15>)-|
|----------17--14----------14-------------------|
|-----------------------------------------------|
|-----------------------------------------------|
|-----------------------------------------------|
|
|                                         ~~~~~~
|----------------------------------------------|
|----------------------------------------------|
|----------------------------------------------|
|----------------------------------------------|
|----------------------------------------------|
|-14----------------12------------10------6----|
|-----------0------------------0-----0---------|


    Gtr II
                         ~~                             ~~ PM|
|-----------------------------|---------------------------------|
|-----------------------------|----------------------------0--0-|
|-----------------------------|---------------------11----------|
|---------------11---12-11----|---/12---11-12-14-------14-------|
|---/14---13-14---------------|---------------------------------|
|-----------------------------|---------------------------------|
|-----------------------------|---------------------------------|
|
| Gtr III
|                        ~~                             ~~
|-----------------------------|---------------------------------|
|-----------------------------|---------------------------------|
|--------------------11-------|---------------12----14-12-------|
|---/12---11-12-14------14----|---/16---14-16-------------------|
|-----------------------------|---------------------------------|
|-----------------------------|---------------------------------|
|-----------------------------|---------------------------------|
|
| Gtr I
|-----------------------------|---------------------------------|
|-----------------------------|---------------------------------|
|-----------------------------|---------------------------------|
|-----------------------------|---------------------------------|
|-----------------------------|---------------------------------|
|-----7p6h=7-----9p7h=9----10-|----10p9h10----12p10h12----14h15-|
|-0-----------0----------0----|-0-----------0-----------0-------|


    PM----------------------------------------|
|---------------------------------------------|
|--12--0-11-0-14-0-12-0-15-0-14-0-17-0-15-0---|
|---------------------------------------------|
|---------------------------------------------|
|---------------------------------------------|
|---------------------------------------------|
|---------------------------------------------|
|
|   ~~~~
|-------------------------------------------|
|-------------------------------------------|
|-(12)--------------------------------------|
|-------------------------------------------|
|-------------------------------------------|
|-------------------------------------------|
|-------------------------------------------|
|
|-------------------------------------------|
|-------------------------------------------|
|-------------------------------------------|
|-------------------------------------------|
|-------------------------------------------|
|--14---------12--------10---------9--------|
|---------0---------0---------0---------0---|


                                                               ~~
|-14-14-14-14-14-14-14-14-15-14-12--------------------------------|
|----------------------------------15-14-12-----------------------|
|-------------------------------------------14-12-11--------------|
|----------------------------------------------------14-12-11-----|
|-------------------------------------------------------------14--|
|-----------------------------------------------------------------|
|-----------------------------------------------------------------|
|
|-----------------------------------------------------------------|
|-----------------------------------------------------------------|
|-----------------------------------------------------------------|
|-----------------------------------------------------------------|
|-----------------------------------------------------------------|
|-----------------------------------------------------------------|
|-----------------------------------------------------------------|
|
|                                                              ~~
|-----------------------------------------------------------------|
|-----------------------------------------------------------------|
|-----------------------------------------------------------------|
|-----------------------------------------------------------------|
|-----------------------------------------------------------------|
|-14----------------------12----------------10-----------------6--|
|--------------0--------------------0-----------------0-----------|


|-15-12----------------12-15-12----------------11-|
|-------12----------12----------12----------12----|
|----------12----12----------------12----12-------|
|-------------14----------------------14----------|
|-------------------------------------------------|
|-------------------------------------------------|
|-------------------------------------------------|
|
|-19-15----------------15-19-15----------------14-|
|-------17----------17----------17----------17----|
|----------16----16----------------16----16-------|
|-------------17----------------------17----------|
|-------------------------------------------------|
|-------------------------------------------------|
|-------------------------------------------------|
|
|-------------------------------------------------|
|-------------------------------------------------|
|-------------------------------------------------|
|-------------------------------------------------|
|-------------------------------------------------|
|-------12p11h12----------14p12h14----------15----|
|--0-----------------0-----------------0----------|


|-14-11----------------11-14-11----------------11-|
|-------12----------12----------12----------12----|
|----------11----11----------------11----11-------|
|-------------13----------------------13----------|
|-------------------------------------------------|
|-------------------------------------------------|
|-------------------------------------------------|
|
|-17-14----------------14-17-14----------------14-|
|-------16----------16----------16----------16----|
|----------17-14-17----------------17-14-17-------|
|-------------------------------------------------|
|-------------------------------------------------|
|-------------------------------------------------|
|-------------------------------------------------|
|
|-------------------------------------------------|
|-------------------------------------------------|
|-------------------------------------------------|
|-------------------------------------------------|
|-------------------------------------------------|
|-------15p14h15----------17p15h17----------19h20-|
|--0-----------------0-----------------0----------|


 /-These notes are trilled------------------------\

|-------------------------|-------------11-14-12\--|
|----------------------13-|----------13------------|
|----11-14-------11-14----|----11-14---------------|
|-13-------10-13----------|-13---------------------|
|-------------------------|------------------------|
|-------------------------|------------------------|
|-------------------------|------------------------|
|
|                                              ~~~
|-------------------------|------------------------|
|-------------------------|------------------------|
|-------------------------|------------------------|
|-------------------------|------------------------|
|-------------------------|------------------------|
|-19----17----15----14----|-19----17----15----11---|
|-----0-----0-----0-----0-|-----0-----0-----0------|


  Gtr II
|------------------------------------------|
|----5--------5-------7--------(7)---------|
|----7b9------7b9r====9b11r====(9)b11------|
|------------------------------------------|
|------------------------------------------|
|------------------------------------------|
|------------------------------------------|
|
| Gtr III
|---12-------12------14-------(14)---------|
|---15b17----15b17r==17b19r===(17)b19------|
|------------------------------------------|
|------------------------------------------|
|------------------------------------------|
|------------------------------------------|
|------------------------------------------|
|
| Gtr I
|------------------------------------------|
|------------------------------------------|
|------------------------------------------|
|------------------------------------------|
|------------------------------------------|
|---12p===11h12------14p===12h=14-------15-|
|-0----------------0------------------0----|


|---------------------------------------------|
|----8--------8------10-------(10)------------|
|---10b12----10b12r==12b14r===(12)b14---------|
|---------------------------------------------|
|---------------------------------------------|
|---------------------------------------------|
|---------------------------------------------|
|
|---15-------15------17-------(17)------------|
|---18b20----18b20r==20b22r===(20)b22---------|
|---------------------------------------------|
|---------------------------------------------|
|---------------------------------------------|
|---------------------------------------------|
|---------------------------------------------|
|
|---------------------------------------------|
|---------------------------------------------|
|---------------------------------------------|
|---------------------------------------------|
|---------------------------------------------|
|---15p===14h15------17p===15h=17-------19h20-|
|-0----------------0------------------0-------|


|-14---------14---------17---------17---------|
|----12---------12----------------------------|
|---------11---------11----16---14----16---14-|
|---------------------------------------------|
|---------------------------------------------|
|---------------------------------------------|
|---------------------------------------------|
|
|---------------------------------------------|
|---------------------------------------------|
|---------------------------------------------|
|---------------------------------------------|
|---------------------------------------------|
|-19---------17---------15---------14---------|
|-------0----------0----------0----------0----|


|----------------------------14-15-17----------15-17-19----------17-19-20-|
|-------------------13-16-17----------16-17-19----------17-19-20----------|
|----------12-14-16-------------------------------------------------------|
|-13-14-16----------------------------------------------------------------|
|-------------------------------------------------------------------------|
|-------------------------------------------------------------------------|
|-------------------------------------------------------------------------|
|
|                                                        ~~
|-------------------------------------------------------------------------|
|-------------------------------------------------------------------------|
|-------------------------------------------------------------------------|
|-------------------------------------------------------------------------|
|-------------------------------------------------------------------------|
|-19----------------17----------------15----------------11----------------|
|-----------0-----------------0-----------------0-------------------------|


   Bridge
    Q.=70
   6/8
    Gtr III
     ~~~~~
||--22b24-----------------------|----------------------------------|
||------------------------------|----------------------------------|
||o-11--------------------------|-(11)---------------(11)----11S===|
||---x--------------------------|--(x)----------------(x)-----x----|
||o--9--------------------------|--(9)----------------(9)-----9S===|
||------------------------------|----------------------------------|
||------------------------------|----------------------------------|
|
|   Gtr I
|    PM-----|       PM--|           PM---|       PM------------------|
||------------------------------|------------------------------------|
||------------------------------|------------------------------------|
||o-----------------------------|------------------------------------|
||------------12-12-------12-12-|----------12-12----------12----12---|
||o------------9--9--------9--9-|-----------9--9-----------9-----9---|
||------------10-10-------10-10-|----------10-10----------10----10---|
||---0----0-0-------0-0-0-------|---0--0-0-------0-0---0-------------|
|
|   Gtr II
|    PM-----|       PM--|           PM---|       PM------------------|
||------------------------------|------------------------------------|
||------------------------------|------------------------------------|
||o------------7--7--------7--7-|-----------7--7-----------7-----7---|
||-------------x--x--------x--x-|-----------x--x-----------x-----x---|
||o------------5--5--------5--5-|-----------5--5-----------5-----5---|
||------------------------------|------------------------------------|
||---0----0-0-------0-0-0-------|---0--0-0-------0-0---0-------------|


|--------------------------|-------------------------------||
|--------------------------|-------------------------------||
|-10-----------------------|-(10)-------------------------o||
|--x-----------------------|--(x)--------------------------||
|--8-----------------------|--(8)-------------------------o|| x2
|--------------------------|-------------------------------||
|--------------------------|-------------------------------||
|
|  PM--|       PM--|
|--------------------------|-------------------------------||
|--------------------------|-------------------------------||x2
|--------------------------|------------------------------o||
|--------11-11-------11-11-|-------------------------------||
|---------8--8--------8--8-|------------------------------o||
|---------9--9--------9--9-|-------------------------------||
|--0-0-0-------0-0-0-------|---0--0-0-2-0-2-0-2-0-3-0-3----||
|
|  PM--|       PM--|
|--------------------------|-------------------------------||
|--------------------------|-------------------------------||
|---------6--6--------6--6-|------------------------------o||x2
|---------x--x--------x--x-|-------------------------------||
|---------4--4--------4--4-|------------------------------o||
|--------------------------|-------------------------------||
|--0-0-0-------0-0-0-------|-------------------------------||


   Bass Solo
     ~~
||-12-12-12-12-12-12-12-12-12-12-12-12-|-12-12-12-12-12-12-12-12-12-12-12-12---|
||-x--x--x--x--x--x--x--x--x--x--x--x--|-x--x--x--x--x--x--x--x--x--x--x--x----|
||-9--9--9--9--9--9--9--9--9--9--9--9--|-9--9--9--9--9--9--9--9--9--9--9--9----|
||-------------------------------------|---------------------------------------|
||-------------------------------------|---------------------------------------|
||-------------------------------------|---------------------------------------|
||-------------------------------------|---------------------------------------|

|
|    PM--|       PM--|           PM---|       PM------------------|
||---------------------------|------------------------------------|
||---------------------------|------------------------------------|
||---------------------------|------------------------------------|
||---------14-14-------14-14-|----------14-14----------14----14---|
||---------10-10-------10-10-|----------10-10----------10----10---|
||---------12-12-------12-12-|----------12-12----------12----12---|
||---0-0-0-------0-0-0-------|---0--0-0-------0-0---0-------------|
|
|    PM--|       PM--|           PM---|       PM------------------|
||---------------------------|------------------------------------|
||---------------------------|------------------------------------|
||----------9--9--------9--9-|-----------9--9-----------9-----9---|
||----------x--x--------x--x-|-----------x--x-----------x-----x---|
||----------7--7--------7--7-|-----------7--7-----------7-----7---|
||---------------------------|------------------------------------|
||---0-0-0-------0-0-0-------|---0--0-0-------0-0---0-------------|


|-11-11-11-11-11-11-11-11-11-11-11-11-|-7-7-7-7-7-7-11-11-11-11-11-11--||
|--x--x--x--x--x--x--x--x--x--x--x--x-|-x-x-x-x-x-x--x--x--x--x--x--x--||
|--8--8--8--8--8--8--8--8--8--8--8--8-|-4-4-4-4-4-4--8--8--8--8--8--8--||
|-------------------------------------|--------------------------------||x2
|-------------------------------------|--------------------------------||
|-------------------------------------|--------------------------------||
|-------------------------------------|--------------------------------||
|
|  PM---|            PM---|             PM--|        PM-------------------|
|-------------------------------------|-----------------------------------|
|-------------------------------------|-----------------------------------|
|-------------------------------------|-----------------------------------|
|----------13----13----------13----13-|-------9---9----------13----13-----|x2
|-----------9-----9-----------9-----9-|-------6---6-----------9-----9-----|
|----------11----11----------11----11-|-------7---7----------11----11-----|
|--0--0--0-----------0--0--0----------|-0-0-0--------0--0--0--------------|
|
|  PM---|            PM---|             PM--|        PM-------------------|
|-------------------------------------|-----------------------------------|
|-------------------------------------|-----------------------------------|
|-----------8-----8-----------8-----8-|-------4---4-----------8-----8-----|
|-----------x-----x-----------x-----x-|-------x---x-----------x-----x-----|
|-----------6-----6-----------6-----6-|-------2---2-----------6-----6-----|x2
|-------------------------------------|-----------------------------------|
|--0--0--0-----------0--0--0----------|-0-0-0--------0--0--0--------------|

   Pre-Solo
    Q=142
   4/4
||------------------------------------------------|
||------------------------------------------------|
||o-----------------------------------------------|
||------------------------------------------------|
||o---------------------------------7h9h10-7h9h10-|
||----7h9h10-7h9h10---7h9h10-7h9h10---------------|
||------------------------------------------------|
|
||------------------------------------------------|
||------------------------------------------------|
||o-----------------------------------------------|
||------------------------------------------------|
||o-----------------------------------------------|
||------------------------------------------------|
||--0---------------0-----------------------------|


 5/4
|--------------------------------------------------------------||
|--------------------------------------------------------------||
|-------------------------------------------------------------o||
|-----------------------------------------------8h9h11-8h9h11--||x2
|---------------------------------7h9h10-7h9h10---------------o||
|---7h9h10-7h9h10---7h9h10-7h9h10------------------------------||
|--------------------------------------------------------------||
|
|--------------------------------------------------------------||
|--------------------------------------------------------------||
|-------------------------------------------------------------o||
|--------------------------------------------------------------||
|-------------------------------------------------------------o||x2
|--------------------------------------------------------------||
|-0---------------0--------------------------------------------||


 Solo II
 4/4
  Gtr I
      PM       PM       PM    PM      PM       ~~~~~~~~~~~~~~~~
|-------------------------------|------------------------------------|
|-------------------------------|-12---------------------------------|
|----------------12-------11----|----------14------------------------|
|-14-------13-------------------|-------------13----------(13)-------|
|----10-------10-------10----10-|----10------------------------------|
|-------------------------------|------------------------------------|
|-------------------------------|------------------------------------|
|
| Gtr III
|     PM       PM       PM    PM      PM       ~~~~~~~~~~~~~~~~
|-------------------------------|-11---------------------------------|
|----------------12-------------|----------13------------------------|
|-12-------11-------------14----|-------------11----------(11)-------|
|-------------------------------|------------------------------------|
|----10-------10-------10----10-|----10------------------------------|
|-------------------------------|------------------------------------|
|-------------------------------|------------------------------------|
|
| Gtr II
|-------------------------------|------------------------------------|
|-------------------------------|------------------------------------|
|-------------------------------|------------------------------------|
|-------------------------------|------------------------------------|
|-------------------------------|------------------------------------|
|----12p11h12----14p12h14----15-|----15p14h15----17p15h17------19h20-|
|--0-----------0-----------0----|--0-----------0------------0--------|


|-------------------------------------------------------12-14-15-12-14-15-|
|-------------------------------------12-13-15-12-13-15-------------------|
|-------------------11-12-14-11-12-14-------------------------------------|
|-10-13-14-10-13-14-------------------------------------------------------|
|-------------------------------------------------------------------------|
|-------------------------------------------------------------------------|
|-------------------------------------------------------------------------|
|
|-------------------------------------------------------------------------|
|-------------------------------------------------------------------------|
|-------------------------------------------------------------------------|
|-------------------------------------------------------------------------|
|-------------------------------------------------------------------------|
|-19----------------17----------------15----------------14----------------|
|-----------0-----------------0-----------------0-----------------0-------|


                    \1/
             ~~~~~~~~~~~
|-/20----17-----------------|
|-----19----16----(16)------|
|---------------------------|
|---------------------------|
|---------------------------|
|---------------------------|
|---------------------------|
|
|                        ~~
|---------------------------|
|---------------------------|
|---------------------------|
|---------------------------|
|---------------------------|
|--19----17----15-------11--|
|------0-----0------0-------|


|----------------15-19p15----------------------------15-20p15-------------|
|-------------17----------17----------------------17----------17----------|
|----------16----------------16----------------17----------------17-------|
|-------17----------------------17----------17----------------------17----|
|-14h19----------------------------19-15h19----------------------------19-|
|-------------------------------------------------------------------------|
|-------------------------------------------------------------------------|
|
|-------------------------------------------------------------------------------|
|-------------------------------------------------------------------------------|
|-------------------------------------------------------------------------------|
|-------------------------------------------------------------------------------|
|-------------------------------------------------------------------------------|
|----------12p===11h===12----------------14p===12h===14----------------15-------|
|--0-----------------------------0-----------------------------0----------------|


|----------------15-19p15----------------------------14-19p14--------------|
|-------------17----------17----------------------16----------16-----------|
|----------16----------------16----------------16----------------16--------|
|-------17----------------------17----------16----------------------16-----|
|-14h19----------------------------19-14h18----------------------------18--|
|--------------------------------------------------------------------------|
|--------------------------------------------------------------------------|
|
|-----------------------------------------------------------------------------------|
|-----------------------------------------------------------------------------------|
|-----------------------------------------------------------------------------------|
|-----------------------------------------------------------------------------------|
|-----------------------------------------------------------------------------------|
|----------15p===14h===15----------------17p===15h===17----------------19h===20-----|
|--0-----------------------------0-----------------------------0--------------------|


|-------------------------------------------------------17-19-20-17-19-20-|
|-------------------------------------17-19-20-17-19-20-------------------|
|-------------------16-17-20-16-17-20-------------------------------------|
|-16-17-19-16-17-19-------------------------------------------------------|
|-------------------------------------------------------------------------|
|-------------------------------------------------------------------------|
|-------------------------------------------------------------------------|
|
|-------------------------------------------------------------------------|
|-------------------------------------------------------------------------|
|-------------------------------------------------------------------------|
|-------------------------------------------------------------------------|
|-------------------------------------------------------------------------|
|-19----------------17----------------15----------------14----------------|
|-----------0-----------------0-----------------0-----------------0-------|


            ~~~~~~~~~~
|-23-19-23-23-(23)b24-------|
|---------------------------|
|---------------------------|
|---------------------------|
|---------------------------|
|---------------------------|
|---------------------------|
|
|                        ~~
|---------------------------|
|---------------------------|
|---------------------------|
|---------------------------|
|---------------------------|
|-19----17-----15-------11--|
|-----0-----0---------0-----|


   Bridge
    Q.=70
   6/8
    Gtr III
     ~~
||---------------------------|----------------------------------|
||---------------------------|----------------------------------|
||o-11-----------------------|-(11)---------------(11)----11S===|
||---x-----------------------|--(x)----------------(x)-----x----|
||o--9-----------------------|--(9)----------------(9)-----9S===|
||---------------------------|----------------------------------|
||---------------------------|----------------------------------|
|
|   Gtr I
|    PM--|       PM--|           PM---|       PM------------------|
||---------------------------|------------------------------------|
||---------------------------|------------------------------------|
||o--------------------------|------------------------------------|
||---------12-12-------12-12-|----------12-12----------12----12---|
||o---------9--9--------9--9-|-----------9--9-----------9-----9---|
||---------10-10-------10-10-|----------10-10----------10----10---|
||---0-0-0-------0-0-0-------|---0--0-0-------0-0---0-------------|
|
|   Gtr II
|    PM--|       PM--|           PM---|       PM------------------|
||---------------------------|------------------------------------|
||---------------------------|------------------------------------|
||o---------7--7--------7--7-|-----------7--7-----------7-----7---|
||----------x--x--------x--x-|-----------x--x-----------x-----x---|
||o---------5--5--------5--5-|-----------5--5-----------5-----5---|
||---------------------------|------------------------------------|
||---0-0-0-------0-0-0-------|---0--0-0-------0-0---0-------------|


|--------------------------|-------------------------------||
|--------------------------|-------------------------------||
|-10-----------------------|-(10)-------------------------o||
|--x-----------------------|--(x)--------------------------||
|--8-----------------------|--(8)-------------------------o||x2
|--------------------------|-------------------------------||
|--------------------------|-------------------------------||
|
|  PM--|       PM--|
|--------------------------|-------------------------------||
|--------------------------|-------------------------------||
|--------------------------|------------------------------o||
|--------11-11-------11-11-|-------------------------------||
|---------8--8--------8--8-|------------------------------o||x2
|---------9--9--------9--9-|-------------------------------||
|--0-0-0-------0-0-0-------|---0--0-0-2-0-2-0-2-0-3-0-3----||
|
|  PM--|       PM--|
|--------------------------|-------------------------------||
|--------------------------|-------------------------------||
|---------6--6--------6--6-|------------------------------o||
|---------x--x--------x--x-|-------------------------------||
|---------4--4--------4--4-|------------------------------o||
|--------------------------|-------------------------------||x2
|--0-0-0-------0-0-0-------|-------------------------------||


   Bass Solo II
    ~~
||-12-12-12-12-12-12-12-12-12-12-12-12-|-12-12-12-12-12-12-12-12-12-12-12-12---|
||-x--x--x--x--x--x--x--x--x--x--x--x--|-x--x--x--x--x--x--x--x--x--x--x--x----|
||-9--9--9--9--9--9--9--9--9--9--9--9--|-9--9--9--9--9--9--9--9--9--9--9--9----|
||-------------------------------------|---------------------------------------|
||-------------------------------------|---------------------------------------|
||-------------------------------------|---------------------------------------|
||-------------------------------------|---------------------------------------|

|
|    PM--|       PM--|           PM---|       PM------------------|
||---------------------------|------------------------------------|
||---------------------------|------------------------------------|
||---------------------------|------------------------------------|
||---------14-14-------14-14-|----------14-14----------14----14---|
||---------10-10-------10-10-|----------10-10----------10----10---|
||---------12-12-------12-12-|----------12-12----------12----12---|
||---0-0-0-------0-0-0-------|---0--0-0-------0-0---0-------------|
|
|    PM--|       PM--|           PM---|       PM------------------|
||---------------------------|------------------------------------|
||---------------------------|------------------------------------|
||----------9--9--------9--9-|-----------9--9-----------9-----9---|
||----------x--x--------x--x-|-----------x--x-----------x-----x---|
||----------7--7--------7--7-|-----------7--7-----------7-----7---|
||---------------------------|------------------------------------|
||---0-0-0-------0-0-0-------|---0--0-0-------0-0---0-------------|


|-11-11-11-11-11-11-11-11-11-11-11-11-|-7-7-7-7-7-7-11-11-11-11-11-11--||
|--x--x--x--x--x--x--x--x--x--x--x--x-|-x-x-x-x-x-x--x--x--x--x--x--x--||
|--8--8--8--8--8--8--8--8--8--8--8--8-|-4-4-4-4-4-4--8--8--8--8--8--8--||
|-------------------------------------|--------------------------------||x2
|-------------------------------------|--------------------------------||
|-------------------------------------|--------------------------------||
|-------------------------------------|--------------------------------||
|
|  PM---|            PM---|             PM--|        PM-------------------|
|-------------------------------------|-----------------------------------|
|-------------------------------------|-----------------------------------|
|-------------------------------------|-----------------------------------|
|----------13----13----------13----13-|-------9---9----------13----13-----|x2
|-----------9-----9-----------9-----9-|-------6---6-----------9-----9-----|
|----------11----11----------11----11-|-------7---7----------11----11-----|
|--0--0--0-----------0--0--0----------|-0-0-0--------0--0--0--------------|
|
|  PM---|            PM---|             PM--|        PM-------------------|
|-------------------------------------|-----------------------------------|
|-------------------------------------|-----------------------------------|
|-----------8-----8-----------8-----8-|-------4---4-----------8-----8-----|
|-----------x-----x-----------x-----x-|-------x---x-----------x-----x-----|
|-----------6-----6-----------6-----6-|-------2---2-----------6-----6-----|x2
|-------------------------------------|-----------------------------------|
|--0--0--0-----------0--0--0----------|-0-0-0--------0--0--0--------------|


  Verse
  Gtr II
     PM----|   PM|   PM       PM--------------------|
|------------------------|--------------------------|
|------------------------|--------------------------|
|------------------------|--------------------------|
|------------------------|--------------------------|
|-9\---------5-----5---9-|-9\-----------------------|
|-7\---------2-----3---6-|-7\---------7-7-7S9-9-9---|
|----0-0-0-0---0-0---0---|----0-0-0-0-3-3-3S6-6-6---|


     PM----|   PM|   PM
|------------------------|-------------------------------|
|------------------------|-------------------------------|
|------------------------|-------------------------------|
|------------------------|----------0h=4-5--4--2---------|
|-9\---------5-----5---9-|------0h2--------------5--4--2-|
|-7\---------2-----3---6-|-------------------------------|
|----0-0-0-0---0-0---0---|-0h=3--------------------------|
|
| Gtr I
|------------------------|-------------------------------|
|------------------------|-------------------------------|
|------------------------|---------------9---------------|
|------------------------|----------0h12---12-11-9-------|
|------------------------|------0h9----------------12-10-|
|------------------------|-------------------------------|
|------------------------|-0h12--------------------------|


|------------------------------|
|------------------------------|
|------------------------------|
|----------0h2--4--2-0---------|
|------0h1--------------4--2-1-|
|------------------------------|
|-0h=2-------------------------|
|
|------------------------------|
|------------------------------|
|------------------------------|
|----------0h9-12-11-9---------|
|------0h9-------------13-10-9-|
|------------------------------|
|-0h11-------------------------|

 Pre-Chorus
    PM|   PM|    PM|    PM|      PM|    PM|    PM   PM   PM
|---------------------------|------------------------------|
|---------------------------|------------------------------|
|---------------------------|---------------11---12---11---|
|-9-----9-----11-----11-----|-12-----12--------------------|
|---9-9---9-9----9-9----9-9-|----9-9----9-9----9----9----9-|
|---------------------------|------------------------------|
|---------------------------|------------------------------|
|
|---------------------------|------------------------------|
|---------------------------|------------------------------|
|---------------------------|------------------------------|
|-9-9-9-9------7-7-7--7-----|--5-5-5--5------4-4--4-4------|
|-9-9-9-9------7-7-7--7-----|--5-5-5--5------4-4--4-4------|
|-7-7-7-7------5-5-5--5-----|--3-3-3--3------2-2--2-2------|
|---------------------------|------------------------------|


    PM|   PM|    PM|    PM|
|---------------------------|----------------------------------|
|---------------------------|----------------------------------|
|---------------------------|----------------------------------|
|-9-----9-----11-----11-----|-12p11----9-------12p11----9------|
|---9-9---9-9----9-9----9-9-|-------12---12-10-------12---12-9-|
|---------------------------|----------------------------------|
|---------------------------|----------------------------------|
|
|---------------------------|----------------------------------|
|---------------------------|----------------------------------|
|---------------------------|----------------------------------|
|-2-2-2-2------4-4-4--4-----|--5--5--5-5--------7--7--7-7------|
|-2-2-2-2------4-4-4--4-----|--5--5--5-5--------7--7--7-7------|
|-0-0-0-0------2-2-2--2-----|--3--3--3-3--------5--5--5-5------|
|---------------------------|----------------------------------|


  Gtr II
     PM|    PM|    PM|    PM|      PM|    PM|    PM   PM   PM
|-----------------------------|------------------------------|
|-----------------------------|------------------------------|
|-----------------------------|---------------11---12---11---|
|--9------9-----11-----11-----|-12-----12--------------------|
|----9-9----9-9----9-9----9-9-|----9-9----9-9----9----9----9-|
|-----------------------------|------------------------------|
|-----------------------------|------------------------------|
|
| Gtr III
|    PM|    PM|    PM|    PM|      PM|    PM|    PM   PM   PM
|-----------------------------|------------------------------|
|-----------------------------|------------------------------|
|----------------9------9-----|-11-----11-----14---12---14---|
|-12-----12-------------------|------------------------------|
|----9-9----9-9----9-9----9-9-|----9-9----9-9----9----9----9-|
|-----------------------------|------------------------------|
|-----------------------------|------------------------------|
|
| Gtr I
|-----------------------------|------------------------------|
|-----------------------------|------------------------------|
|-----------------------------|------------------------------|
|--9-9-9--9------7-7-7--7-----|--5-5-5--5------4-4--4-4------|
|--9-9-9--9------7-7-7--7-----|--5-5-5--5------4-4--4-4------|
|--7-7-7--7------5-5-5--5-----|--3-3-3--3------2-2--2-2------|
|-----------------------------|------------------------------|


     PM|    PM|    PM|    PM|
|-----------------------------|----------------------------------|
|-----------------------------|----------------------------------|
|-----------------------------|----------------------------------|
|--9------9-----11-----11-----|-12p11----9-------12p11----9------|
|----9-9----9-9----9-9----9-9-|-------12---12-10-------12---12-9-|
|-----------------------------|----------------------------------|
|-----------------------------|----------------------------------|
|
|    PM|    PM|    PM|    PM|
|-----------------------------|------------------10p=9----7------|
|-----------------------------|------------------------10---10-7-|
|----------------9------9-----|-11p=9----9-----------------------|
|-12-----12-------------------|-------12---12-11-----------------|
|----9-9----9-9----9-9----9-9-|----------------------------------|
|-----------------------------|----------------------------------|
|-----------------------------|----------------------------------|
|
|-----------------------------|----------------------------------|
|-----------------------------|----------------------------------|
|-----------------------------|----------------------------------|
|--2-2-2--2------4-4-4--4-----|--5--5--5-5--------7--7--7-7------|
|--2-2-2--2------4-4-4--4-----|--5--5--5-5--------7--7--7-7------|
|--0-0-0--0------2-2-2--2-----|--3--3--3-3--------5--5--5-5------|
|-----------------------------|----------------------------------|


   Chorus
    Q=142
   4/4
||-------------------------|---------------------|
||-------------------------|---------------------|
||o------------------------|---------------------|
||-----------12------12h14-|-14s16-14--12---11---|
||o-12S14-------14---------|---------------------|
||-------------------------|---------------------|
||-------------------------|---------------------|
|
||-------------------------|-15s17-15--14---12---|
||-----------15------15h17-|---------------------|
||o-15S16-------16---------|---------------------|
||-------------------------|---------------------|
||o------------------------|---------------------|
||-------------------------|---------------------|
||-------------------------|---------------------|
|
|             PM--------|               PM---------|
||-------------------------|-----------------------|
||-------------------------|-----------------------|
||o------------------------|-----------------------|
||-------------------------|-----------------------|
||o-----2-----2----2-----2-|--5---------5-5----5---|
||------2-----2----2-----2-|--5---------5-5----5---|
||------0-----0----0-----0-|--3---------3-3----3---|


                                            4x
|----------------------|--------------------||
|----------------------|--------------------||
|----------------------|-------------------o||
|-----------12------12-|---------11-----11--||
|--9s10-10-----10------|--9---9------9-----o||
|----------------------|--------------------||
|----------------------|--------------------||
|
|                                           4x
|----------------------|--------------------||
|-----------15------15-|---------14-----14--||
|-11s12-12-----12------|-11--11-----11-----o||
|----------------------|--------------------||
|----------------------|-------------------o||
|----------------------|--------------------||
|----------------------|--------------------||
|
|            PM-----|
|                                           4x
|----------------------|--------------------||
|----------------------|--------------------||
|----------------------|-------------------o||
|--5---------5----5--5-|--4-----------------||
|--5---------5----5--5-|--4----------------o||
|--3---------3----3--3-|--2-----------------||
|----------------------|----------2---------||

3. Down From the Sky

guitar 1 intro rythem
                          . .        . .
e[----------------------------------------------------------]
b[----------------------------------------------------------]
g[----------------------------------------------------------]
d[-------------------7--------7\5--------5/7----------------]
a[-2--------2--------7--------7\5--------5/7-----7----------]
e[-2--------2--------5----5-5-5\3----3-3-3/5-----7----------]
b[-0--------0------------------------------------5----------]
  
guitar 2 intro lead

e[----------------------------------------------------------]
b[----------------------------------------------------------]
g[------------------6~7~6-----------------------------------]
d[-7~999-9----------------7------7~999-9--------------------]
a[------------------------------------------------4~5~4\2-0-]
e[---------10~7\5-0----------------------10~7\5-0-----------]
b[----------------------------------------------------------]


e[----------------------------------------------------------]
b[----------------------------------------------------------]
g[------------------6~7~6-----------------------------------]
d[-7~999-9----------------7------7~999-9-11-11-12-12-14-14--]
a[----------------------------------------------------------]
e[---------10~7\5-0-----------------------------------------]
b[----------------------------------------------------------]

guitar 1 verse
   . . .        . . .        . . .        . . .
e[-----------------------------------------------------]
b[-----------------------------------------------------]
g[--------------------4--------------------------------]
d[--------------------x------------5-------------------] x2
a[-------2------------2------------5------------7------]
e[-------2------------2------3-3-3-3------------7------]
b[-0-0-0-0------0-0-0-0-------------------5-5-5-5------]

guitar 2 verse
   . . .        . . .        . . .    
e[----------------------------------------------------------]
b[----------------------------------------------------------]
g[--------------------4-------------------------------------]
d[--------------------x------------5------5-5-7-7-9-9-11-12-] x2
a[-------2------------2------------5------------------------]
e[-------2------------2------3-3-3-3------3-3-5-5-7-7-9--10-]
b[-0-0-0-0------0-0-0-0-------------------------------------]


guitar 1 + 2 pre chorus 
         . . .       . . .       . . .
e[----------------------------------------------]
b[----------------------------------------------]
g[----------------------------------------------]
d[----------------------------------------------]
a[----------------------------------------------]
e[-7-5-7-------7-5-7-------7-5-7----------------]
b[-------0-0-0-------0-0-0-------0-0-0-2--3--5--]

         . . .       . . .         . .
e[-------------------------------------------]
b[-------------------------------------------]
g[-------------------------------------------]
d[-------------------------------------------]
a[-------------------------5-4-5-0-0-0-7--4--] x2
e[-3-2-3-0-0-0-3-2-3-0-0-0-------------------]
b[-------------------------------------------]

guitar 1 + 2 pre chorus 

e[-------------------------------------------]
b[-------------------------------------------]
g[-------------------------------------------]
d[-5-5-7-7-9-9-11-11---7-7-9-9-11-11-12-12---] 
a[-------------------------------------------]
e[-3-3-5-5-7-7-9--9----5-5-7-7-9--9--10-10---]
b[-------------------------------------------]


guitar 1 chorus lead

e[-------------------------------------------------------------]
b[---7-5-----7-5-7-8-7-----5-----------------------------------]
g[-4-------4-----------------7---0-7-6-0-6-4-0-2-4-0-4-6-0-6-7-]
d[-----------------------7-------------------------------------] x2
a[-------------------------------------------------------------]
e[-------------------------------------------------------------]
b[-------------------------------------------------------------]

guitar 2 chorus lead octave higher than ^^^

e[----14-12-----14-12-14-15-14-------12----]
b[-12--------12-------------------------15-]
g[--------------------------------14-------]
d[-----------------------------------------]
a[-----------------------------------------]
e[-----------------------------------------]
b[-----------------------------------------]

e[-----------------------------------------]
b[-----------------------------------------]
g[-0-19-18-0-18-16-0-14-16-0-16-18-0-18-19-]
d[-----------------------------------------]
a[-----------------------------------------] x2
e[-----------------------------------------]
b[-----------------------------------------]

guitar 3 chorus rythem
                        not right. theres a riff there 
                        VVV     which i cant make out
e[-----------------------------------------]
b[-----------------------------------------]
g[-----------------------------------------]
d[-9-------7------5-----4------------------] x2
a[-9-x32---7-x16--5-x8--4-x8---------------]
e[-7-------5------3-----2------------------]
b[-----------------------------------------]


guitar 1 verse
   . . .    . .   . . .    . .   . . .        . . .
e[---------------------------------------------------------]
b[---------------------------------------------------------]
g[----------------------4----------------------------------]
d[----------------------x--------------5-------------------] x2
a[-------2--------------2--------------5------------7------]
e[-------2--------------2--------3-3-3-3------------7------]
b[-0-0-0-0--0-0---0-0-0-0--0-0----------------5-5-5-5------]

guitar 2 verse
   . . .    . .   . . .    . .   . . .    
e[--------------------------------------------------------------]
b[--------------------------------------------------------------]
g[----------------------4---------------------------------------]
d[----------------------x--------------5------5-5-7-7-9-9-11-12-] x2
a[-------2--------------2--------------5------------------------]
e[-------2--------------2--------3-3-3-3------3-3-5-5-7-7-9--10-]
b[-0-0-0-0--0-0---0-0-0-0--0-0----------------------------------]


guitar 1 + 2 pre chorus 
         . . .       . . .       . . .
e[----------------------------------------------]
b[----------------------------------------------]
g[----------------------------------------------]
d[----------------------------------------------]
a[----------------------------------------------]
e[-7-5-7-------7-5-7-------7-5-7----------------]
b[-------0-0-0-------0-0-0-------0-0-0-2--3--5--]

         . . .       . . .         . .
e[-------------------------------------------]
b[-------------------------------------------]
g[-------------------------------------------]
d[-------------------------------------------]
a[-------------------------5-4-5-0-0-0-7--4--] x2
e[-3-2-3-0-0-0-3-2-3-0-0-0-------------------]
b[-------------------------------------------]

guitar 1 + 2 pre chorus 

e[-------------------------------------------]
b[-------------------------------------------]
g[-------------------------------------------]
d[-5-5-7-7-9-9-11-11---7-7-9-9-11-11-12-12---] 
a[-------------------------------------------]
e[-3-3-5-5-7-7-9--9----5-5-7-7-9--9--10-10---]
b[-------------------------------------------]


guitar 1 chorus lead

e[-------------------------------------------------------------]
b[---7-5-----7-5-7-8-7-----5-----------------------------------]
g[-4-------4-----------------7---0-7-6-0-6-4-0-2-4-0-4-6-0-6-7-]
d[-----------------------7-------------------------------------] x2
a[-------------------------------------------------------------]
e[-------------------------------------------------------------]
b[-------------------------------------------------------------]

guitar 2 chorus lead octave higher than ^^^

e[----14-12-----14-12-14-15-14-------12----]
b[-12--------12-------------------------15-]
g[--------------------------------14-------]
d[-----------------------------------------]
a[-----------------------------------------]
e[-----------------------------------------]
b[-----------------------------------------]

e[-----------------------------------------]
b[-----------------------------------------]
g[-0-19-18-0-18-16-0-14-16-0-16-18-0-18-19-]
d[-----------------------------------------] x2
a[-----------------------------------------]
e[-----------------------------------------]
b[-----------------------------------------]

guitar 3 chorus rythem
                        not right. theres a riff there 
                        VVV     which i cant make out
e[-----------------------------------------]
b[-----------------------------------------]
g[-----------------------------------------]
d[-9-------7------5-----4------------------] x2
a[-9-x32---7-x16--5-x8--4-x8---------------]
e[-7-------5------3-----2------------------]
b[-----------------------------------------]


guitar 1 + 2 breakdown/interlude 
           . . . .
e[----------------------------]
b[----------------------------]
g[----------------------------]
d[----------------------------] x7
a[---------0-3-4-5-7----------] 
e[---------0-3-4-5-5-7--------]
b[-6b---3b-----------5--------]

guitar 1 interlude part b?

let ring--------------------------]

e[----------------------------------]
b[----------------------------------]
g[----------------------------------]
d[----------------------------------]
a[----------------------------------] x2
e[---7-----7---6-9---7-----7---6-9--]
b[-0---7-8---3-----0---7-8---7------]

guitar 2 interlude part b?

e[----------------------------------]
b[----------------------------------]
g[----------------------------------]
d[----------------------------------]
a[-2--------------------------------]
e[-2--------------------------------]
b[-0--------------------------------]

guitar 1 + 2 interlude part c?
  ... ... ... ... ... ... ... ... ... ... ... ... ... ... ... ...
e[---------------------------------------------------------------]
b[---------------------------------------------------------------]
g[---------------------------------------------------------------]
d[---------------------------------------------------------------]
a[---------------------------------------------------------------]
e[----777---------777-----666-999-----777---------777-----666-999]
b[000-----777-888-----333---------000-----777-888-----777--------]

e[---------------------------------------------------------------]
b[---------------------------------------------------------------]
g[---------------------------------------------------------------]
d[---------------------------------------------------------------]
a[---------------------------------------------------------------]
e[----777---------777-----666-999-----777---------777-----666-999]
b[000-----777-888-----333---------000-----777-888-----777--------]


guitar 1 rythem solo

           . . . .
e[----------------------------]
b[----------------------------]
g[----------------------------]
d[----------------------------] x4
a[---------0-3-4-5-7----------]     
e[---------0-3-4-5-5-7--------]
b[-6b---3b-----------5--------]

e[----------------------------]
b[----------------------------]
g[----------------------------]
d[----------------------------]
a[---7------7------7----------] 
e[-0-5-7--0-5-7--0-5-7--------]
b[-----5------5------5--------]


guitar 2 lead solo (not 100% correct!)

e[-----------------------------------------------------------------]
b[-17b-----------------------18----20b-----------------------20----]
g[-----17b----------------------16-----19b----------------------17-]
d[------------------14-16-17------------------------17-19-20-------]
a[---------14-16-17------------------------17-19-20----------------]
e[-----------------------------------------------------------------]
b[-----------------------------------------------------------------]

not the right pattern but the notes are about right
e[-19-16-12-19-16-12--18-15-12-18-15-12--17-14-11-17-14-11-]
b[---------------------------------------------------------]
g[---------------------------------------------------------]
d[---------------------------------------------------------]
a[---------------------------------------------------------]
e[---------------------------------------------------------]
b[---------------------------------------------------------]

e[-------------------------------------------]
b[----------------------------18----18-------]
g[-------------------14-16-17----16----16\---]
d[----------14-16-17-------------------------]
a[-14-16-17----------------------------------]
e[-------------------------------------------]
b[-------------------------------------------]

guitar 1 + 2 pre chorus 
         . . .       . . .       . . .
e[----------------------------------------------]
b[----------------------------------------------]
g[----------------------------------------------]
d[----------------------------------------------]
a[----------------------------------------------]
e[-7-5-7-------7-5-7-------7-5-7----------------]
b[-------0-0-0-------0-0-0-------0-0-0-2--3--5--]

         . . .       . . .         . .
e[-------------------------------------------]
b[-------------------------------------------]
g[-------------------------------------------]
d[-------------------------------------------]
a[-------------------------5-4-5-0-0-0-7--4--] x2
e[-3-2-3-0-0-0-3-2-3-0-0-0-------------------]
b[-------------------------------------------]

guitar 1 + 2 pre chorus + solo (havent got this solo!)

e[-------------------------------------------]
b[-------------------------------------------]
g[-------------------------------------------]
d[-5-5-7-7-9-9-11-11---7-7-9-9-11-11-12-12---] 
a[-------------------------------------------]
e[-3-3-5-5-7-7-9--9----5-5-7-7-9--9--10-10---]
b[-------------------------------------------]


guitar 1 chorus lead

e[-------------------------------------------------------------]
b[---7-5-----7-5-7-8-7-----5-----------------------------------]
g[-4-------4-----------------7---0-7-6-0-6-4-0-2-4-0-4-6-0-6-7-]
d[-----------------------7-------------------------------------] x2
a[-------------------------------------------------------------]
e[-------------------------------------------------------------]
b[-------------------------------------------------------------]

guitar 2 chorus lead octave higher than ^^^

e[----14-12-----14-12-14-15-14-------12----]
b[-12--------12-------------------------15-]
g[--------------------------------14-------]
d[-----------------------------------------]
a[-----------------------------------------]
e[-----------------------------------------]
b[-----------------------------------------]

e[-----------------------------------------]
b[-----------------------------------------]
g[-0-19-18-0-18-16-0-14-16-0-16-18-0-18-19-]
d[-----------------------------------------] x2
a[-----------------------------------------]
e[-----------------------------------------]
b[-----------------------------------------]

guitar 3 chorus rythem
                        not right. theres a riff there 
                        VVV     which i cant make out
e[-----------------------------------------]
b[-----------------------------------------]
g[-----------------------------------------]
d[-9-------7------5-----4------------------] x2
a[-9-x32---7-x16--5-x8--4-x8---------------]
e[-7-------5------3-----2------------------]
b[-----------------------------------------]

guitar 1 + 2 outro
  ... ... ... ... ... ... ... ... ... ... ... ... ... ... ... ...
e[---------------------------------------------------------------]
b[---------------------------------------------------------------]
g[---------------------------------------------------------------]
d[---------------------------------------------------------------]
a[---------------------------------------------------------------]
e[----777---------777-----666-999-----777---------777-----666-999]
b[000-----777-888-----333---------000-----777-888-----777--------]

e[---------------------------------------------------------------]
b[---------------------------------------------------------------]
g[---------------------------------------------------------------]
d[---------------------------------------------------------------]
a[---------------------------------------------------------------]
e[----777---------777-----666-999-----777---------777-----666-999]
b[000-----777-888-----333---------000-----777-888-----777--------]


e[----------------------------]
b[----------------------------]
g[----------------------------]
d[----------------------------]
a[---------0-3-4-5-7----------] 
e[---------0-3-4-5-5-7--------]
b[-6b---3b-----------5--------]
                      (very small bend)
e[----------------------------]
b[----------------------------]
g[----------------------------]
d[----------------------------]
a[---7------7------7----------] 
e[-0-5-7--0-5-7--0-5----------]
b[-----5------5------5b-------]

e[----------------------------]
b[----------------------------]
g[----------------------------]
d[----------------------------]
a[-2--------------------------]
e[-2--------------------------]
b[-0--------------------------]

4. Into the Mouth of Hell We March

Guitar 1 - Lead
Guitar 2 - Rhythm
Guitar 3 - Harmonies

~~Riff A~~
Guitar 1  
e|--------------------------------------------------------------------------------------|
B|--------------------------------------------------------------------------------------|
G|-11b12r11--------11b12r11-------11-12-9~---11b12r11--------11b12r11-------11-12-16~---|
D|----------12-10-----------12-10---------------------12-10-----------12-10-------------|
A|--------------------------------------------------------------------------------------|
E|--------------------------------------------------------------------------------------|
B|--------------------------------------------------------------------------------------|

Guitar 2 (The muted strings are NOT nesessary, their just nice to play)
e|-------------------------------------------------------|
B|-------------------------------------------------------|
G|-------------------------------------------------------|
D|-------------------------------------------------------|
A|-3-3-3----3----3-3-3----5----7-7-7----7----7-7-7----5--|
E|-3-3-3----3----3-3-3----5----7-7-7----7----7-7-7----5--|
B|-1-1-1-XX-1-XX-1-1-1-XX-3-XX-5-5-5-XX-5-XX-5-5-5-XX-3--|

OR

(This is the proper way to play the backing for the intro but its much harder. It 
is on the Shogun DVD so
its definatly correct. I'll leave the other one on here incase you find this one 
difficult)

e|-------------------------------------------------------------|
B|-------------------------------------------------------------|
G|-------------------------------------------------------------|
D|-5-5-5----5----4-4-4-----------4-4-4----4h5----2-2-2---------|
A|-3-3-3----3----3-3-3----3/5----2-2-2----2------2-2-2----5----|
E|-X-X-X----X----X-X-X-----------0-0-0----0------0-0-0----5----|
B|-1-1-1-XX-1-XX-1-1-1-XX-1/3-XX-------XX-----XX-------XX-3-XX-|


~~Riff B~~
Guitar 1
e|---------------------------------------------|----------------------------------------------|
B|---------------------------------------------|----------------------------------------------|
G|---------------------------------------------|----------------------------------------------|
D|------------5--------4------------5--------2-|--------4----4-------2---2--------7----7------|
A|-------3---------3-----------3---------------|--------3----3-------3---3--------7----7------|
E|---------------------------------------3-----|-0-000----0----0-000---0---0-000----0----0-000|
B|-1-111---11---11---1---1-111---11---11---1---|----------------------------------------------|
PM . ...   ..   ..   .   . ...   ..   ..   .     . ...    .    . ...   .   . ...    .    . ...    .

----------|
----------|
----------|
--7----7--|
--5----5--|
----0-----|
----------|

Guitar 2 (Plays the first part with guitar 1 but then does this harmony with the second bit)
e|----------------------------------------------------------|
B|----------------------------------------------------------|
G|----------------------------------------------------------|
D|----------------------------------------------------------|
A|-------12---12-------10---10-------15---15-------14---14--|
E|-0-000----0----0-000----0----0-000----0----0-000----0-----|
B|----------------------------------------------------------|
PM . ...    .    . ...    .    . ...    .    . ...    .


~~Riff C~~
Guitar 1
e|------------------------------------------------------------------------------------------------|
B|------------------------------------------------------------------------------------------------|
G|------------------------------------------------------------------------------------------------|
D|------5-4-5-7-5-4-5-4--------5-4-5-7-5-4-5-4--------5-4-5-7-5-4-5-4--------5-4-5-7-5-4-5-4------|
A|-3-33-----------------5-3-33-----------------5-7-77-----------------5-7-77-----------------5----|
E|------------------------------------------------------------------------------------------------|
B|------------------------------------------------------------------------------------------------|

e|------------------------------|
B|------------------------------|
G|-5-4-2-4-2---2----------------|
D|-----------5---5-4-5-4-2------|
A|------------------------------|
E|------------------------------|
B|------------------------------|

Guitar 2
e|--------------------------------------------------------------------------------|
B|--------------------------------------------------------------------------------|
G|--------------------------------------------------------------------------------|
D|--------------------------------------------------------------------------------|
A|------3-3------3-3------3-3------5-5------7-7------7-7------7-7------5-5--------|
E|------3-3------3-3------3-3------5-5------7-7------7-7------7-7------5-5--------|
B|-1-11-1-1-1-11-1-1-1-11-1-1-1-11-3-3-5-55-5-5-5-55-5-5-5-55-5-5-5-55-3-3--------|
PM . ..     . ..     . ..     . ..     . ..     . ..     . ..     . ..

e|--------------------------------------------------------------------|
B|--------------------------------------------------------------------|
G|--------------------------------------------------------------------|
D|----------------------------------------------------------5--4-5----|
A|------3-3------3-3------3-3------5-5------7-7------7-7----5--4-5----|
E|------3-3------3-3------3-3------5-5------7-7------7-7----3--2-3----|
B|-1-11-1-1-1-11-1-1-1-11-1-1-1-11-3-3-5-55-5-5-5-55-5-5--------------|
PM . ..     . ..     . ..     . ..     . ..     . ..    

Guitar 3 
e|----------------------------------------------------------------------------------------------|
B|----------------------------------------------------------------------------------------------|
G|-----4-2-4-5-4-2-4-2--------4-2-4-5-4-2-4-2--------4-2-4-5-4-2-4-2--------4-2-4-5-4-2-4-2-----|
D|---------------------5----------------------5-2-22-----------------5-2-22-----------------5---|
A|-3-33------------------3-33-------------------------------------------------------------------|
E|----------------------------------------------------------------------------------------------|
B|----------------------------------------------------------------------------------------------|

e|------------------------------|
B|------------------------------|
G|-7-5-4-5-4---4----------------|
D|-----------7---7-5-7-5-4------|
A|------------------------------|
E|------------------------------|
B|------------------------------|


~~Riff D~~
Guitar 1
e|----------------------------------------------------------------|
B|--12---------------------12-------------------------------------|
G|-----12-11-12-9-7-(7h)9-----12-11-12-9-7-(7h)9--11-11/12\11-9---|
D|----------------------------------------------------------------|
A|----------------------------------------------------------------|
E|----------------------------------------------------------------|
B|----------------------------------------------------------------|

Guitar 2
e|--------------------------------------------------|
B|--------------------------------------------------|
G|--------------------------------------------------|
D|--------------------------------------------------|
A|-3-3-5--5-55-7-5-7--3-3-5--5-55-7-5-7-7-5---------|
E|-3-3-5--5-55-7-5-7--3-3-5--5-55-7-5-7-7-5---------|
B|-1-1-3--3-33-5-3-5--1-1-3--3-33-5-3-5-5-3---------|


~~Riff E~~
Guitar 1
e|---------------------------------------------------------|
B|---------------------------------------------------------|
G|-9-9-9h11-7-7-11-12-11-9---9-9-9h11-7-7-11-12-11-9-7-----|
D|---------------------------------------------------------|
A|---------------------------------------------------------|
E|---------------------------------------------------------|
B|---------------------------------------------------------|

Guitar 2
e|-------------------------------------------------------------------|
B|-8-8-8h10-7-7-10-12-10-8---8-8-8h10-7-7-10-12-10-8-7---------------|
G|-------------------------------------------------------------------|
D|-------------------------------------------------------------------|
A|-------------------------------------------------------------------|
E|-------------------------------------------------------------------|
B|-------------------------------------------------------------------|

Guitar 3
e|---------------------------12-12-12h14-10-10-14-15-14-12-10--------|
B|-------------------------------------------------------------------|
G|-------------------------------------------------------------------|
D|-------------------------------------------------------------------|
A|-------------------------------------------------------------------|
E|-------------------------------------------------------------------|
B|-------------------------------------------------------------------|


~~Riff F~~
Guitar 1 (There is a Hammer&PullOff bit in this riff sometimes)
e|-----------------------------------------------|
B|-12-------------12-----------------------------|
G|-------11-12~~--------11-12--14-12-11----------|
D|----14-------------14-----------------14-------|
A|-----------------------------------------------|
E|-----------------------------------------------|
B|-----------------------------------------------|

Guitar 2
e|---------------------------------------------------------------------|
B|---------------------------------------------------------------------|
G|---------------------------------------------------------------------|
D|---------------------------------------------------------------------|
A|-7---5---3---2--5--7-7-7-7/--5-5-5-5/--3-3-3-3--2-2-2-2--5-5-5-5-----|
E|-7---5---3---2--5--7-7-7-7/--5-5-5-5/--3-3-3-3--2-2-2-2--5-5-5-5-----|
B|-5---3---1---0--3--5-5-5-5/--3-3-3-3/--1-1-1-1--0-0-0-0--3-3-3-3-----|

e|----------------------------------------------------------------------------------------|
B|----------------------------------------------------------------------------------------|
G|----------------------------------------------------------------------------------------|
D|------------------9p7------------------------------/7p5-----------------------------5p4-|
A|-7-7-7-7-0h7h10p7----10p7h10p7p5h7-5-5-5-5-0h5h9p5-----9p5h9p5p3h5-3-3-3-3--0h3h7p3-----|
E|-7-7-7-7---------------------------5-5-5-5-------------------------3-3-3-3--------------|
B|-5-5-5-5---------------------------3-3-3-3-------------------------1-1-1-1--------------|

-----------|
-----------|
-----------|
-----------|
7p3h7p3p2h3|
-----------|
-----------|

e|--------------------------|
B|--------------------------|
G|--------------------------|
D|---------5-4---------4-5--|
A|-2-2-2-2-----5-5-5-5------|
E|-2-2-2-2-----5-5-5-5------|
B|-0-0-0-0-----3-3-3-3------|


~~Riff G~~
Guitar 1
e|-----------------------------------------------------------------------------------------------|
B|-----------------------------------------------------------------------------------------------|
G|-----------------------------------------------------------------------------------------------|
D|--------9-7---------------------9-7---------12~----------9-7-------------9--7---10--9----------|
A|-7-9-10-----10-9-10-7~---5-9-10-----10-9-10---------9-10-----10-9-10-7-----------------9-10-7--|
E|--------------------------------------------------8--------------------------------------------|
B|-----------------------------------------------------------------------------------------------|

e|------------------------------------------------------------------------------------------|
B|------------------------------------------------------------------------------------------|
G|------------------------------------------------------------------------------------------|
D|--------9-7---------------------9-7---------12~----------9-7------------9-7-9-12-9-12-14--|
A|-7-9-10-----10-9-10-7~---5-9-10-----10-9-10---------9-10-----10-9-10-7--------------------|
E|--------------------------------------------------8---------------------------------------|
B|------------------------------------------------------------------------------------------|

Guitar 2(Strum these with what ever pattern you feel like. Most things fit in)
e|----------------------------------------------|
B|----------------------------------------------|
G|----------------------------------------------|
D|----------------------------------------------|
A|-7---5---3---2--5----7---9---3---2--5--7/-----|
E|-7---5---3---2--5----7---9---3---2--5--7/-----|
B|-5---3---1---0--3----5---7---1---0--3--5/-----|

Guitar 3
e|------------------------------------------------------------------------------|
B|-------3------------------3---------3--------3--------------------------------|
G|---2-4---5-4-2-4------2-4---5-4-2-4------2-4---5-4-2-4-----7-5-4-11-7-11-12---|
D|-5---------------5--4----------------------------------5----------------------|
A|---------------------------------------3--------------------------------------|
E|------------------------------------------------------------------------------|
B|------------------------------------------------------------------------------|


~~Riff H~~
Guitar 2
e|-------------------------------------------------------------------------|-------------------|
B|-------------------------------------------------------------------------|-------------------|
G|-------------------------------------------------------------------------|-------------------|
D|---------------------------------------------------------------------0~--|-------------------|
A|---------------------------------------------------------------------0~--|-7-5-3-2-7-5-3-2---|
E|-000-0-000-0h5h7---0-000-0-000-0h7h8---0-000-0-000-0h8h10---0-000-00-----|-7-5-3-2-7-5-3-2---|
B|-------------------------------------------------------------------------|-5-3-1-0-5-3-1-0---|


~CKB SOLO~
Right.... This is gonna take a while... I'll write it in little, easier-to-learn chunks: 

e|------------------------------------------------------------|
B|-17171717161617171616161613131616131313131212131312121212---|
G|------------------------------------------------------------|
D|------------------------------------------------------------|
A|------------------------------------------------------------|
E|------------------------------------------------------------|
B|------------------------------------------------------------|

On this part, it is important to keep time. (these aren't triplets. count them in straight fours)
e|-201917---------------------------------------------------------|
B|--------201917--------------------------------------------------|
G|---------------191716-------------------------------------------|
D|----------------------191716------------------------------------|
A|-----------------------------191715-----------------------------|
E|------------------------------------19--1715-----15-------------|
B|--------------------------------------------1917---191715-17----|

e|-------------------------------------------------------------14h15p14h15p14--|
B|----------------------------------------------12h13p12h13p12-----------------|
G|-------------------------------11h12p11h12p11--------------------------------|
D|----------------13h14p13h14p13-----------------------------------------------|
A|-----------------------------------------------------------------------------|
E|-11h12p11h12p11--------------------------------------------------------------|
B|-----------------------------------------------------------------------------|

Not too sure on this bit....
e|-20171417-20p17p14-----------------------------------------|
B|-------------------20171417-20p17p14-----------------------|
G|-------------------------------------20p17p14--------------|
D|-----------------------------------------------20-17-14----|
A|-----------------------------------------------------------|
E|-----------------------------------------------------------|
B|-----------------------------------------------------------|

e|----------------------------------------------|
B|----------------------------------------------|
G|-----------9-8-9-11-12-11-12-14-12-11-12------|
D|-----9---9------------------------------------|
A|-7-----9--------------------------------------|
E|---0------------------------------------------|
B|----------------------------------------------|
Pm   .   .

I really cant work out the tapping lick. But if you play the tapping in the first 
solo in Becoming The
Dragon, that seems to fit well.

e|-32320000-53530000-75750000-87870000-1212111188111188778877-557755-----------|
B|------------------------------------------------------------------887755-----|
G|------------------------------------------------------------------------8----|
D|-----------------------------------------------------------------------------|
A|-----------------------------------------------------------------------------|
E|-----------------------------------------------------------------------------|
B|-----------------------------------------------------------------------------|

e|-151299-16131010-17141111-18151212--201917----------------------------------|
B|-------------------------------------------201917---------------------------|
G|--------------------------------------------------191716--------------------|
D|---------------------------------------------------------191716-------------|
A|----------------------------------------------------------------191715-14---|
E|----------------------------------------------------------------------------|
B|----------------------------------------------------------------------------|


~MKH SOLO~ (these notes are all triplets)
e|-12-8----8------------------------------------------------------------------------------------|
B|------12---12-8-12-8----8---------------------------------------------------------------------|
G|---------------------11---11-9-11-9----9------------------------------------------------------|
D|------------------------------------10---10-9-10-9----9-----------------------/10-9--/14-13---|
A|---------------------------------------------------12---12-10----/7-6--/10-9------------------|
E|----------------------------------------------------------------------------------------------|
B|----------------------------------------------------------------------------------------------|

e|------------------------------------------------------------------------------------------|
B|------------------------------------------------------------------------------------------|
G|-----------------------------------------------------------------121416121416-------------|
D|--------------------------131416131416--------------131416131416--------------131416131416|
A|-------------121415121415--------------121415121415---------------------------------------|
E|121415121415------------------------------------------------------------------------------|
B|------------------------------------------------------------------------------------------|

-------------|
-------------|
121416121416-|
-------------|
-------------|
-------------|
-------------|

e|--------/20-19---12----14----15----14----12----10----8-----7-------|
B|-----------------15b17-17b19-18b20-17b19-15b17-13b15-11b13-10b12---|
G|-/17-16------------------------------------------------------------|
D|-------------------------------------------------------------------|
A|-------------------------------------------------------------------|
E|-------------------------------------------------------------------|
B|-------------------------------------------------------------------|

e|-19p15------15h19p15--17p14------14h17p14--15p12------12h15p12--14p11------11h14p11---|
B|------17--17---------------15--15---------------13--13---------------12--12-----------|
G|--------16-------------------14-------------------12-------------------11-------------|
D|--------------------------------------------------------------------------------------|
A|--------------------------------------------------------------------------------------|
E|--------------------------------------------------------------------------------------|
B|--------------------------------------------------------------------------------------|

e|-19p15------15h19p15--17p14------14h17p14--15p12------12h15p12--17b19-15h17p15-(14b15)-----|
B|------17--17---------------15--15---------------13--13--------------------------15b17------|
G|--------16-------------------14-------------------12---------------------------------------|
D|-------------------------------------------------------------------------------------------|
A|-------------------------------------------------------------------------------------------|
E|-------------------------------------------------------------------------------------------|
B|-------------------------------------------------------------------------------------------|
MY GOD THAT WAS HARD!!


It's taken me ages so please enjoy and rate :P

5. Throes of Perdition

PH: pinch harmonic
BU: bend up
BR: bend return
PM: palm mute
h:  hammer on
p:  pull off
/:  slide up
\:  slide down
T:  tapping

guitar 1 (corey beaulieu)
guitar 2 (matt heafy)

intro
Guitar 1
    
E||-----------------------------------------------------|
B||-7--0--0--3--0--5--0--2--0--0--3--0--7-5-3-0-0-0-0---|
G||-----------------------------------------------------|
D||-----------------------------------------------------|
A||-----------------------------------------------------|
E||-----------------------------------------------------|
B||-----------------------------------------------------| X14

Guitar 2
    PM--------------------------------------------------|
E||-----------------------------------------------------|
B||-----------------------------------------------------|
G||-----------------------------------------------------|
D||-----------------------------------------------------|
A||-----------------------------------------------------|
E||-7--7--7--7--7--7--7--7--7--7--7--7--7-7-7-7-7-7-7---|
B||-----------------------------------------------------| X2

     PM-----------------------------------------------|  
E||---------------------------------------------------|
B||---------------------------------------------------|
G||---------------------------------------------------|
D||---------------------------------------------------|
A||---------------------------------------------------|
E||-5--5--5--5--5--5--5--5--5--5--5--5--5-5-5-5-5-5-5-|
B||---------------------------------------------------|

    PM--------------------------------------------------|
E||-----------------------------------------------------|
B||-----------------------------------------------------|
G||-----------------------------------------------------|
D||-----------------------------------------------------|
A||-----------------------------------------------------|
E||0--0--0--0--0--0--0--0--0-----0--0--0--0-0-0-0-0-0-0-|
B||-----------------------------------------------------|


     PM-------------------------------------------------|
E||-----------------------------------------------------|
B||-----------------------------------------------------|
G||-----------------------------------------------------|
D||-----------------------------------------------------|
A||-----------------------------------------------------|
E||3--3--3--3--3--3--3--3--3-----3--3--3--3-3-3-3-3-3-3-|
B||-----------------------------------------------------| X2

     PM-------------------------------------------------|
E||-----------------------------------------------------|
B||-----------------------------------------------------|
G||-----------------------------------------------------|
D||-----------------------------------------------------|
A||-----------------------------------------------------|
E||-----------------------------------------------------|
B||0--0--0--0--0--0--0--0--0-----0--0--0--0-0-0-0-0-0-0-| X2

    PM--------------------------------------------------|
E||-----------------------------------------------------|
B||-----------------------------------------------------|
G||-----------------------------------------------------|
D||-----------------------------------------------------|
A||-----------------------------------------------------|
E||-7--7--7--7--7--7--7--7--7--7--7--7--7-7-7-7-7-7-7---|
B||-----------------------------------------------------| X2

     PM-----------------------------------------------|  
E||---------------------------------------------------|
B||---------------------------------------------------|
G||---------------------------------------------------|
D||---------------------------------------------------|
A||---------------------------------------------------|
E||-5--5--5--5--5--5--5--5--5--5--5--5--5-5-5-5-5-5-5-|
B||---------------------------------------------------|

    PM--------------------------------------------------|
E||-----------------------------------------------------|
B||-----------------------------------------------------|
G||-----------------------------------------------------|
D||-----------------------------------------------------|
A||-----------------------------------------------------|
E||0--0--0--0--0--0--0--0--0-----0--0--0--0-0-0-0-0-0-0-|
B||-----------------------------------------------------|

     PM-------------------------------------------------|
E||-----------------------------------------------------|
B||-----------------------------------------------------|
G||-----------------------------------------------------|
D||-----------------------------------------------------|
A||-----------------------------------------------------|
E||3--3--3--3--3--3--3--3--3-----3--3--3--3-3-3-3-3-3-3-|
B||-----------------------------------------------------| X2


both guitars
E||---------------------------------------------------|
B||---------------------------------------------------|
G||---------------------------------------------------|
D||---------------------------------------------------|
A||-2--2--2--2----2--2--2--2--2----2--2--2------------|
E||-2--2--2--2----2--2--2--2--2----2--2--2------------|
B||-0--0--0--0----0--0--0--0--0----0--0--0------------|


verse 1
both guitars
E||---------------------------------------------------|
B||---------------------------------------------------|
G||---------------------------------------------------|
D||---------------------------------------------------|
A||---------------------------------------------------|
E||---------------------------------------------------|
B||-7--0--0--3--0--5--0--2--0--0--3--0--7--5--3--0----| X8

verse 2
both guitars
E||---------------------------------------------------|
B||---------------------------------------------------|
G||---8-8--8-8--8-----------------4-4--4-4--4---------|
D||---9-9--9-9--9---8-8--8-8--8---5-5--5-5--5---------|
A||---9-9--9-9--9---9-9--9-9--9---5-5--5-5--5---------|
E||---7-7--7-7--7---6-6--6-6--6---3-3--3-3--3---------|
||----------------------------------------------------|

guitar 1

E||-------------|
B||-------------|
G||-------------|
D||------17~-16~|
A||-/16---------|
E||-------------|
B||-------------|

guitar 2

E||-------------|
B||-------------|
G||-------------|
D||--1----3-----|
A||--2----4-----|
E||--2----4-----|
B||--0----2-----|


both guitars
E||---------------------------------------------------|
B||---------------------------------------------------|
G||---8-8--8-8--8-----------------4-4--4-4--4---------|
D||---9-9--9-9--9---8-8--8-8--8---5-5--5-5--5---------|
A||---9-9--9-9--9---9-9--9-9--9---5-5--5-5--5---------|
E||---7-7--7-7--7---6-6--6-6--6---3-3--3-3--3---------|
||----------------------------------------------------|


E||------------------|
B||------------------|
G||------------------|
D||--2-2-2-2-2-2-2-2-|
A||--3-3-3-3-3-3-3-3-|
E||------------------|
B||------------------|


verse 3
guitar 1

E||----------------------------------------------------------|
B||----------------------------------------------------------|
G||-----9BU(11BR9)-----9BU(11BR9)-----6-7-6~~----6--4--3-3~~-|
D||--9--------------8---------------5----------5-------------|
A||----------------------------------------------------------|
E||----------------------------------------------------------|
B||----------------------------------------------------------|


verse 4
both guitars
E||----------------------------------------------|
B||----------------------------------------------|
G||----------------------------------------------|
D||----------------------------------------------|
A||----------------------------------------------|
E||--7p5-----7p5------7p5-----7p5-----7p5--5h8~~-|
B||------5p0------5p0-----5p0-----5p0------------|


E||-----------------------------------------|
B||-----------------------------------------|
G||-----------------------------------------|
D||-----------------------------------------|
A||-----------------------------------------|
E||-7p5-----7p5-----7p5-----7p5-----7p5-5h8-|
B||-----5p0-----5p0-----5p0-----5p0---------|

E||-----------------------------------------|
B||-----------------------------------------|
G||-----------------------------------------|
D||-----------------------------------------|
A||-7p5-----7p5-----7p5-----7p5-----7p5-5h8-|
E||-----------------------------------------|
B||-----5p0-----5p0-----5p0-----5p0---------|

E||------------------------------------------|
B||------------------------------------------|
G||------------------------------------------|
D||------------------------------------------|
A||-9p7-----9p7-----9p7-----9p7-----9p7-7p10-|
E||------------------------------------------|
B||-----7p0-----7p0-----7p0-----7p0----------|


verse 5
both gutars
   PM-------------------------------|
E||---------------------------------|
B||---------------------------------|
G||---------------------------------|
D||-----------------4-4-4-4-4-4-4-4-|
A||-----------------5-5-5-5-5-5-5-5-|
E||-7-7-7-7-7-7-7-7-5-5-5-5-5-5-5-5-|
B||-0-0-0-0-0-0-0-0-3-3-3-3-3-3-3-3-|

chorus
guitar 1

E||-----------------------------------------------------------------------|
B||-----------------------------------------------------------------------|
G||-11-11-11-11-9-9-9-9-11-11-11-11-9-9-9-9-2-2-2/4-4-4-4-4---------------|
D||---------------------------------------------------------2-2-2/4-4-4-4-|
A||--9--9--9--9-7-7-7-7--9--9--9--9-7-7-7-7-------------------------------|
E||-----------------------------------------------------------------------|
B||-----------------------------------------------------------------------|

E||--------------------------------|
B||--------------------------------|
G||-4-4-4-4-6-6-6-6-7-7-7-7-9-9-9-9|
D||--------------------------------|
A||-2-2-2-2-4-4-4-4-5-5-5-5-7-7-7-7|
E||--------------------------------|
B||--------------------------------|


guitar 2 (chorus rhythm)
E||-----------------------------------------------|
B||---x16times---x8times---x8times---x16times-----|
G||--8----------6---------1---------4-------------|
D||--9----------7---------2---------5-------------|
A||--9----------7---------2---------5-------------|
E||--7----------5---------0---------3-------------|
B||-----------------------------------------------|

both guitars
verse 6

E||---------------------------------------------|
B||---------------------------------------------|
G||---------------------------------------------|
D||---------------------------------------------|
A||---------------------------------------------|
E||-5h7-----5h7-----5h8p5-5h7-----5h7-----5h8p5-|
B||-----5p0-----5p0-----------5p0-----5p0-------|



verse 7
both guitars (play 4 times)
        PM---   -       -----   -       -----   -----   -----
E||-------------------------------------------------------------------|
B||-------------------------------------------------------------------|
G||-------------------------------------------------------------------|
D||-------------------------------------------------------------------|
A||-------------------------------------------------------------------|
E||---7-------7---7\5-3-------3---3/5-2-------2-------2-------2/5-3-3-|
B||---8-8-8-8-8-8-8\7-5-5-5-5-5-5-5/7-0-0-0-0-0-0-0-0-3-3-3-3-3/7-5-5-|


verse 8
both guitars (PLAY 4 TIMES)


     PM------------------------  PM  PM     PM------       PM  PM
E||-----------------------------|---------|--------------|---------|
B||-----------------------------|---------|--------------|---------|
G||-----------------------------|---------|--------------|---------|
D||-----------------------------|---4---4-|--------------|---4---4-|
A||-----------------------------|---5---5-|--------------|---5---5-|
E||--7-7777-7-7-7777-7-7-7777-7-|---5---5-|-7-7777-7--5PH|---5---5-|
B||--0-0000-0-0-0000-0-0-0000-0-|-0-3-0-3-|-0-0000-0-----|-0-3-0-3-|
                                play 1st    play 2nd      play 3rd 
                                 time        time         time

E||-------------------------|
B||-------------------------|
G||-------------------------|
D||-5-4---4-----------------|
A||-----7---7-5-7-5-4-5-4---|
E||-----------------------7-|
B||-------------------------|
   play 4th time



solo 1 guitar 1 (CKB)

E||----------------------------------------------------------------/14-12~|
B||-----------------------------------------------------------------------|
G||---17\----4~~-6-7-9-11~~--11h12p11-9-7-6--6h-7p6-------6h7p6-----------|
D||-------------------------------------------------7~~~--------7---------|
A||-----------------------------------------------------------------------|
E||-----------------------------------------------------------------------|
B||-----------------------------------------------------------------------|


ive transcribed this bit for tapping and picking to make it easier

      T         T    T    T    T    T    T
E||--------------------------------------------------|
B||--12p8p3h8--15p8-14p8-12p8-15p8-15p8-14p8---------|
G||--------------------------------------------------|
D||--------------------------------------------------|
A||--------------------------------------------------|
E||--------------------------------------------------|
B||--------------------------------------------------|

      T          T     T     T     T          T
E||--------------------------------------------------|
B||--15p12p7h12-19p12-17p12-15p12-19p12p7h12-17p12---|
G||--------------------------------------------------|
D||--------------------------------------------------|
A||--------------------------------------------------|
E||--------------------------------------------------|
B||--------------------------------------------------|

      T           T     T     T     T           T
E||--------------------------------------------------|
B||--19p15p10h15-22p15-21p15-19p15-22p15p10h15-21p15-|
G||--------------------------------------------------|
D||--------------------------------------------------|
A||--------------------------------------------------|
E||--------------------------------------------------|
B||--------------------------------------------------|

or you can play it like this
E||--7-------10---9---7---10---10---9---|
B||----8---8----8---8---8----8----8---8-|
G||------7------------------------------|
D||-------------------------------------|
A||-------------------------------------|
E||-------------------------------------|
B||-------------------------------------|

E||--10----------14----12----10----------14----12----|
B||-----12----12----12----12----12----12----12----12-|
G||--------11----------------------11----------------|
D||--------------------------------------------------|
A||--------------------------------------------------|
E||--------------------------------------------------|
B||--------------------------------------------------|

E||--14----------17----16----14----------17----16----|
B||-----15----15----15----15----15----15----15----15-|
G||--------14----------------------14----------------|
D||--------------------------------------------------|
A||--------------------------------------------------|
E||--------------------------------------------------|
B||--------------------------------------------------|


E||---17-15-14----------19-17-15----------19--17--19--21--19--21-21BU(22)|
B||------------17-15-14----------19-17-15--------------------------------|
G||----------------------------------------------------------------------|
D||----------------------------------------------------------------------|
A||----------------------------------------------------------------------|
E||----------------------------------------------------------------------|
B||----------------------------------------------------------------------|


solo 2 guitar 2 (MKH)

E||-15-14-12----------------------------------------------------------|
B||----------15-14-12-------------------------------------------------|
G||-------------------14-12-11----------------------------------------|
D||----------------------------14-12-11-------------------------------|
A||-------------------------------------14-12-10------------------12~-|
E||----------------------------------------------14-12-10--9~-/10-----|
B||-------------------------------------------------------------------|

E||-----------------------------------|
B||-----------------------------------|
G||-----------------------------------|
D||-----------14BU(16)(14)-12-14-16---|
A||-----------------------------------|
E||--/9--10---------------------------|
B||-----------------------------------|

                                                  
E||--14-10----------------------------------------------------------------|
B||--------10-12----------------------------------------------------------|
G||--------------11-12-11-------------------------------------------------|
D||-----------------------12-10-------------------------------------11h12-|
A||-----------------------------14-12-10-12-14-12----------10-12-14-------|
E||-----------------------------------------------10-12-14----------------|
B||-----------------------------------------------------------------------|

E||----------10----------------10-12-13-|
B||-10-11-12----12-11-10-11-12----------|
G||-------------------------------------|
D||-------------------------------------| x2
A||-------------------------------------|
E||-------------------------------------|
B||-------------------------------------|

E||----------14----------------19-------|     |-17BU(19)~~---|
B||-15-17-18----18-17-15-17-18----18-17-|     |--------------|
G||-------------------------------------|     |--------------|
D||-------------------------------------| x2  |--------------|
A||-------------------------------------|     |--------------|
E||-------------------------------------|     |--------------|
B||-------------------------------------|     |--------------|

solo rhythm (plays throughout solo)
     PM------ ----------- ------- --------- --------- -------
E||------------------------------------------------------------|
B||------------------------------------------------------------|
G||------------------------------------------------------------|
D||------------------------------------------------------------|
A||------------------------------------------------------------|
E||----------7-----------7-------7---------7---------7-------7-|
B||--8-8-8-8-8-8-8-8-8-8-8-8-8-8-8-5-5-5-5-5-5-5-5-5-5-5-5-5-5-|

     PM------ ----------- ------- --------- --------- -------
E||------------------------------------------------------------|
B||------------------------------------------------------------|
G||------------------------------------------------------------|
D||------------------------------------------------------------|
A||------------------------------------------------------------|
E||----------2-----------2-------2---------2---------2-------2-|
B||--0-0-0-0-0-0-0-0-0-0-0-0-0-0-0-3-3-3-3-3-3-3-3-3-3-3-3-3-3-|


outro 
both guitars
E||---------------------------|
B||---------------------------|
G||---------------------------|
D||---------------------------|
A||---------------8~~-----9~~~| hold last chord
E||---7~~---5~~---9~~-----7~~~| till end
B||---8~~---7~~---------------|

song in order:
intro
verse 1
verse 2
verse 3 X2
verse 4
verse 2
verse 3 X2
verse 4
verse 5
chorus
verse 6
chorus
verse 6
verse 7
verse 8
solo 1/ guitar 1(CKB)
solo 2/ guitar 2(MKH)
verse 8
chorus X2
verse 6
chorus
verse 6
chorus
verse 6
verse 1
outro

thats the entire song
enjoy!!!!! :D

6. Insurrection

e|-----------------------------------------------------------------|
B|-----------------------------------------------------------------|
G|-----------------------------------------------------------------|
D|----------------------------9------------------------------------|
A|-8p7---10---7-----------0-7---7-5h8-7~-----------------3h5p2h3p2~
E|-----0----0---0-000-000-----------------0-000-0-000-000----------|
       .    .   . ... ...                 . ... . ... ...
e|-----------------------------------------------------------------|
B|-----------------------------------------------------------------|
G|-----------------------------------------------------------------|
D|-----------------------------------------------------------------|
A|-------3-2-—3-2—-3-55--------------------------------------------
E|4-3-1-0-1-11-1-11-—33-----------------------------------x2
  . . . . . .. . ..      VERSE guitars one and two
e|----------------------------------------------ending one!|-----------|
B|----------------------------------------------|------CKB-|-----MKH---|
G|----------------------------------------------|----------|-----------|
D|----------------------------------------------|----------|-----------|
A|3p2---5p2-----------------------3p2---5p2-----|-----8-7--|----12-10--|
E-1p0-0-3p0-0-0-0-0-0-000-000-000-1p0-0-3p0-000-|0000----8—|0000-----12|       
      .     . . . . . ... ... ...     .     ...  ....       ....
e|-ending two!-----------|---------------------|
B|-------------CKB-------|------MKH------------|
G|-----------------------|---------------------| end on: 1,2,1,2
D|-----6-9------7-10-----|-----10-13-----11-14-|
A|---------5-8-----------|----------9-12-------|
E|4-7--------------------|-8-11----------------|
  . .  . . . .  . .        . .  . . . .  .  .
                           PRE CHORUS 1     
e|-----------------------------------------|-----------------------|
B|-----------------------------------------|--Ending one-----------|
G|-----------------------------------------|----------CKB&MKH------|
D|7—---9--10------12--10--9---7----9---10--|----9------------------|
A|0-00-0-0-0-0000-0-0-0-0-0-0-8-88-8-8-8-88|-88-8-8----------------|
E|-----------------------------------------|-------8---------------|
    ..   .   ....   .   .   .   ..   .   ..  ..   .
e|-----------------|---------------------|
B|-ending two--CKB-|--MKH----------------|
G|-9-7----7-9-10-9-|12-10----10-12-14-12-|
D|-----10----------|------12-------------|
A|-----------------|---------------------|
E|-----------------|---------------------|
      
e|ending three-------|-------------------------|
B|-------CKB---------|-------MKH---------------|
G|-9-7---------------|-12-10-------------------|
D|-----10-9-7--------|-------14-12-10----------| End on= 1,2,1,3
A|------------10-8-7-|----------------14-12-10-|
E|-------------------|-------------------------|
                        CHORUS 
E|-----------------------------------------------------------------|
B|---------------------CKB&MKH-------------------------------------|
G|-----------------------------------------------------------------|
D|9---10-9---7-9-10-9-7-9------9----14-13-10-9-7---play twice------|
A|7---8--7---5-7-8--7-5-7-2222-7----12-11-8--7-5-------------------|
E|--00-----00-------------0000---00--------------------------------|
    ..     ..             ....   ..
			Repeat: Intro – Verse – Pre Chorus – Chorus


                        BRIDGE PART ONE
e|--------------------------------------------------------------------|
B|------------CKB-----------------------------------------------------|
G|----------------------------------------------------------2---4-----|
D|--2-3—--0-2--—2--—3-2-3---2---1---2-3---0-2---2---3-2-3-------------|
A|--------------------------------------------------------------------|play twice
E|0-----0-----0--—1-------1---1---4-----4-----4---1-------1---1-------|
  . . .. . .. .. . . . .   .   . . . . . . . . . . . . .   .
 BRIGDE PART TWO is the same as part one but now only mute the notes on the low E string
 MKH BRIDGE PART TWO:     Matt doesn’t play anything in bridge part one
e|-----------------------------------------------------------------|
B|-----------------------------------------------------------------|
G|-----------------------------------------------------------------|
D|-----------------------------------------------------------------|
A|-----------------------------------------------------------------|
E|000000000111111114444444411111111—x2-----------------------------|
  …..............................
                            PRE BREAKDOWN

CKB is the Pre breakdown the same as brodge part one, but now mute nothing

      
e|----------------------------MKH----------------------------------|
B|-----------------------------------------------------------------|
G|-----------------------------------------------------------------|
D|23632363---------------------------------------------------------|
A|-----------------------------------------------------------------|
E|01410141---------------------------------------------------------|
                             BREAKDOWN
e|-----------------------------------------------------------------|
B|-----------------------------------------------------------------|
G|-----------MKH & CKB---------------------------------------------|
D|-------------------------pick every note 24 times----------------|
A|-----------------------------------------------------------------|
E|01410141---------------------------------------------------------|
                           SOLO BACKING
e|--------------------------------------------part one-------------|
B|-----------------------------------------------------------------|
G|-------------------------------------------------------------x2--|
D|2-0-2-3---2---0---2---3-6-3-2-3-2-0-2-3---2---0---2---3----------|
A|2-0-2-3---2---0---2---3-6-3-2-3-2-0-2-3---2---0---2---3----------|
E|--------0---0---0---0-------------------0---0---0---0----4-5-----|
          .   .   .   .                   .   .   .   .

play the part above twice and than this:
e|-pt2-|
B|-----|  play it like this: 1,1,2,1,1,2
G|-----|
D|3-6-7| 
A|-----|
E|1-4-5|
                             SOLO CKB
e|---------------------------------------------------------------------------|
B|-------------------------------------------------1719201917----------171920|
G|-------------------------------141617------161719----------1917161719------|
D|------------141617-------141617------161719--------------------------------|
A|------121415------141517---------------------------------------------------|
E|121415---------------------------------------------------------------------|
   . . . . . . . . . . . . . . .    
e|1719201917--------17-1717/16161616/13131313/121212-t16p13p12t16p12t16p13p12|
B|----------20-20fb----------------------------------------------------------|
G|---------------------------------------------------------------------------|
D|---------------------------------------------------------------------------|
A|---------------------------------------------------------------------------|
E|---------------------------------------------------------------------------|
      
e|----------------------------------------------------------|----harmony CKB-|
B|t15p13p12t15p12t15p13p12----------------------------------|----------------|
G|----------------------------------------------------------|-----------1013-|
D|---------------------t12p10p9t12p9t12p10p9----------------|----------------|
A|---------------------------------------t11p8p7t11p8p7t11p7|---14171114-----|
E|----------------------------------------------------------|1215------------|
                                                            . .      . .
e|-----------1316—12/1919/2424--24-22h24p22-22-20-19-20-22-//22-20h22p20-----|
B|----1215912----------------------------------------------------------------|
G|---------------------------------------------------------------------------|
D|1215-----------------------------------------------------------------------|
A|---------------------------------------------------------------------------|
E|---------------------------------------------------------------------------|
  . .     . .
e|19h20p19----|------------------------------10-13---------------------------|
B|---------18-|----------------------9-12-6-9---------harmony MKH------------|
G|------------|--------------7-10-----------------9/1616/21--21-19h21p19-----|
D|-harmonieCKB|------------------9-12----------------------------------------|
A|------------|----11-14-8-11------------------------------------------------|
E|------------|8-12----------------------------------------------------------|
               . .       .  .     . .     . .


e|-------------harmony MKH------------------------|
B|------------------------------------------------|
G|19-17-16-17-19-//19-17h19p17---16h17p16---------|
D|----------------------------18----------15------|
A|------------------------------------------------|
E|------------------------------------------------|
  Continue solo CKB:
e|13-8-------------------8-17-13----------------------201917---------------------|
B|----10---------------10-------13--------------------------181715---------------|
G|------10-----------10-----------14----------------14------------171614161413---|
D|--------10-------10---------------15------------15-----------------------------|
A|----------12-8-12-------------------15--------15-------------------------------|
E|--------------------------------------17-13-17---------------------------------|
     
                            SOLO MKH
e|-----------------------------------------------------------|
B|-----------------------------------------------------------|
G|-------------------------------------14-13-10-9-109797-----|
D|------------------------------------------------------1097-|
A|12-11-8-7--87578---12-11-14-14b^b^b^-----------------------|
E|----------------875----------------------------------------|
      
e|--------------------------------------------------------------------------|
B|13101213101215121315121317131517131518151718151721171821171822-22-21-18-17|
G|--------------------------------------------------------------------------|
D|--------------------------------------------------------------------------|
A|--------------------------------------------------------------------------|
E|--------------------------------------------------------------------------|
      
e|16h17p16p13h16p13----------------------------------------------------------|
B|-----------------17h18p15h17-----------------------------------------------|
G|----------------------------16h17p16p14h16p14p13h14p13--13-----------------|
D|------------------------------------------------------15—15p14h15p12h14—12-|
A|-----------------------------------------------------------------------15--|
E|---------------------------------------------------------------------------|
      
e|---------------------------------|
B|---------------------------------|
G|---------------------------------|
D|---------------------------------|
A|15p14h15p12h14h15p14p12----------|
E|-----------------------13-12-10-5|
                          LAST HARMONY:CKB
e|t8p5h7 eight times-t7p4h5 6 times—10fb---------------------------|
B|-----------------------------------------------------------------|
G|-----------------------------------------------------------------|
D|-----------------------------------------------------------------|
A|-----------------------------------------------------------------|
E|-----------------------------------------------------------------|
                          LAST HARMONY:MKH
e|t12p8h10 8 times—t10p7h8 6 times-17fb----------------------------|
B|-----------------------------------------------------------------|
G|-----------------------------------------------------------------|
D|-----------------------------------------------------------------|
A|-----------------------------------------------------------------|
E|-----------------------------------------------------------------|
      PLAY CHORUS TWICE THAN INTRO RIFF TWICE AND END ON:
e|-----------------------------------------------------------------|
B|-----------------------------------------------------------------|
G|-----------------------------------------------------------------|
D|-----------------------------------------------------------------|
A|---------333-----------------------------------------------------|
E|0-000-0--111-----------------------------------------------------|
  . ... .  

7. The Calamity

Intro, Played 2x 
e|---------------------------------|---------------------------------|
b|---------------------------------|---------------------------------|
G|-7-5-0-7-5-0-7-5-0-7-5-0-7-5-0-0-|-8-5-0-8-5-0-8-5-0-8-5-0-8-5-0-0-|
D|---------------------------------|---------------------------------|
A|---------------------------------|---------------------------------|
E|---------------------------------|---------------------------------|
B|---------------------------------|---------------------------------|


e|---------------------------------|---------------------------------|
b|---------------------------------|---------------------------------|
G|-5-3-0-5-3-0-5-3-0-5-3-0-5-3-0-0-|-3-3-3-3-3-3-5-5-----------------|
D|---------------------------------|-----------------3-3-3-3-3-3-3-3-|
A|---------------------------------|---------------------------------|
E|---------------------------------|---------------------------------|
B|---------------------------------|---------------------------------|


Verse Riff 1- Guitar 1, with PM on E string (not chords)
e|---------------------------------|---------------------------------|
b|---------------------------------|---------------------------------|
G|---------------------------------|---------------------------------|
D|-5-5-5-5-----------------5-5-5-5-|-----------------5-5-----5-5-----|
A|-5-5-5-5-----------------5-5-5-5-|-----------------5-5-----5-5-----|
E|-3-3-3-3-3-3-3-3-3-3-3-3-3-3-3-3-|-3-3-3-3-3-3-3-3-3-3-3-3-3-3-3-3-|
B|---------------------------------|---------------------------------|

e|---------------------------------|---------------------------------|
b|---------------------------------|---------------------------------|
G|---------------------------------|---------------------------------|
D|-6-6-6-6-----------------6-6-6-6-|-----------------6-6-----6-6-----|
A|-6-6-6-6-----------------6-6-6-6-|-----------------6-6-----6-6-----|
E|-4-4-4-4-4-4-4-4-4-4-4-4-4-4-4-4-|-4-4-4-4-4-4-4-4-4-4-4-4-4-4-4-4-|
B|---------------------------------|---------------------------------|

e|---------------------------------|---------------------------------|
b|---------------------------------|---------------------------------|
G|---------------------------------|---------------------------------|
D|-3-3-3-3-----------------3-3-3-3-|-----------------3-3-----3-3-----|
A|-3-3-3-3-----------------3-3-3-3-|-----------------3-3-----3-3-----|
E|-1-1-1-1-1-1-1-1-1-1-1-1-1-1-1-1-|-1-1-1-1-1-1-1-1-1-1-1-1-1-1-1-1-|
B|---------------------------------|---------------------------------|

e|---------------------------------|---------------------------------|
b|---------------------------------|---------------------------------|
G|---------------------------------|---------------------------------|
D|-5-5-5-5-----------------5-5-5-5-|-----------------5-5-----5-5-----|
A|-5-5-5-5-----------------5-5-5-5-|-----------------5-5-----5-5-----|
E|-3-3-3-3-3-3-3-3-3-3-3-3-3-3-3-3-|-3-3-3-3-3-3-3-3-3-3-3-3-3-3-3-3-|
B|---------------------------------|---------------------------------|


Repeat Verse Riff 1, while Guitar 2 plays:
Verse Riff 2
e|----------|---------|----------------|--------------|--------|-------|----------|
b|----------|---------|----------------|--------------|--------|-------|----------|
G|-4--4/5\4-|-7----10-|-7/8\7--7/8\7-7-|-/10-10-12-13-|-13-----|-10----|-4--7/8\7-|
D|----------|---------|----------------|--------------|--------|-------|----------|
A|-2--2/3\2-|-5----8--|-5/6\5--5/6\5-5-|-/8--8--10-11-|-11-----|-8-----|-2--5/6\5-|
E|----------|---------|----------------|--------------|--------|-------|----------|
B|----------|---------|----------------|--------------|--------|-------|----------|


(0:43) Guitar 1 replays intro as before while 
Guitar 2 plays on low strings:

PM Riff (play 2x)
A|---------------------------------|---------------------------------|
E|-3-3-3-3-3-3-3-3-3-3-3-3-3-3-3-3-|---------------------------------|
B|---------------------------------|-4-4-4-4-4-4-4-4-6-6-6-6-6-6-6-6-|

A|---------------------------------|---------------------------------|
E|-3-3-3-3-3-3-6-6-----------------|-3-3-3-3-3-3-3-3-6-6-6-6-4-4-4-4-|
B|-----------------6-6-6-6-6-6-6-6-|---------------------------------| 

Chorus -
Guitar 1  
e|-----------------|-----------------|-----------------|-----------------|
b|-----------------|-----------------|-----------------|-----------------|
G|-----------------|-----------------|-----------------|-----------------|
D|-5-5-5-5-5-5-5-5-|-3-3-3-3-3-3-3-3-|-----------------|-----------------|
A|-5-5-5-5-5-5-5-5-|-3-3-3-3-3-3-3-3-|-3-3-3-3-3-3-3-3-|-5-5-5-5-5-5-5-5-|
E|-3-3-3-3-3-3-3-3-|-1-1-1-1-1-1-1-1-|-3-3-3-3-3-3-3-3-|-5-5-5-5-5-5-5-5-|
B|-----------------|-----------------|-1-1-1-1-1-1-1-1-|-3-3-3-3-3-3-3-3-|
 | Guitar 2
e|-----------------|-----------------|-----------------|----------------|
b|-----------------|-----------------|-----------------|----------------|
G|---------------8-|-5---------------|-5-------8--5--8-|-7---5----------|
D|-5-------5--8----|-----8---7---8---|-----------------|---------8---7--|
A|-----------------|-----------------|-----------------|----------------|
E|-----------------|-----------------|-----------------|----------------|
B|-----------------|-----------------|-----------------|----------------|
  
   Guitar 1
e|-----------------|-----------------|----------|----------|
b|-----------------|-----------------|----------|----------|
G|-----------------|-----------------|----------|----------|
D|-5-5-5-5-5-5-5-5-|-3-3-3-3-3-3-3-3-|----------|----------|
A|-5-5-5-5-5-5-5-5-|-3-3-3-3-3-3-3-3-|-3--------|-5--------|
E|-3-3-3-3-3-3-3-3-|-1-1-1-1-1-1-1-1-|-3--------|-5--------|
B|-----------------|-----------------|-1--------|-3--------|
 | Guitar 2
e|-----------------|-----------------|----------|------/14-|
b|-----------------|-----------------|----------|-----7----|
G|---------8-----8-|-5---------------|-5---8-5-8|-7--------|
D|-5----------5----|-----8---7---8---|----------|----------|
A|-----------------|-----------------|----------|----------|
E|-----------------|-----------------|----------|----------|
B|-----------------|-----------------|----------|----------|

   Guitar 1 (while Guitar 2 repeats)
e|--------------|--------------|-----------------|-----------------|
b|--------------|--------------|-----------------|-----------------|
G|--------------|--------------|-5-5-5-5-5-5-5-5-|-7-7-7-7-7-7-7-7-|
D|-5-5-5-5-5----|-3-3-3-3-3----|-5-5-5-5-5-5-5-5-|-7-7-7-7-7-7-7-7-|
A|-5-5-5-5-5----|-3-3-3-3-3----|-3-3-3-3-3-3-3-3-|-5-5-5-5-5-5-5-5-|
E|-3-3-3-3-3----|-1-1-1-1-1----|-----------------|-----------------|
B|--------------|--------------|-----------------|-----------------|

e|-----------------|-----------------|----------|----------|
b|-----------------|-----------------|----------|----------|
G|-----------------|-----------------|----------|----------|
D|-5-5-5-5-5-5-5-5-|-3-3-3-3-3-3-3-3-|----------|----------|
A|-5-5-5-5-5-5-5-5-|-3-3-3-3-3-3-3-3-|-3--------|-5--------|
E|-3-3-3-3-3-3-3-3-|-1-1-1-1-1-1-1-1-|-3--------|-5--------|
B|-----------------|-----------------|-1--------|-3--------| End Chorus


Intermediate Riff
D|---------------------------------|---------------------------------|
A|---------3-3-3-3-----------------|---------3-3-3-3---------5-5-5-5-|
E|-------------------------3-3-3-3-|---------------------------------|
B|-1-1-1-1---------1-1-1-1---------|-3-3-3-3---------3-3-3-3---------|

D|---------------------------------|---------------------------------|
A|-------------------------6-6-6-6-|---------------------------------|
E|---------3-3-3-3-----------------|---------4-4-4-4---------3-3-3-3-|
B|-4-4-4-4---------4-4-4-4---------|-6-6-6-6---------4-4-4-4---------|


Second Verse:
Guitar 1 - Verse Riff 1, Guitar 2 - Verse Riff 2, play 2x

Guitar 1 - Intro Riff, Guitar 2 - PM riff


Play Chorus again


Play Intermediate Riff 
then
Guitar 1 Repeats that riff 3x with 
Guitar 2 holding each lower note:
D|--------|--------|--------|--------|
A|--------|--------|--------|--------|
E|--------|--------|--------|--------|
B|-1------|-3------|-4------|-6---4--|

OK, heres the solo. I had to rewrite it several times to get picthes right. 
Its based around G Phrygian (key of Eb).

Solo (some areas are harmonizer):
e|-----------------------------------------------------------------------------------|
b|----------------------------------------------------------------------13-12-10-12~-|
G|----------------------------------------------------10-11-12-10-11-12-13-12-10-12~-|
D|-----------------------------------10-11-13-10-11-13-------------------------------|
A|--------------10-11-13-10-11-13------------------------------------------------|
E|-8-9-10-8-9-10-----------------------------------------------------------------|
B|-----------------------------------------------------------------------------------|
 |
 |Rhythm Guitar
e|----------------------------------------|
B|----------------------------------------|
G|---------------------4/5\4---7-----10~--|
D|-3--3--3--5-----------------------------|
A|-3--3--3--5----------2/3\2---5------8~--|
E|-1--1--1--3-----------------------------|
B|----------------------------------------|

  Solo Cont'd                         * slide index finger up
e|-----------------------------------------------------------------------20-19-17-19~-|
b|-----------------------------------------------------13-14-15-13-14-15-21-20-18-20~-|
G|------------------10-11-12-10-11-12-13-14-15-13-14-15-------------------------------|
D|-10-11-12-10-11-12------------------------------------------------------------------|
A|------------------------------------------------------------------------------------|
E|------------------------------------------------------------------------------------|
B|------------------------------------------------------------------------------------|
 |
 |Rhythm Guitar
e|----------------------------------------|
B|----------------------------------------|
G|---------------------4/5\4---7-----12~--|
D|-3--3--3--5-----------------------------|
A|-3--3--3--5----------2/3\2---5-----10~--|
E|-1--1--1--3-----------------------------|
B|----------------------------------------|

   This fast passage is hard to hear, its something like this:
e|-------------------------------------------------------------------------------------
B|-12-10-12-13-10-12-15-10-12-13-12-13-16-12-13-16\15-10-12-15-13-15-16-13-16-18-15-18-
G|-------------------------------------------------------------------------------------
D|-------------------------------------------------------------------------------------
A|-------------------------------------------------------------------------------------
E|-------------------------------------------------------------------------------------
B|-------------------------------------------------------------------------------------
 |
 |Rhythm Guitar
e|-------------------------|-----------------|
B|-------------------------|-----------------|
G|-------------------4/5\4-|----7------12-10-|
D|-5--5--5--3--------------|-----------------|
A|-5--5--5--3--------2/3\2-|----5------10-8--|
E|-3--3--3--1--------------|-----------------|
B|-------------------------|-----------------|

Solo continued from last line (out of room)
e|---------15-21-15--------
b|-------16--------16------
G|-----17------------17----
D|---17----------------17--
A|-15----------------------
E|-------------------------
B|-------------------------

Solo            * Harmonizer on (B minor, 3rd) 
e|----------------------|----------------------------------------------------------------20~|
b|----------13-11-------|-11------------11---------------------------------------------20---|
G|----------------13-12-|----13-12-10-13--13-12-10----12-10-------12----------------17------|
D|----------------------|--------------------------13-------13-12----13-12-10----17---------|
A|-15~---14-------------|-----------------------------------------------------15------------|
E|----------------------|-------------------------------------------------------------------|
B|----------------------|-------------------------------------------------------------------|
 |
 |Rhythm Guitar
e|-----------------------|---------------------------|
B|-----------------------|---------------------------|
G|----------------6/7\6--|---------------------------|
D|-5-------6-------------|-5---6--5------------------|
A|-5-------6------4/5\4--|-----------8--6--8-8-8--10-|
E|-3-------4-------------|-3---4--3------------------|
B|-----------------------|-----------6--4--6-6-6---8-|


solo 2 (another Guitar overlaps last note of solo 1)
e|------------------------------------------------------|
B|--------------------------18p15------15h18p15------15-|
G|-17p12------17p12------12------16--16--------16--16---|
D|------13--13-----13--13----------18------------18-----|
A|--------15---------15---------------------------------|
E|------------------------------------------------------|
B|------------------------------------------------------|
Rhythm guitar repeats previous solo rhythm riff

  Solo 2 con't
e|-17p13------13-17p13------13--19p16------16-19p16-----|
B|------15--15--------15--15---------18--18--------18-0-|
G|--------16------------16-------------18---------------|
D|------------------------------------------------------|
A|------------------------------------------------------|
E|------------------------------------------------------|
B|------------------------------------------------------|

  For easier reading, tap 20th fret after each note
e|-18T-18T-16T-16T-15T-16T-16T-15T-15T-13T-13T-15T-15T-16T-16T-|
B|-------------------------------------------------------------|
G|-------------------------------------------------------------|
D|-------------------------------------------------------------|
A|-------------------------------------------------------------|
E|-------------------------------------------------------------|
B|-------------------------------------------------------------|

e|-15p11---------------------------------|---------------------|
B|-------13------------------------------|---------------------|
G|----------12p8-------------------------|---------------------|
D|---------------10----------------------|------------------17~~
A|------------------10p6-----------------|----------13-14-15---|
E|-----------------------8b9r8b9r8b9r8~~-|-/13-14-15-----------|
B|---------------------------------------|---------------------|

e|----------------15~---15-|-15h16-13h16-12h13---16-------------|
B|-----------14h15---------|-------------------15--13-15-13-12~-|
G|---14h15h17--------------|------------------------------------|
D|-17----------------------|------------------------------------|
A|-------------------------|------------------------------------|
E|-------------------------|------------------------------------|
B|-------------------------|------------------------------------|

  Solo 2 ending
e|----------12-16-12----18-16------16-21p17-17-19-21~--|
B|--------14--------14~------15--15--------------------|
G|------13---------------------14----------------------|
D|-11-14-----------------------------------------------|
A|-----------------------------------------------------|
E|-----------------------------------------------------|
B|-----------------------------------------------------|
 |
 | Rhythm Guitar ending (slightly different than end of solo 1)
e|----------------------------|
B|----------------------------|
G|----------------------------|
D|-5---6--5-------------------|
A|----------------------------|
E|-3---4--3-------------------| 
B|----------4--3--4-3-4-3-0-1-|   


Play the intermediate riff 1x

Play verse riff 1

Play intro riff (Guitar 1) while Guitar 2 plays PM riff

Play Chorus again


3rd part during last chorus (heard around 4:41 on track)
e|---------3-------|---------5-------|-----------------|---------1-------|------|------|
B|-------4---4-----|-------7---7-----|-----------------|----------1------|------|------|
G|-5---5-------5---|-----7-------7---|-------3-----3---|-3-2---2---2-----|------|------|
D|---5-----------5-|---7-----------7-|-5---5-----5---5-|-----3------3----|------|------|
A|-----------------|-5---------------|---5-------------|-------------3---|-3----|-5----|
E|-----------------|-----------------|-----------------|--------------1--|-3----|-5----|
B|-----------------|-----------------|-----------------|-----------------|-1----|-3----|


Ending
e|-----------------------------|
B|-----------------------------|
G|-----------------------------|
D|-X-X---3--3--3----5----5\----|
A|-3-3---3--3--3----5----5\----|
E|-1-1---1--1--1----3----3\----|
B|-1-1---1--1--1----3----3\----|
   pm___________


KEY:

| /  slide up
| \  slide down
| h  hammer-on
| p  pull-off
| ~  vibrato
| +  harmonic
| x  muted note
| () Hold note into slide/ hammer-on/ pull-off
| PM palm mute
| TP tremelo picked
| T  tap on fret with pick hand 
| b  string bend
| r  release of bent string

8. He Who Spawned the Furies

PH: pinch harmonic
BU: bend up
BR: bend return
PM: palm mute
h:  hammer on
p:  pull off
/:  slide up
\:  slide down
T:  tapping
WBH: raise wammy bar pitch
WBL: lower wammy bar pitch
TR: tremelo pick

guitar 1 (corey beaulieu)
guitar 2 (matt heafy)

Intro/chorus
Guitar 2 X2   
      PM----- -------- -----       
E||------------------------------------|-------------------------|
B||------------------------------------|-------------------------|
G||------------------------------------|-------------------------|
D||------------------------------------|-5-555-7-777-4-444-4-444-|
A||-2--------2--------9--------4--5--7-|-5-555-5-555-4-444-4-444-|
E||-2--------2--------6--------6--7--9-|-3-333-3-333-2-222-2-222-|
B||-0-0--000-0-0--000---0--000---------|-------------------------| 


Guitar 1
E||-----------------|---------------------------------------------------|
B||-----------------|-12-12-12-12-12-12-11-11-11-11-11-11---------------|
G||---11-BU(12BR11)-|-------------------------------------11-BU(12BR11)-|
D||-----------------|---------------------------------------------------|
A||-----------------|---------------------------------------------------|
E||-----------------|---------------------------------------------------|
B||-----------------|---------------------------------------------------|


verse 1   (the afterbirth has barely dried...)
Both guitars X4
E||-------------------------------------|
B||-------------------------------------|
G||-------------------------------------|
D||-9--9-9\7-7--7-7\5-5--5-5\3-3--3-3-3-|
A||-9--9-9\7-7--7-7\5-5--5-5\3-3--3-3-3-|
E||-7--7-7\5-5--5-5\3-3--3-3\1-1--1-1-1-|
B||-------------------------------------|


verse 2        (devour...)
Both guitars X4
             PM---------
E||----------------------------------------|
B||----------------------------------------|
G||----------------------------------------|
D||-12-X-12\-------------8-8--8-X-8-8--8-X-|
A||-12-X-12\-------------8-8--8-X-8-8--8-X-|
E||-10-X-10\-------------6-6--6-X-6-6--6-X-|
B||----------0-0-0-0-0-0-------------------|


verse 3      (swallowed his children whole...)
Both guitars
E||--------------------------------------|
B||--------------------------------------|
G||--------------------------------------|
D||--------------------------------------|
A||--5-5-5--5-5-5-5--5-4-4-4--4-4-4-4--4-|
E||--5-5-5--5-5-5-5--5-4-4-4--4-4-4-4--4-|
B||--3-3-3--3-3-3-3--3-2-2-2--2-2-2-2--2-|


Middle section  
Both guitars X4
E||----------------------------------------|
B||----------------------------------------|
G||----------------------------------------|
D||--3----3--------3----3--------3----3----|
A||--5-55-4-444444-5-55-4-444444-5-55-4-44-|
E||----------------------------------------|
B||----------------------------------------|


verse 4        (he who spawned the furies...)
Both guitars X4
E||----------------------------------------|
B||----------------------------------------|
G||----------------------------------------|
D||----------------------------------------|
A||----------------------------------------|
E||--1----0--------1----0--------1----0----|
B||--3-33-2-222222-3-33-2-222222-3-33-2-22-|


solo 1
guitar 2
(sweep picking)
E||----------6-9--9p6-----------------9-12--12p9--------|
B||--------8----------8------------11------------11-----|
G||-/6~~-6--------------6~~-/9~~-9------------------9~~-|
D||-----------------------------------------------------|
A||-----------------------------------------------------|
E||-----------------------------------------------------|
B||-----------------------------------------------------|


(sweep picking cont')
E||------6-9p6--------9-12p9--------7-10p7--------9-|
B||----8-------8---11--------11---9--------9---11---|
G||--6-----------9--------------7------------9------|
D||-------------------------------------------------|
A||-------------------------------------------------|
E||-------------------------------------------------|
B||-------------------------------------------------|


E||--15---14---13---14---15---14\---|
B||---------------------------------|
G||---------------------------------|
D||---------------------------------|
A||---------------------------------|
E||---------------------------------|
B||---------------------------------|


(tapping)
      T       T       T       T       T       T        T       T
E||--15p12p9-15p12p9-15p12p9------------------------------------------|
B||--------------------------14p11p9-14p11p9-14p11p9------------------|
G||---------------------------------------------------14p10p9-14p10p9-|
D||-------------------------------------------------------------------| X4
A||-------------------------------------------------------------------|
E||-------------------------------------------------------------------|
B||-------------------------------------------------------------------|


E||----------19\/(19WBH)~~~~~-|
B||-14/17~~-------------------|
G||---------------------------|
D||---------------------------|
A||---------------------------|
E||---------------------------|
B||---------------------------|


solo 2
guitar 1
    TR---------------------------    
E||-------------------------------|
B||-14h15---14h15---14h15---14h15-|
G||-------------------------------|
D||-------------------------------|
A||-------------------------------|
E||-------------------------------|
B||-------------------------------|

                                 
E||--17--16--14--16--14--13--14--13---------|
B||----------------------------------15--14-|
G||-----------------------------------------|
D||-----------------------------------------|
A||-----------------------------------------|
E||-----------------------------------------|
B||-----------------------------------------|


(tremelo)
     TR--------------------
E||--------------------------|
B||-----------------15---14--|
G||------------12------------|
D||--12---13-----------------|
A||--------------------------|
E||--------------------------|
B||--------------------------|


verse 5         (Wreathed with serpents...)
Both guitars X2
     PM----- -------- -------- --------
E||--------------------------------------|
B||--------------------------------------|
G||---------------------------3--------3-|
D||---------3--------3-5-5555-5-4-4444-4-|
A||--5-5555-5-4-4444-4-------------------|
E||--------------------------------------|
B||--------------------------------------|


verse 6         (criminals!...)
Both guitars X4
       PM-- ------- ----- ------- ----- ----
E||------------------------------------------|
B||------------------------------------------|
G||------------------------------------------|
D||------------------------------------------|
A||--2-----2-------2-----2-------2-----2-----|
E||--2-----2-------2-----2-------2-----2-----|
B||--0-000-0-000---0-000-0-000---0-000-0-000-|


song played in order:
intro/chorus
verse 1
verse 2
verse 3
intro/chorus
verse 1
verse 2
verse 3
intro/chorus
middle section
verse 4
solo
verse 5
verse 6
intro/chorus X2
verse 6

Thats the full song. Enjoy :D

9. Of Prometheus and the Crucifix

 Intro
  Q=104
 4/4
  Gtr I
|----------------------------------|----------------------------------|
|----------------------------------|----------------------------------|
|----------------------------------|----------------------------------|
|-11-11-11-11--9--9--9-------------|----------------------------11--9-|
|----------------------11-11-11-11-|-12-12-12-12-12-11-11-11----------|
|----------------------------------|-------------------------12-------|
|----------------------------------|----------------------------------|
|
| Gtr II
|----------------------------------|----------------------------------|
|-14-14-14-14-12-12-12-------------|----------------------------14-12-|
|----------------------13-13-13-13-|-14-14-14-14-14-13-13-13----------|
|----------------------------------|-------------------------14-------|
|----------------------------------|----------------------------------|
|----------------------------------|----------------------------------|
|----------------------------------|----------------------------------|
|
| Gtr III
|----------------------------------|----------------------------------|
|----------------------------------|----------------------------------|
|----------------------------------|----------------------------------|
|----------------------------------|----------------------------------|
|--9-------------------------------|--7-------------------------------|
|--9-------------------------------|--7-------------------------------|
|--7-------------------------------|--5-------------------------------|


|----------------------------------|-----------------------------------|
|----------------------------------|-----------------------------------|
|----------------------------------|-----------------------------------|
|-12-12-12-12-11-11-11-------------|-----------------------------------|
|----------------------12-12-12-12-|-12-12-12-12-11-11-11--8--8--8--8--|
|----------------------------------|-----------------------------------|
|----------------------------------|-----------------------------------|
|
|----------------------------------|-----------------------------------|
|-15-15-15-15-14-14-14-------------|-----------------------------------|
|----------------------14-14-14-14-|-14-14-14-14-13-13-13-10-10-10-10--|
|----------------------------------|-----------------------------------|
|----------------------------------|-----------------------------------|
|----------------------------------|-----------------------------------|
|----------------------------------|-----------------------------------|
|
|                                              PM       PM
|----------------------------------|-----------------------------------|
|----------------------------------|-----------------------------------|
|----------------------------------|-----------------------------------|
|----------------------------------|-----------------------------------|
|--5-------------------------------|--2-----------4--4-----8--8--8-----|
|--5-------------------------------|--2-----------x--x-----x--x--x-----|
|--3-------------------------------|--0--------x--2--2--x--6--6--6-----|


   Verse
    $
    ~ PM  PM   PM|    PM  PM   PM  PM  ~ PM  PM   PM|    PM  PM   PM  PM
||-----------------------------------|----------------------------------|
||-----------------------------------|----------------------------------|
||o----------------------------------|----------------------------------|
||-----------------------------------|----------------------------------|
||o-------------------------11---9---|-------------------------11---9---|
||-----------------10---9------------|----------------10---9------------|
||--7-7-9-7-10-7-7----7---7----7---7-|-6-6-9-6-10-6-6----6---6----6---6-|
|
|   ~ PM  PM   PM|    PM  PM   PM  PM  ~ PM  PM   PM|    PM  PM   PM  PM
||-----------------------------------|----------------------------------|
||-----------------------------------|----------------------------------|
||o----------------------------------|----------------------------------|
||-----------------------------------|----------------------------------|
||o-------------------------11---9---|-------------------------11---9---|
||-----------------10---9------------|----------------10---9------------|
||--7-7-9-7-10-7-7----7---7----7---7-|-6-6-9-6-10-6-6----6---6----6---6-|


  ~ PM  PM   PM|   PM  PM  PM  PM  ~ PM  PM  PM| ~ PM  PM  PM|
|--------------------------------|-------------------------------||
|--------------------------------|-------------------------------||
|--------------------------------|------------------------------o||
|--------------------------------|-------------------7---6-------||
|------------------------9---7---|-----9---8--------------------o||
|----------------9---7-----------|-------------------------------||
|-5-5-9-5-10-5-5---5---5---5---5-|-7-7---7---7-7-6-6---6---6-6---||
|
| ~ PM  PM   PM|   PM  PM  PM  PM  ~ PM  PM  PM| ~ PM  PM  PM|
|--------------------------------|-------------------------------||
|--------------------------------|-------------------------------||
|--------------------------------|------------------------------o||
|--------------------------------|-------------------4---3-------||
|------------------------9---7---|-----5---4--------------------o||
|----------------9---7-----------|-------------------------------||
|-5-5-9-5-10-5-5---5---5---5---5-|-3-3---3---3-3-2-2---2---2-2---||


 Pre-Chorus
       PM----|      PM----|      PM|      PM----|      PM----|      PM----|
|-------------------------------------------------------------------------|
|-------------------------------------------------------------------------|
|-------------------------------------------------------------------------|
|-------------------------------------------------------------------------|
|-------------------------------------------------------------------------|
|-------------------------------------------------------------------------|
|-10p7-7-7-7-7-10p7-7-7-7-7-10p7-7-7-12p9-9-9-9-9-12p9-9-9-9-9-12p9-9-9---|
|
|      PM----|      PM----|      PM|      PM----|      PM----|      PM----|
|-------------------------------------------------------------------------|
|-------------------------------------------------------------------------|
|-------------------------------------------------------------------------|
|-------------------------------------------------------------------------|
|-------------------------------------------------------------------------|
|--9p5-5-5-5-5--9p5-5-5-5-5--9p5-5-5-10p7-7-7-7-7-10p7-7-7-7-7-10p7-7-7---|
|-------------------------------------------------------------------------|
|
| Gtr III
|      PM----|      PM----|      PM|      PM----|      PM----|      PM----|
|-------------------------------------------------------------------------|
|-------------------------------------------------------------------------|
|-------------------------------------------------------------------------|
|-11p7-7-7-7-7-11p7-7-7-7-7-11p7-7-7-12p9-9-9-9-9-12p9-9-9-9-9-12p9-9-9---|
|-------------------------------------------------------------------------|
|-------------------------------------------------------------------------|
|-------------------------------------------------------------------------|


         PM------|         PM------|         PM|      PM----|     PM----|     PM----|
|-----------------------------------------------------------------------------------|
|-----------------------------------------------------------------------------------|
|-----------------------------------------------------------------------------------|
|-----------------------------------------------------------------------------------|
|-----------------------------------------------------------------------------------|
|-----------------------------------------------------------------------------------|
|-14p10-10-10-10-10-14p10-10-10-10-10-14p10-10-10-9p6-6-6-6-6-9p6-6-6-6-6-9p6-6-6---|
|
|        PM------|         PM------|         PM|      PM----|     PM----|     PM----|
|-----------------------------------------------------------------------------------|
|-----------------------------------------------------------------------------------|
|-----------------------------------------------------------------------------------|
|-----------------------------------------------------------------------------------|
|-----------------------------------------------------------------------------------|
|-12p=9--9--9--9--9-12p=9--9--9--9--9-12p=9--9--9-7p4-4-4-4-4-7p4-4-4-4-4-7p4-4-4---|
|-----------------------------------------------------------------------------------|
|
|        PM------|         PM------|                  PM----|     PM----|     PM----|
|-----------------------------------------------------------------------------------|
|-----------------------------------------------------------------------------------|
|-----------------------------------------------------------------------------------|
|-14p11-11-11-11-11-14p11-11-11-11-11-14p11-11-11-9p6-6-6-6-6-9p6-6-6-6-6-9p6-6-6---|
|-----------------------------------------------------------------------------------|
|-----------------------------------------------------------------------------------|
|-----------------------------------------------------------------------------------|


       PM----|      PM----|      PM|      PM----|      PM----|      PM----|
|-------------------------------------------------------------------------|
|-------------------------------------------------------------------------|
|-------------------------------------------------------------------------|
|-------------------------------------------------------------------------|
|-------------------------------------------------------------------------|
|-------------------------------------------------------------------------|
|-10p7-7-7-7-7-10p7-7-7-7-7-10p7-7-7-12p9-9-9-9-9-12p9-9-9-9-9-12p9-9-9---|
|
|      PM----|      PM----|      PM|      PM----|      PM----|      PM----|
|-------------------------------------------------------------------------|
|-------------------------------------------------------------------------|
|-------------------------------------------------------------------------|
|-------------------------------------------------------------------------|
|--9p5-5-5-5-5--9p5-5-5-5-5--9p5-5-5-11p7-7-7-7-7-11p7-7-7-7-7-11p7-7-7---|
|-------------------------------------------------------------------------|
|-------------------------------------------------------------------------|
|
|      PM----|      PM----|      PM|      PM----|      PM----|      PM----|
|-------------------------------------------------------------------------|
|-------------------------------------------------------------------------|
|-------------------------------------------------------------------------|
|-11p7-7-7-7-7-11p7-7-7-7-7-11p7-7-7-12p9-9-9-9-9-12p9-9-9-9-9-12p9-9-9---|
|-------------------------------------------------------------------------|
|-------------------------------------------------------------------------|
|-------------------------------------------------------------------------|


         PM------|         PM------|         PM-----------------------|
|---------------------------------------------------------------------|
|---------------------------------------------------------------------|
|---------------------------------------------------------------------|
|-------------------------------------------------11-11-x-11-(11)\----|
|-------------------------------------------------11-11-x-11-(11)\----|
|--------------------------------------------------9--9-x--9--(9)\----|
|-14p10-10-10-10-10-14p10-10-10-10-10-14p10-10-10---------------------|
|
|        PM------|         PM------|         PM-----------------------|
|---------------------------------------------------------------------|
|---------------------------------------------------------------------|
|---------------------------------------------------------------------|
|-------------------------------------------------11-11-x-11-(11)\----|
|-12p=9--9--9--9--9-12p=9--9--9--9--9-12p=9--9--9-11-11-x-11-(11)\----|
|--------------------------------------------------9--9-x--9--(9)\----|
|---------------------------------------------------------------------|
|
|        PM------|         PM------|         PM-----------------------|
|---------------------------------------------------------------------|
|---------------------------------------------------------------------|
|---------------------------------------------------------------------|
|-14p11-11-11-11-11-14p11-11-11-11-11-14p11-11-11-11-11-x-11-(11)\----|
|-------------------------------------------------11-11-x-11-(11)\----|
|--------------------------------------------------9--9-x--9--(9)\----|
|---------------------------------------------------------------------|


   Chorus
              ~~~~~~~~~~~~~~~~~                                        ~~~
||------------------------------|----------------------------------------|
||------------------------------|------------------14---12---------------|
||o------14-13-----------(13)---|---------14-13------------14---13\------|
||--11-11--------------------11-|-(11)-11-------11--------------------12-|
||o-----------------------------|----------------------------------------|
||------------------------------|----------------------------------------|
||------------------------------|----------------------------------------|
|
||----------------------------------|------------------------------------------|
||----------------------------------|------------------------------------------|
||o---------------------------------|------------------------------------------|
||---4-----4--4-4-4-4-4-4---4-------|------------------------------------------|
||o--4-----4--4-4-4-4-4-4---4--4----|---4------4--4--4--4-4--4-4----4-----5----|
||---2-----2--2-2-2-2-2-2---2--4----|---4------4--4--4--4-4--4-4----4-----5----|
||-----------------------------2----|---2------2--2--2--2-2--2-2----2-----3----|


                                                                    D.S.
              ~~~~~~~~~~~~~~~~~
|-----------------------------------|-12---------------/17---16----14--------||
|-----------------------------------|----15-14---12-------------17-----------||
|---------14-13-----------(13)------|---------------14----------------------o||
|-(12)-12------------------------14-|----------------------------------------||
|-----------------------------------|---------------------------------------o||
|-----------------------------------|----------------------------------------||
|-----------------------------------|----------------------------------------||
|
|------------------------------|----------------------------------------||
|------------------------------|----------------------------------------||
|------------------------------|---------------------------------------o||
|------------------------------|--7--7--7-7--x--6-----x-----------------||
|--5--5--5-5-5-5-5-5---5--5----|--7--7--7-7--x--7-----x--7-------x-----o||
|--5--5--5-5-5-5-5-5---5--5----|--5--5--5-5--x--4--x-----7-------x------||
|--3--3--3-3-3-3-3-3---3--3----|-------------------------5-------x------||


 Breakdown
  Q=194
     PM--------------------|     PM|   PM|      PM------------------------|
|----------------------------|-------------|------------------------------|
|----------------------------|-------------|------------------------------|
|----------------------------|-------------|------------------------------|
|-4--------------------------|-4-3-4-6-3-4-|-4----------------------------|
|-4--------------------------|-4-3-4-6-3-4-|-4----------------------------|
|-2--2-2-2-2-2-2-2-2-2-2-2-2-|-2-1-2-4-1-2-|-2--2-2-2-2-2-2-2-2-2-2-2-2---|
|----------------------------|-------------|------------------------------|


      PM|     PM|     PM|     PM|      PM------------------------|
|---------------------------------|------------------------------|
|---------------------------------|------------------------------|
|---------------------------------|------------------------------|
|---------------------------------|-4----------------------------|
|---------------------------------|-4----------------------------|
|-4p2-2-2-4p2-2-2-7p2-2-2-5p2-2-2-|-2--2-2-2-2-2-2-2-2-2-2-2-2---|
|---------------------------------|------------------------------|
|
| Gtr I
|---------------------------------|----------------------------|
|---------------------------------|----------------------------|
|---------------------------------|----------------------------|
|---------------------------------|-4--------------------------|
|---------------------------------|-4--------------------------|
|---------------------------------|-2--------------------------|
|---------------------------------|----------------------------|

                          Pick Slides
    PM|   PM|
|-------------|----------|-------------|
|-------------|----------|-------------|
|-------------|----------|-------------|
|-4-3-4-6-3-4-|-4--------|-------------|
|-4-3-4-6-3-4-|-4--------|-------------|
|-2-1-2-4-1-2-|-2--------|-------------|
|-------------|----------|-x\----------|
|
|   PM|   PM|
|-------------|----------|-------------|
|-------------|----------|-------------|
|-------------|----------|-------------|
|-4-3-4-6-3-4-|-4--------|-------------|
|-4-3-4-6-3-4-|-4--------|-------------|
|-2-1-2-4-1-2-|-2--------|-------------|
|-------------|----------|-------x\----|


    Gtrs I, II
       PM--------------------|      PM-------------------------|
||-----------------------------|-------------------------------|
||-----------------------------|-------------------------------|
||o----------------------------|-------------------------------|
||--4--------------------------|-6-----------------------------|
||o-x--------------------------|-x-----------------------------|
||--2--2-2-2-2-2-2-2-2-2-2-2-2-|-4--2-2-2-2-2-2-2-2-2-2-2-2----|
||-----------------------------|-------------------------------|


                               1.
     PM--------------------|     PM|   PM------|
|----------------------------|-----------------|
|----------------------------|-----------------|
|----------------------------|-------------o---|
|-7--------------------------|-4-3-4-6-3-4-----|
|-x--------------------------|-x-x-x-x-x-x-o---|
|-5--2-2-2-2-2-2-2-2-2-2-2-2-|-2-1-2-4-1-2-----|
|----------------------------|-----------------|


  2.
      PM|     PM|     PM|     PM|
|---------------------------------|
|---------------------------------|
|---------------------------------|
|---------------------------------|
|---------------------------------|
|-4p2-2-2-4p2-2-2-7p2-2-2-5p2-2-2-|
|---------------------------------|


       PM--------------------|      PM-------------------------|
||-----------------------------|-------------------------------|
||-----------------------------|-------------------------------|
||o----------------------------|-------------------------------|
||--4--------------------------|-6-----------------------------|
||o-x--------------------------|-x-----------------------------|
||--2--2-2-2-2-2-2-2-2-2-2-2-2-|-4--4-4-4-4-4-4-4-4-4-4-4-4----|
||-----------------------------|-------------------------------|
|
|   Gtr II
|      PM--------------------|      PM-------------------------|
||-----------------------------|-------------------------------|
||-----------------------------|-------------------------------|
||o----------------------------|-------------------------------|
||--7--------------------------|-9-----------------------------|
||o-x--------------------------|-x-----------------------------|
||--5--5-5-5-5-5-5-5-5-5-5-5-5-|-7--7-7-7-7-7-7-7-7-7-7-7-7----|
||-----------------------------|-------------------------------|


                                Ending 1.
      PM--------------------|     PM|   PM------|
|-----------------------------|-----------------|
|-----------------------------|-----------------|
|-----------------------------|-------------o---|
|--7--------------------------|-4-3-4-6-3-4-----|
|--x--------------------------|-x-x-x-x-x-x-o---|
|--5--5-5-5-5-5-5-5-5-5-5-5-5-|-2-1-2-4-1-2-----|
|-----------------------------|-----------------|
|
|     PM--------------------|     PM|   PM------|
|-----------------------------|-----------------|
|-----------------------------|-----------------|
|-----------------------------|-------------o---|
|-11--------------------------|-7-6-7-9-6-7-----|
|--x--------------------------|-x-x-x-x-x-x-o---|
|--9--9-9-9-9-9-9-9-9-9-9-9-9-|-5-4-5-7-4-5-----|
|-----------------------------|-----------------|


 Ending 2.
  Gtr I
|--------------|--------------|--------------|
|--------------|--------------|--------------|
|--------------|--------------|--------------|
|-4S=3--/6--4--|-4S=3--/6--4--|-4S=3--/6--4--|
|-x--x---x--x--|-x--x---x--x--|-x--x---x--x--|
|-2S=1--/4--2--|-2S=1--/4--2--|-2S=1--/4--2--|
|--------------|--------------|--------------|
|
| Gtr II
|--------------|--------------|--------------|
|--------------|--------------|--------------|
|--------------|--------------|--------------|
|-7S=6--/9--7--|-7S=6--/9--7--|-7S=6--/9--7--|
|-x--x---x--x--|-x--x---x--x--|-x--x---x--x--|
|-5S=4--/7--5--|-5S=4--/7--5--|-5S=4--/7--5--|
|--------------|--------------|--------------|


                      ~~~            PM
|-----------------|------------------------|
|-----------------|------------------------|
|-----------------|------------------------|
|--7S=6---/9---7--|------------------------|
|--x--x----x---x--|---------------------9--|
|--5S=4---/7---5--|---------------------x--|
|-----------------|--/7--------------7--7--|
|
|                     ~~~
|-----------------|------------------------|
|-----------------|-----------------14-17--|
|-----------------|--------13h14h16--------|
|-11S=9--/12--11--|------------------------|
|--x--x----x---x--|------------------------|
|--9S=7--/10---9--|-/14--------------------|
|-----------------|------------------------|


 Guitar Solo
 4/4
  Gtr II
|---------------------------|---------------------------|
|-(17)b19-------------------|--17b19r(17)---15--14---15-|
|---------------------------|---------------------------|
|---------------------------|---------------------------|
|---------------------------|---------------------------|
|---------------------------|---------------------------|
|---------------------------|---------------------------|
|
| Gtr I
|           PM--------------------------------------------|
|---------------------------|-----------------------------|
|---------------------------|-----------------------------|
|---------------------------|-----------------------------|
|-----------------------/12-|-(12)----12--x-11--11-x------|
|--(9)----9---------------x-|--(x)-----x--x--x---x-x-11---|
|--(x)----x-------------/10-|-(10)----10--x--9---9-x--x---|
|--(7)----7-7-7-7-7-7-7-----|-------------------------9---|


|------------------------------------|
|-(15)-14h15p14-12-------------------|
|------------------14---13-14-13-----|
|---------------------------------16-|
|------------------------------------|
|------------------------------------|
|------------------------------------|
|
|                PM--------------------|
|--------------------------------------|
|--------------------------------------|
|--------------------------------------|
|--------------------------------------|
|-(11)-11------------------------/12---|
|--(x)--x--------------------------x---|
|--(9)--9--------9--9-9--9--9--9-/10---|


              ~~
|-------------------------|-----------------------------|
|-------------------------|-----------------------------|
|--14--13-----------------|-18-----18-16------16s14-----|
|---------14-16-------/16-|-----16---------16--------16-|
|-------------------------|-----------------------------|
|-------------------------|-----------------------------|
|-------------------------|-----------------------------|
|
|                                   PM--------------------|
|-------------------------|-------------------------------|
|-------------------------|-------------------------------|
|-------------------------|-------------------------------|
|-------------------------|-------------------------/11---|
|-(12)-12--x-11--11-x--/7-|-(7)--7--------------------x---|
|--(x)--x--x--x---x-x---x-|-(x)--x-------------------/9---|
|-(10)-10--x--9---9-x--/5-|-(5)--5--5--5-5--5--5--5-------|


|---------------------------|
|------------------------14-|
|--14s=13----13-------------|
|---------16----16-14-16----|
|---------------------------|
|---------------------------|
|---------------------------|
|
|---------------------------|
|---------------------------|
|---------------------------|
|-(11)-11--x--9-----9--x----|
|--(x)--x--x--x-----x--x--8-|
|--(9)--9--x--7-----7--x--x-|
|-------------------------6-|


|------------------------------------|---------------------------|
|-(14)-12h14p12----12----------------|---------------------------|
|---------------14------14-13-11-----|--11-----------------------|
|---------------------------------14-|------14-12-11-12-11-------|
|------------------------------------|---------------------12----|
|------------------------------------|---------------------------|
|------------------------------------|---------------------------|
|
|                PM------------------------------------------------|
|------------------------------------|-----------------------------|
|------------------------------------|-----------------------------|
|------------------------------------|-----------------------------|
|--------------------------------/11-|-(11)-11--x--9-----9--x------|
|--(8)--8--------------------------x-|--(x)--x--x--x-----x--x-/9---|
|--(x)--x-------------------------/9-|--(9)--9--x--7-----7--x--x---|
|--(6)--6--------6--6-6--6--6--6-----|------------------------/7---|


                                                                  PM|
|-----------------------------------|-----------------------------------|
|-----------------------------------|-----------------------------------|
|-------------------11-----13----14-|---------------------13--14--------|
|-----------9-11-12-----------------|------------11-12-14--------11-11--|
|--9--11-12-------------------------|--11--12-14------------------------|
|-----------------------------------|-----------------------------------|
|-----------------------------------|-----------------------------------|
|
|              PM---------------------------------------------------------|
|-----------------------------------|-------------------------------------|
|-----------------------------------|-------------------------------------|
|-----------------------------------|-------------------------------------|
|-------------------------------/12-|-(12)----12-----x----11--11--x-------|
|-(9)-----9-----------------------x-|--(x)-----x-----x-----x---x--x-11----|
|-(x)-----x---------------------/10-|-(10)----10-----x-----9---9--x--x----|
|-(7)-----7----7-----7-7-7--7-7-----|--------------------------------9----|


        PM    PM      PM     PM        PM             ~~
|------------------------------|-------------------------------|
|-----------------14----12-----|-------------------------------|
|--14-----13-------------------|--14-----13h14p13p11-13--------|
|------11----11------11-----11-|------11-----------------------|
|------------------------------|-------------------------------|
|------------------------------|-------------------------------|
|------------------------------|-------------------------------|
|
|          PM----------------------------------------------------|
|------------------------------|---------------------------------|
|------------------------------|---------------------------------|
|------------------------------|---------------------------------|
|------------------------------|---------------------------------|
|-(11)-11------------------/12-|-(12)-12--x----11-------11-x-7---|
|--(x)--x--------------------x-|--(x)--x--x-----x--------x-x-x---|
|--(9)--9--9--9-9--9--9--9-/10-|-(10)-10--x-----9--------9-x-5---|


|------------------------------------------------16-|
|--------------------------------------15-17--19----|
|-----------------------------14-16-18--------------|
|--------------------14-16-18-----------------------|
|-----------14-16-17--------------------------------|
|-14--16-17-----------------------------------------|
|---------------------------------------------------|
|
|               PM------------------------------------|
|-----------------------------------------------------|
|-----------------------------------------------------|
|-----------------------------------------------------|
|--------------------------------------------/11------|
|-(7)-----7------------------------------------x------|
|-(x)-----x-----------------------------------/9------|
|-(5)-----5-----5-----5--5--5-----5-----5-------------|


|------------17-19-21-17-19-19b21-----17-|
|--17--19-21-----------------------------|
|----------------------------------------|
|----------------------------------------|
|----------------------------------------|
|----------------------------------------|
|----------------------------------------|
|
|----------------------------------------|
|----------------------------------------|
|----------------------------------------|
|-(11)----11-----x-----9----------9-x----|
|--(x)-----x-----x-----x----------x-x--8-|
|--(9)-----9-----x-----7----------7-x--x-|
|--------------------------------------6-|


|-21p=17--------------17---21p17----------------17-|
|----------19----19----------------19----19--------|
|-------------18----------------------18-----------|
|--------------------------------------------------|
|--------------------------------------------------|
|--------------------------------------------------|
|--------------------------------------------------|
|

|
| Gtr I
|              PM------------------------------------|
|----------------------------------------------------|
|----------------------------------------------------|
|----------------------------------------------------|
|-------------------------------------------/11------|
|-(8)----8------------------------------------x------|
|-(x)----x-----------------------------------/9------|
|-(6)----6-----6----6----6--6----6-----6-------------|


|--17h=19p===17-16h17p==16-/14--------------|
|--------------------------------15-14------|
|-------------------------------------------|
|-------------------------------------------|
|-------------------------------------------|
|-------------------------------------------|
|-------------------------------------------|
|
|-----------------------------------14------|
|-----------------------------------17b19===|
|-------------------------------------------|
|-------------------------------------------|
|-------------------------------------------|
|-------------------------------------------|
|-------------------------------------------|
|
|-------------------------------------------|
|-------------------------------------------|
|-------------------------------------------|
|-(11)----11-----x----9--------9--x---------|
|--(x)-----x-----x----x--------x--x--9------|
|--(9)-----9-----x----7--------7--x--x------|
|------------------------------------7------|


  Gtr III
|-(14)--------------16--16-----|-(16)--------------17-17-----|
|-(17)r-----------------19b21==|=(19)r----------------20b22==|
|------------------------------|-----------------------------|
|------------------------------|-----------------------------|
|------------------------------|-----------------------------|
|------------------------------|-----------------------------|
|------------------------------|-----------------------------|
|
| Gtr II
|------------------------------|-----------------------------|
|-(14)-------------------------|-----------------------------|
|------------------------------|-----------------------------|
|------------------------------|-----------------------------|
|------------------------------|-----------------------------|
|------------------------------|-----------------------------|
|------------------------------|-----------------------------|
|
| Gtr I
|         PM---------------------------------------------------|
|------------------------------|-------------------------------|
|------------------------------|-------------------------------|
|------------------------------|-------------------------------|
|----------------------/12-----|-(12)--12-x-11--11--x----------|
|--(9)--9----------------x-----|--(x)---x-x--x---x--x-11-------|
|--(x)--x--------------/10-----|-(10)--10-x--9---9--x--x-------|
|--(7)--7-7-7-7-7-7--7---------|-----------------------9-------|


                                                ~~~~~~~~~~~~~
|-(17)--------------(17)---21b22==|=(21)r------21-------(21)-|
|-(20)--------------(20)r---------|--------------------------|
|---------------------------------|--------------------------|
|---------------------------------|--------------------------|
|---------------------------------|--------------------------|
|---------------------------------|--------------------------|
|---------------------------------|--------------------------|
|
| Gtr I
|         PM---------------------------------------------------|
|---------------------------------|----------------------------|
|---------------------------------|----------------------------|
|---------------------------------|----------------------------|
|---------------------------------|----------------------------|
|-(11)-11-----------------/12-----|-(12)--12-x-11--11-x---7----|
|--(x)--x-------------------x-----|--(x)---x-x--x---x-x---x----|
|--(9)--9-9-9-9-9-9---9---/10-----|-(10)--10-x--9---9-x---5----|


|-22--21-19-22-21-19--------------------------------|
|--------------------22-21-19-22-21-19--------------|
|--------------------------------------21-19--18-21-|
|---------------------------------------------------|
|---------------------------------------------------|
|---------------------------------------------------|
|---------------------------------------------------|
|
|               PM------------------------------------|
|-----------------------------------------------------|
|-----------------------------------------------------|
|-----------------------------------------------------|
|--------------------------------------------/11------|
|-(7)-----7------------------------------------x------|
|-(x)-----x-----------------------------------/9------|
|-(5)-----5-----5-----5--5--5-----5-----5-------------|


|----------------------------------------------------|
|----------------------------------------------------|
|--19--18--------------------------------------------|
|---------21-19-18-21-19-18--------------------------|
|---------------------------19-17-16-19-17-16--------|
|---------------------------------------------19-17--|
|----------------------------------------------------|
|
|----------------------------------------------------|
|----------------------------------------------------|
|----------------------------------------------------|
|-(11)----11-----x-----9-----------9-----x-----------|
|--(x)-----x-----x-----x-----------x-----x----/8-----|
|--(9)-----9-----x-----7-----------7-----x-----x-----|
|---------------------------------------------/6-----|


|---------------------------------------------------|
|---------------------------------------------------|
|---------------------------------------------------|
|---------------------------------------------------|
|-----------------------16----------------16--17-19-|
|-16--19-17-16-16-17-19----19-17-16-17-19-----------|
|---------------------------------------------------|
|
|               PM------------------------------------|
|-----------------------------------------------------|
|-----------------------------------------------------|
|-----------------------------------------------------|
|--------------------------------------------/11------|
|-(8)-----8------------------------------------x------|
|-(x)-----x-----------------------------------/9------|
|-(6)-----6-----6-----6--6--6-----6-----6-------------|


                                         ~~
|--------------------------------------------|
|--------------------------------------------|
|--------------------------------------------|
|--------------------------------------------|
|------------16----------------16-17-19-16---|
|--16--17-19----19-17-16-17-19---------------|
|--------------------------------------------|
|
|--------------------------------------------|
|--------------------------------------------|
|--------------------------------------------|
|-(11)----11-----x-----9-----------9-----x---|
|--(x)-----x-----x-----x-----------x-----x-9-|
|--(9)-----9-----x-----7-----------7-----x-x-|
|------------------------------------------7-|


|---------------------------------------------------|
|---------------------------------------------------|
|---------------------------------------------------|
|---------------------------------------------------|
|-----------14----------------14-16-17-----------16-|
|-14--16-17----17-16-14-16-17----------16-17--19----|
|---------------------------------------------------|
|
|               PM------------------------------------|
|-----------------------------------------------------|
|-----------------------------------------------------|
|-----------------------------------------------------|
|--------------------------------------------/12------|
|-(9)-----9------------------------------------x------|
|-(x)-----x----------------------------------/10------|
|-(7)-----7-----7-----7--7--7-----7-----7-------------|


                    ~~
|---------------------------------------------------|
|---------------------------------------------------|
|------------------16----------------------16-18-19-|
|---------16-18-19-------19-18-16-16-18-19----------|
|--17--19-------------------------------------------|
|---------------------------------------------------|
|---------------------------------------------------|
|
|---------------------------------------------------|
|---------------------------------------------------|
|---------------------------------------------------|
|-(12)----12-----x----11----------11-----x----------|
|--(x)-----x-----x-----x-----------x-----x----11----|
|-(10)----10-----x-----9-----------9-----x-----x----|
|----------------------------------------------9----|


                                ~~
|------------------------------19--------------------|
|---------------------19-21-22------22-21-19--21-22--|
|------------18-19-21--------------------------------|
|--18--19-21-----------------------------------------|
|----------------------------------------------------|
|----------------------------------------------------|
|----------------------------------------------------|
|
|                PM------------------------------------|
|------------------------------------------------------|
|------------------------------------------------------|
|------------------------------------------------------|
|------------------------------------------------------|
|-(11)----11---------------------------------/12-------|
|--(x)-----x-----------------------------------x-------|
|--(9)-----9-----9-----9--9--9----9-----9----/10-------|


|--19--21----22-24b26----------/17-|-(17)-14----------------------|
|----------------------------------|---------17-14---------17--14-|
|----------------------------------|-----------------16-14--------|
|----------------------------------|------------------------------|
|----------------------------------|------------------------------|
|----------------------------------|------------------------------|
|----------------------------------|------------------------------|
|
|                                             PM--------------------|
|----------------------------------|--------------------------------|
|----------------------------------|--------------------------------|
|----------------------------------|--------------------------------|
|----------------------------------|--------------------------/11---|
|-(12)----12-----x----11--11-x---7-|--(7)--7--------------------x---|
|--(x)-----x-----x-----x---x-x---x-|--(x)--x-------------------/9---|
|-(10)----10-----x-----9---9-x---5-|--(5)--5--5--5-5--5--5--5-------|

|-------------------------------|-------14----------------14--------------14------------14-|
|-------------------------------|------------17p14-------------17p14---------17p14---------|
|--16--14---------16b18-----16--|--16b18-------------16b18------------16b18--------16b18---|
|----------16-14----------------|----------------------------------------------------------|
|-------------------------------|----------------------------------------------------------|
|-------------------------------|----------------------------------------------------------|
|-------------------------------|----------------------------------------------------------|
|
|                                                    PM------------------------------|
|-------------------------------|----------------------------------------------------|
|-------------------------------|----------------------------------------------------|
|-------------------------------|----------------------------------------------------|
|-(11)-11--x--9----9-x----------|--------------------------------/11-----------------|
|--(x)--x--x--x----x-x--/8------|-(8)---8-------------------------x------------------|
|--(9)--9--x--7----7-x---x------|-(x)---x------------------------/9------------------|
|-----------------------/6------|-(6)---6--6---6--6---6----6---6---------------------|

                    ~~~~~~
|-------------------------------------|
|--17p=14-------17-17b19=======(17)r--|
|---------16b18-----------------------|
|-------------------------------------|
|-------------------------------------|
|-------------------------------------|
|-------------------------------------|
|
|-------------------------------------|
|-------------------------------------|
|-------------------------------11----|
|-(11)----11-----x--9------9-x---x----|
|--(x)-----x-----x--x------x-x--/9----|
|--(9)-----9-----x--7------7-x--------|
|-------------------------------------|


 Harmony Section
  Q=104
  Gtr II
                     ~~~~~~~~~~~~~~~~~~~~~~~~~~~
|----------17-19----19b21-------(19)-------(19)-------|
|-20b22-----------------------------------------19b21-|
|-----------------------------------------------------|
|-----------------------------------------------------|
|-----------------------------------------------------|
|-----------------------------------------------------|
|-----------------------------------------------------|
|
| Gtr III
|                    ~~~~~~~~~~~~~~~~~~~~~~~~~~~
|----------14-16----16b17-------(16)-------(16)-------|
|-17b19-----------------------------------------15b17-|
|-----------------------------------------------------|
|-----------------------------------------------------|
|-----------------------------------------------------|
|-----------------------------------------------------|
|-----------------------------------------------------|
|
| Gtr I
|-----------------------------------------------------|
|-----------------------------------------------------|
|-11----11-11-11-11-11----11-11--11--11-11--11---9----|
|--x-----x--x--x--x--x-----x--x---x---x--x---x---x----|
|--9-----9--9--9--9--9-----9--9---9---9--9---9---7----|
|-----------------------------------------------------|
|-----------------------------------------------------|


                  ~~~~~~~~~~~~~~
|--------16-17---17b19-----(17)-----(17)-----|
|-(19)-----------------------------------/19-|
|--------------------------------------------|
|--------------------------------------------|
|--------------------------------------------|
|--------------------------------------------|
|--------------------------------------------|
|
|                 ~~~~~~~~~~~~~~
|--------12-14---14b16-----(14)-----(14)-----|
|-(15)-----------------------------------/15-|
|--------------------------------------------|
|--------------------------------------------|
|--------------------------------------------|
|--------------------------------------------|
|--------------------------------------------|
|
|--------------------------------------------|
|--------------------------------------------|
|--(9)-9--9--9-9--9----9-9---9--9-9---9----7-|
|--(x)-x--x--x-x--x----x-x---x--x-x---x----x-|
|--(7)-7--7--7-7--7----7-7---7--7-7---7----5-|
|--------------------------------------------|
|--------------------------------------------|


                          ~~
|-----------------------------------------------|
|-(19)---17---15h17p==15s14---------12-14-12-14s|
|-----------------------------------------------|
|-----------------------------------------------|
|-----------------------------------------------|
|-----------------------------------------------|
|-----------------------------------------------|
|
|                         ~~
|-----------------------------------------------|
|-(15)---14---12h14p==12s10----------9-10--9-10s|
|-----------------------------------------------|
|-----------------------------------------------|
|-----------------------------------------------|
|-----------------------------------------------|
|-----------------------------------------------|
|
|-----------------------------------------------|
|-----------------------------------------------|
|---7--7----7--7----7-------7-7-7-7--7--7--7--6-|
|---x--x----x--x----x-------x-x-x-x--x--x--x--x-|
|---5--5----5--5----5-------5-5-5-5--5--5--5--4-|
|-----------------------------------------------|
|-----------------------------------------------|


|---------------------------------------|
|-15----14-12-14-12----/17-------18-----|
|-------------------14------------------|
|---------------------------------------|
|---------------------------------------|
|---------------------------------------|
|---------------------------------------|
|
|---------------------------------------|
|-12----10--9-10--9---------------------|
|-------------------11--/9-------10-----|
|---------------------------------------|
|---------------------------------------|
|---------------------------------------|
|---------------------------------------|
|
|---------------------------------------|
|---------------------------------------|
|-(6)-6--6--6--6------------------------|
|-(x)-x--x--x--x------------------------|
|-(4)-4--4--4--4-----7-----7-7----8-8---|
|--------------------x-----x-x----x-x---|
|-----------------x--5-----5-5-x--6-6-x-|


                  ~~~~~~~~~~~~~~~~~~~~~~~~~~~
|-------17-19----19b21-------(19)-------(19)-------|
|-20b22--------------------------------------19b21-|
|--------------------------------------------------|
|--------------------------------------------------|
|--------------------------------------------------|
|--------------------------------------------------|
|--------------------------------------------------|
|
|                 ~~~~~~~~~~~~~~~~~~~~~~~~~~~
|-------14-16----16b17-------(16)-------(16)-------|
|-17b19--------------------------------------15b17-|
|--------------------------------------------------|
|--------------------------------------------------|
|--------------------------------------------------|
|--------------------------------------------------|
|--------------------------------------------------|
|
|--------------------------------------------------|
|--------------------------------------------------|
|-11----11-11-11-11----11-11--11--11-11--11---9----|
|--x-----x--x--x--x-----x--x---x---x--x---x---x----|
|--9-----9--9--9--9-----9--9---9---9--9---9---7----|
|--------------------------------------------------|
|--------------------------------------------------|


                   ~~~~~~~~~~~~~~
|--------16-17p16-17b19-----(17)-----(17)-----|
|-(19)------------------------------------/19-|
|---------------------------------------------|
|---------------------------------------------|
|---------------------------------------------|
|---------------------------------------------|
|---------------------------------------------|
|
|                  ~~~~~~~~~~~~~~
|--------12-14p12-14b16-----(14)-----(14)-----|
|-(15)------------------------------------/15-|
|---------------------------------------------|
|---------------------------------------------|
|---------------------------------------------|
|---------------------------------------------|
|---------------------------------------------|
|
|---------------------------------------------|
|---------------------------------------------|
|--(9)-9--9--9--9--9----9-9---9--9-9---9----7-|
|--(x)-x--x--x--x--x----x-x---x--x-x---x----x-|
|--(7)-7--7--7--7--7----7-7---7--7-7---7----5-|
|---------------------------------------------|
|---------------------------------------------|


                          ~~
|-----------------------------------------------|
|-(19)---17---15h17p==15s14---------12-14-12-14s|
|-----------------------------------------------|
|-----------------------------------------------|
|-----------------------------------------------|
|-----------------------------------------------|
|-----------------------------------------------|
|
|                         ~~
|-----------------------------------------------|
|-(15)---14---12h14p==12s10----------9-10--9-10s|
|-----------------------------------------------|
|-----------------------------------------------|
|-----------------------------------------------|
|-----------------------------------------------|
|-----------------------------------------------|
|
|-----------------------------------------------|
|-----------------------------------------------|
|--(7)-7----7--7----7-------7-7-7-7--7--7--7--6-|
|--(x)-x----x--x----x-------x-x-x-x--x--x--x--x-|
|--(5)-5----5--5----5-------5-5-5-5--5--5--5--4-|
|-----------------------------------------------|
|-----------------------------------------------|


|----------------------------------------------------------------|
|-15----14-12-14-12--------------------------14-15-17-14-15---17-|
|-------------------14-13-14---16-13-14---16---------------------|
|----------------------------------------------------------------|
|----------------------------------------------------------------|
|----------------------------------------------------------------|
|----------------------------------------------------------------|
|
|----------------------------------------------------------------|
|-12----10--9-10--9--------------------------14-15-17-14-15---17-|
|-------------------11-13-14---16-13-14---16---------------------|
|----------------------------------------------------------------|
|----------------------------------------------------------------|
|----------------------------------------------------------------|
|----------------------------------------------------------------|
|
|----------------------------------------------------------------|
|----------------------------------------------------------------|
|-(6)-6--6--6--6-------------------------------------------------|
|-(x)-x--x--x--x-------------------------------------------------|
|-(4)-4--4--4--4-----7-------7-----7----------8--------8---------|
|--------------------x-------x-----x----------x--------x---------|
|-----------------x--5-------5-----5----x-----6--------6----x----|


   Pre-Chorus
    Gtr IV
     |
     o

         PM----|      PM----|      PM|      PM----|      PM----|      PM-----|
||---------------------------------------------------------------------------|
||---------------------------------------------------------------------------|
||o--------------------------------------------------------------------------|
||---------------------------------------------------------------------------|
||o--------------------------------------------------------------------------|
||---------------------------------------------------------------------------|
||--10p7-7-7-7-7-10p7-7-7-7-7-10p7-7-7-12p9-9-9-9-9-12p9-9-9-9-9-12p9-9-9----|
|
|        PM----|      PM----|      PM|      PM----|      PM----|      PM-----|
||---------------------------------------------------------------------------|
||---------------------------------------------------------------------------|
||o--------------------------------------------------------------------------|
||---------------------------------------------------------------------------|
||o--------------------------------------------------------------------------|
||---9p5-5-5-5-5--9p5-5-5-5-5--9p5-5-5-10p7-7-7-7-7-10p7-7-7-7-7-10p7-7-7----|
||---------------------------------------------------------------------------|
|
|        PM----|      PM----|      PM|      PM----|      PM----|      PM-----|
||---------------------------------------------------------------------------|
||---------------------------------------------------------------------------|
||o--------------------------------------------------------------------------|
||--11p7-7-7-7-7-11p7-7-7-7-7-11p7-7-7-12p9-9-9-9-9-12p9-9-9-9-9-12p9-9-9----|
||o--------------------------------------------------------------------------|
||---------------------------------------------------------------------------|
||---------------------------------------------------------------------------|


         PM------|         PM------|         PM|      PM----|     PM----|     PM----|
|-----------------------------------------------------------------------------------|
|-----------------------------------------------------------------------------------|
|-----------------------------------------------------------------------------------|
|-----------------------------------------------------------------------------------|
|-----------------------------------------------------------------------------------|
|-----------------------------------------------------------------------------------|
|-14p10-10-10-10-10-14p10-10-10-10-10-14p10-10-10-9p6-6-6-6-6-9p6-6-6-6-6-9p6-6-6---|
|
|        PM------|         PM------|         PM|      PM----|     PM----|     PM----|
|-----------------------------------------------------------------------------------|
|-----------------------------------------------------------------------------------|
|-----------------------------------------------------------------------------------|
|-----------------------------------------------------------------------------------|
|-----------------------------------------------------------------------------------|
|-12p=9--9--9--9--9-12p=9--9--9--9--9-12p=9--9--9-7p4-4-4-4-4-7p4-4-4-4-4-7p4-4-4---|
|-----------------------------------------------------------------------------------|
|
|        PM------|         PM------|                  PM----|     PM----|     PM----|
|-----------------------------------------------------------------------------------|
|-----------------------------------------------------------------------------------|
|-----------------------------------------------------------------------------------|
|-14p11-11-11-11-11-14p11-11-11-11-11-14p11-11-11-9p6-6-6-6-6-9p6-6-6-6-6-9p6-6-6---|
|-----------------------------------------------------------------------------------|
|-----------------------------------------------------------------------------------|
|-----------------------------------------------------------------------------------|


       PM----|      PM----|      PM|      PM----|      PM----|      PM----|
|-------------------------------------------------------------------------|
|-------------------------------------------------------------------------|
|-------------------------------------------------------------------------|
|-------------------------------------------------------------------------|
|-------------------------------------------------------------------------|
|-------------------------------------------------------------------------|
|-10p7-7-7-7-7-10p7-7-7-7-7-10p7-7-7-12p9-9-9-9-9-12p9-9-9-9-9-12p9-9-9---|
|
|      PM----|      PM----|      PM|      PM----|      PM----|      PM----|
|-------------------------------------------------------------------------|
|-------------------------------------------------------------------------|
|-------------------------------------------------------------------------|
|-------------------------------------------------------------------------|
|--9p5-5-5-5-5--9p5-5-5-5-5--9p5-5-5-11p7-7-7-7-7-11p7-7-7-7-7-11p7-7-7---|
|-------------------------------------------------------------------------|
|-------------------------------------------------------------------------|
|
|      PM----|      PM----|      PM|      PM----|      PM----|      PM----|
|-------------------------------------------------------------------------|
|-------------------------------------------------------------------------|
|-------------------------------------------------------------------------|
|-11p7-7-7-7-7-11p7-7-7-7-7-11p7-7-7-12p9-9-9-9-9-12p9-9-9-9-9-12p9-9-9---|
|-------------------------------------------------------------------------|
|-------------------------------------------------------------------------|
|-------------------------------------------------------------------------|


  1.
         PM------|         PM------|         PM-----------------------------------------------|
|---------------------------------------------------------------------------------------------|
|---------------------------------------------------------------------------------------------|
|------------------------------------------------------------------------------------------o--|
|---------------------------------------------------------------------------------------------|
|--------------------------------------------------8--8--8--8--4--4--4--4-/11-11-11-11--8\-o--|
|---------------------------------------------------------------------------------------------|
|-14p10-10-10-10-10-14p10-10-10-10-10-14p10-10-10---------------------------------------------|
|
|        PM------|         PM------|         PM-----------------------------------------------|
|---------------------------------------------------------------------------------------------|
|---------------------------------------------------------------------------------------------|
|-------------------------------------------------13-13-13-13-10-10-10-10-/16-16-16-16-13\-o--|
|---------------------------------------------------------------------------------------------|
|-12p=9--9--9--9--9-12p=9--9--9--9--9-12p=9--9--9------------------------------------------o--|
|---------------------------------------------------------------------------------------------|
|---------------------------------------------------------------------------------------------|
|
|        PM------|         PM------|         PM-----------------------------------------------|
|---------------------------------------------------------------------------------------------|
|---------------------------------------------------------------------------------------------|
|-------------------------------------------------10-10-10-10--6--6--6--6-/13-13-13-13-10\-o--|
|-14p11-11-11-11-11-14p11-11-11-11-11-14p11-11-11---------------------------------------------|
|------------------------------------------------------------------------------------------o--|
|---------------------------------------------------------------------------------------------|
|---------------------------------------------------------------------------------------------|


  2.
         PM------|         PM------|         PM-----------------------|
|---------------------------------------------------------------------|
|---------------------------------------------------------------------|
|---------------------------------------------------------------------|
|-------------------------------------------------11-11-x-11-(11)\----|
|-------------------------------------------------11-11-x-11-(11)\----|
|--------------------------------------------------9--9-x--9--(9)\----|
|-14p10-10-10-10-10-14p10-10-10-10-10-14p10-10-10---------------------|
|
|        PM------|         PM------|         PM-----------------------|
|---------------------------------------------------------------------|
|---------------------------------------------------------------------|
|---------------------------------------------------------------------|
|-------------------------------------------------11-11-x-11-(11)\----|
|-12p=9--9--9--9--9-12p=9--9--9--9--9-12p=9--9--9-11-11-x-11-(11)\----|
|--------------------------------------------------9--9-x--9--(9)\----|
|---------------------------------------------------------------------|
|
|        PM------|         PM------|         PM-----------------------|
|---------------------------------------------------------------------|
|---------------------------------------------------------------------|
|---------------------------------------------------------------------|
|-14p11-11-11-11-11-14p11-11-11-11-11-14p11-11-11-11-11-x-11-(11)\----|
|-------------------------------------------------11-11-x-11-(11)\----|
|--------------------------------------------------9--9-x--9--(9)\----|
|---------------------------------------------------------------------|


   Chorus
              ~~~~~~~~~~~~~~~~~                                        ~~~
||--------------------------------|----------------------------------------|
||--------------------------------|-----------------14---12----------------|
||o-------14-13-------(13)--------|---------14-13-------------14---13\-----|
||--11-11----------------------11-|-(11)-11-------11------------------12---|
||o-------------------------------|----------------------------------------|
||--------------------------------|----------------------------------------|
||--------------------------------|----------------------------------------|
|-
||----------------------------------|------------------------------------------|
||----------------------------------|------------------------------------------|
||o---------------------------------|------------------------------------------|
||---4-----4--4-4-4-4-4-4---4-------|------------------------------------------|
||o--4-----4--4-4-4-4-4-4---4--4----|---4------4--4--4--4-4--4-4----4-----5----|
||---2-----2--2-2-2-2-2-2---2--4----|---4------4--4--4--4-4--4-4----4-----5----|
||-----------------------------2----|---2------2--2--2--2-2--2-2----2-----3----|


              ~~~~~~~~~~~~~~~~~
|-----------------------------------|-12---------------/17---16----14-------||
|-----------------------------------|----15-14---12-------------17----------||
|---------14-13-----------(13)------|---------------14---------------------o||
|-(12)-12------------------------14-|---------------------------------------||
|-----------------------------------|--------------------------------------o||
|-----------------------------------|---------------------------------------||
|-----------------------------------|---------------------------------------||
|
|----------------------------------|-------------------------------------||
|----------------------------------|-------------------------------------||
|----------------------------------|------------------------------------o||
|----------------------------------|--7--7--7-7--x--6-----x--------------||
|---5------5--5-5-5-5-5-5---5--5---|--7--7--7-7--x--7-----x--7-------x--o||
|---5------5--5-5-5-5-5-5---5--5---|--5--5--5-5--x--4-----x--7-------x---||
|---3------3--3-3-3-3-3-3---3--3---|-------------------------5-------x---||


   Outro Chorus
    Gtr I
        PM|      PM|      PM|      PM|      PM    PM
||--------------------------------------------------|
||--------------------17-------15-------------------|
||o-18-14-14-16-14-14----14-14----14-14-18-14-16-14-|
||--------------------------------------------------|
||o-------------------------------------------------|
||--------------------------------------------------|
||--------------------------------------------------|
|
|   Gtr III
|       PM|      PM|      PM|      PM|      PM    PM
||--------------------------------------------------|
||--------------------14-------12-------------------|
||o-14-11-11-13-11-11----11-11----11-11-14-11-13-11-|
||--------------------------------------------------|
||o-------------------------------------------------|
||--------------------------------------------------|
||--------------------------------------------------|
|
|   Gtr II
||--------------------------------------------------|
||--------------------------------------------------|
||o-------------------------------------------------|
||---4--4--4--4--4--4--4--4--4--4--4--4--4--4--4--4-|
||o--4--4--4--4--4--4--4--4--4--4--4--4--4--4--4--4-|
||---2--2--2--2--2--2--2--2--2--2--2--2--2--2--2--2-|
||--------------------------------------------------|


      PM|      PM|      PM|      PM|      PM    PM
|-------------------------------------------------|
|-------------------17-------15-------------------|
|-18-------16-------------------------18----16----|
|----14-14----14-14----14-14----14-14----14----14-|
|-------------------------------------------------|
|-------------------------------------------------|
|-------------------------------------------------|
|
|     PM|      PM|      PM|      PM|      PM    PM
|-------------------------------------------------|
|-------------------14-------12-------------------|
|-14-------13-------------------------14----13----|
|----11-11----11-11----11-11----11-11----11----11-|
|-------------------------------------------------|
|-------------------------------------------------|
|-------------------------------------------------|
|
|-------------------------------------------------|
|-------------------------------------------------|
|-------------------------------------------------|
|-------------------------------------------------|
|--4--4--4--4--4--4--4--4--4--4--4--4--4--4--4--4-|
|--4--4--4--4--4--4--4--4--4--4--4--4--4--4--4--4-|
|--2--2--2--2--2--2--2--2--2--2--2--2--2--2--2--2-|


      PM|      PM|      PM    PM|      PM|      PM
|-------------------------------------------------|
|-------------------------------------------------|
|-16-------16-------16----18-------18-------18----|
|----14-14----14-14----14----14-14----14-14----14-|
|-------------------------------------------------|
|-------------------------------------------------|
|-------------------------------------------------|
|
|     PM|      PM|      PM    PM|      PM|      PM
|-------------------------------------------------|
|-------------------------------------------------|
|-13-------13-------13----14-------14-------14----|
|----11-11----11-11----11----11-11----11-11----11-|
|-------------------------------------------------|
|-------------------------------------------------|
|-------------------------------------------------|
|
|-------------------------------------------------|
|-------------------------------------------------|
|-------------------------------------------------|
|-------------------------------------------------|
|--5--5--5--5--5--5--5--5--5--5--5--5--5--5--5--5-|
|--5--5--5--5--5--5--5--5--5--5--5--5--5--5--5--5-|
|--3--3--3--3--3--3--3--3--3--3--3--3--3--3--3--3-|


      PM|      PM|      PM
|------------------------------------------||
|------------------------------------------||
|-13-------13-------13----/14-----13------o||
|----11-11----11-11----11------------14----||
|-----------------------------------------o||
|------------------------------------------||
|------------------------------------------||
|
|     PM|      PM|      PM
|-------------------------/17-----16-------||
|-17-------17-------17---------------17----||
|-----------------------------------------o||
|----14-14----14-14----14------------------||
|-----------------------------------------o||
|------------------------------------------||
|------------------------------------------||
|
|------------------------------------------||
|------------------------------------------||
|-----------------------------------------o||
|--7-----7-----7--7--x--6-----x------------||
|--7-----7-----7--7--x--7-----x-7-------x-o||
|--5-----5-----5--5--x--4-----x-7-------x--||
|-------------------------------5-------x--||


 Outro
|----------------------------------|----------------------------------|
|----------------------------------|----------------------------------|
|----------------------------------|----------------------------------|
|-11-11-11-11--9--9--9-------------|----------------------------11--9-|
|----------------------11-11-11-11-|-12-12-12-12-12-11-11-11----------|
|----------------------------------|-------------------------12-------|
|----------------------------------|----------------------------------|
|
|----------------------------------|----------------------------------|
|-14-14-14-14-12-12-12-------------|----------------------------14-12-|
|----------------------13-13-13-13-|-14-14-14-14-14-13-13-13----------|
|----------------------------------|-------------------------14-------|
|----------------------------------|----------------------------------|
|----------------------------------|----------------------------------|
|----------------------------------|----------------------------------|
|
|----------------------------------|----------------------------------|
|----------------------------------|----------------------------------|
|----------------------------------|----------------------------------|
|----------------------------------|----------------------------------|
|--9-------------------------------|--7-------------------------------|
|--9-------------------------------|--7-------------------------------|
|--7-------------------------------|--5-------------------------------|


|----------------------------------|-------------------------------------|
|----------------------------------|-------------------------------------|
|----------------------------------|-------------------------------------|
|-12-12-12-12-11-11-11-------------|-------------------------------------|
|----------------------12-12-12-12-|-12--12-12-12-11-11-11--8--8--8--8---|
|----------------------------------|-------------------------------------|
|----------------------------------|-------------------------------------|
|
|----------------------------------|-------------------------------------|
|-15-15-15-15-14-14-14-------------|-------------------------------------|
|----------------------14-14-14-14-|-14--14-14-14-13-13-13-10-10-10-10---|
|----------------------------------|-------------------------------------|
|----------------------------------|-------------------------------------|
|----------------------------------|-------------------------------------|
|----------------------------------|-------------------------------------|
|
|                                     \2
|----------------------------------|-------------------------------------|
|----------------------------------|-------------------------------------|
|----------------------------------|-------------------------------------|
|----------------------------------|-------------------------------------|
|--5-------------------------------|--2----------------------------------|
|--5-------------------------------|--2----------------------------------|
|--3-------------------------------|--0----------------------------------|


|-----------|---------*|
|-----------|---------*|
|-11--------|-(11)----*|
|--x--------|--(x)----*|
|--9--------|--(9)----*|
|-----------|---------*|
|-----------|---------*|
|
|-----------|---------*|
|-----------|---------*|
|--7--------|--(7)----*|
|--x--------|--(x)----*|
|--5--------|--(5)----*|
|-----------|---------*|
|-----------|---------*|
|
|-----------|---------*|
|-----------|---------*|
|-----------|---------*|
|--4--------|--(4)----*|
|--x--------|--(x)----*|
|--2--------|--(2)----*|
|-----------|---------*|

10. Like Callisto to a Star in Heaven

Intro

e|---------------------------------------------------------------------------|
B|---------------------------------------------------------------------------|
G|-------------7-9-----------------7-9---------------------------------------|
D|--9-7----7-9-----10---9-7----7-9-----10-9-9--------------------------------|
A|7-----10------------7-----10-----------------------------------------------|
E|---------------------------------------------------------------------------|


Riff 1

e|---------------------------------------------------------------------------|
B|---------------------------------------------------------------------------|
G|---------------------------------------------------------------------------|
D|---2-0h3----2-0h3----2-0h3-----------------------2-0h3----2-0h3----2-0h3---|
A|------------------------------------3-2------------------------------------|
E|00-------00-------00-------00-4-3-4-----4-3-1-00-------00-------00-------00|

e|---------------------------------------------------------------------------|
B|---------------------------------------------------------------------------|
G|14-14-14-14-13-13-13-13----------------------------------------------------|
D|---------------------------2-0h3----2-0h3----20h3--------------------------|
A|12-12-12-12-11-11-11-11------------------------------------3-2-------------|
E|------------------------00-------00-------00------00-4-3-4-----4-3-1-00----|

e|---------------------------------------------------------------------------|
B|---------------------------------------------------------------------------|
G|---------------------------17-17-17-17-16-16-16-16-------------------------|
D|2-0h3----2-0h3----2-0h3----------------------------------------------------|
A|---------------------------15-15-15-15-14-14-14-14-------------------------|
E|------00-------00-------00-------------------------------------------------|


Riff 2

e|---------------------------------------------------------------------------|
B|---------------------------------------------------------------------------|
G|---------------------------------------------------------------------------|
D|--------------------------2-------------------------------------3----------|
A|------------------------2---2-----------------------------------3----------|
E|0-0-0-0-0-0-0-0-4-3-1-0-------4-3-1-0-0-0-0-0-0-0-0-0-0-0-0-0-0-1----------|

e|---------------------------------------------------------------------------|
B|---------------------------------------------------------------------------|
G|---------------------------------------------------------------------------|
D|--------------------------2-------------------------3/5-5-3/5-5------------|
A|------------------------2---2-----------------------3/5-5-3/5-5------------|
E|0-0-0-0-0-0-0-0-4-3-1-0-------4-3-1-0-0-0-0-0-0-0-0-1/3-3-1/3-3------------|


Riff 3

e|---------------------------------------------------------------------------|
B|---------------------------------------------------------------------------|
G|---------------------------------------------------------------------------|
D|2-----3---------5-----6-2-----3-------0---0-2-3-2-2-----3---------5-----6--|
A|2-----3---------5-----6-2-----3-----0---0---------2-----3---------5-----6--|
E|0-0-0-1-0-0-0-0-3-0-0-4-0-0-0-1-0-0---------------0-0-0-1-0-0-0-0-3-0-0-4--|

e|---------------------------------------------------------------------------|
B|---------------------------------------------------------------------------|
G|---------------------------------------------------------------------------|
D|2-----3-----222-222-2-----3---------5-----6-2-----3-------0---0-2-3-2-2----|
A|2-----3-----222-222-2-----3---------5-----6-2-----3-----0---0---------2----|
E|0-0-0-1-0-0-000-000-0-0-0-1-0-0-0-0-3-0-0-4-0-0-0-1-0-0---------------0-0-0|

e|----------------------------------------------------0-1-0------------------|
B|--------------------------------------------0---0-3------------------------|
G|----------------------------------------------1----------------------------|
D|3---------5-----6-2-----3-------0---0-2-3-2--------------------------------|
A|3---------5-----6-2-----3-----0---0----------------------------------------|
E|1-0-0-0-0-3-0-0-4-0-0-0-1-0-0----------------------------------------------|


Chorus 1

e|---------------------------------------------------------------------------|
B|---------------------------------------------------------------------------|
G|--5-7---5-7----------------------------------------------------------------|
D|2-5-7-2-5-7----------------------------------------------------------------|
A|2-3-5-2-3-5----------------------------------------------------------------|
E|0-----0--------------------------------------------------------------------|


Chorus 2

e|---------------------------------------------------------------------------|
B|---------------------------------------------------------------------------|
G|-------------7-9---------------------7-9----7-7----------------------------|
D|--9-7----7-9-----10-9-9---9-7----7-9-----10--------------------------------|
A|7-----10----------------7-----10-------------------------------------------|
E|---------------------------------------------------------------------------|


Riff 4

e|---------------------------------------------------------------------------|
B|---------------------------------------------------------------------------|
G|99-99-9999999--10--10-10--10-10--13-13--16-16------------------------------|
D|---------------------------------------------------------------------------|
A|77-77-7777777--8---8--8---8--8---11-11--14-14------------------------------|
E|---------------------------------------------------------------------------|


Riff 4.2

e|---------------------------------------------------------------------------|
B|---------------------------------------------------------------------------|
G|99-99-9999999--10--10-10--10-10--16-16-16-14-14-14-------------------------|
D|---------------------------------------------------------------------------|
A|77-77-7777777--8---8--8---8--8---14-14-14-12-12-12-------------------------|
E|---------------------------------------------------------------------------|


Riff 5

e|---------------------------------------------------------------------------|
B|---------------------------------------------------------------------------|
G|---------------------------------------------------------------------------|
D|22-22-22-2-22-22-2-2-22-22-------------------------------------------------|
A|22-22-22-2-22-22-2-2-22-22-------------------------------------------------|
E|00-00-00-0-00-00-0-0-00-00-------------------------------------------------|


Solo Riff

e|---------------------------------------------------------------------------|
B|---------------------------------------------------------------------------|
G|---------------------------------------------------------------------------|
D|2-3-5-7-2-3-5-7-2-3-5-7-2-3-5-7--------------------------------------------|
A|2-3-5-7-2-3-5-7-2-3-5-7-2-3-5-7--------------------------------------------|
E|0-1-3-5-0-1-3-5-0-1-3-5-0-1-3-5--------------------------------------------|


Riff 5.2

e|---------------------------------------------------------------------------|
B|---------------------------------------------------------------------------|
G|---------------------------------------------------------------------------|
D|22-22-22222222-2-22-2-2-22-22----------------------------------------------|
A|22-22-22222222-2-22-2-2-22-22----------------------------------------------|
E|00-00-00000000-0-00-0-0-00-00----------------------------------------------|


Riff 6

e|---------------------------------------------------------------------------|
B|---------------------------------------------------------------------------|
G|---------------------------------------------------------------------------|
D|-----5------3--------------------------------------------------------------|
A|-----5------3--------------------------------------------------------------|
E|3333-3-1111-1--------------------------------------------------------------|



And this is the pattern:

Intro x2
Riff 1
Riff 2 x2
Riff 3
Intro
Chorus 1 x2
Riff 1
Riff 2 x2
Riff 3
Intro
Chorus 1 x2
Chorus 2 x2
Riff 4 x3
Riff 4.2
Riff 5 
Solo Riff
Riff 5.2 x2
Riff 4
Riff 4.2
Bass and drums only
Riff 6
Riff 1 (Only the second part of the riff)
Riff 3
Chorus 2 x4

End on:

e|---------------------------------------------------------------------------|
B|---------------------------------------------------------------------------|
G|---------------------------------------------------------------------------|
D|---2-0h3----2-0h3----2-0h3-------------------------------------------------|
A|---------------------------------------------------------------------------|
E|00-------00-------00-------------------------------------------------------|


| /  slide up
| \  slide down
| h  hammer-on
| p  pull-off
| ~  vibrato
| +  harmonic
| x  Mute note

11. Shogun

~~Riff A~~
e|------------------------------------------------------------------------------|
B|------------------------------------------------------------------------------|
G|o-----------------------------------------------------------------------------|
D|------------------------------------------------------------------------------|
A|o-9999-55555555-77-99-10101010-44444-55555-777-9999-55555555-77-99-777-975555-|
E|------------------------------------------------------------------------------|
B|------------------------------------------------------------------------------|

e|----------------|-------------------------------------------------|
B|----------------|-------------------------------------------------|
G|---------------o|-------------------------------------------------|
D|----7----7------|-------------------------------------------------|
A|----7----7-----o|-------------------------------------------------|
E|----5----5------|-----2-----------2-----------3-----------3-------|
B|-00---00--------|-0235--0-0-0-0235--0-0-0-0235--0-0-0-0235--0-0-0-|
Pm ..   ..


~~Riff B~~
e|------------------------------------------|-----------|-------|----------|
B|------------------------------------------|-----------|-------|----------|
G|------------------------------------------|-----------|-------|----------|
D|------------------------------------------|-----------|-------|----------|
A|------------------------------------------|---5--54-2-|-------|-5--54-2--|
E|-----2-----------2-----------3------------|---5--54---|-------|-5--54----|
B|-0235--0-0-0-0235--0-0-0-0235--0-0-0-0235-|---3--32---|-/-/---|-3--32----|


~~Riff C~~
e|----------------------------------|
B|----------------------------------|
G|-4--6--7--9--11-6--9--7-76--------|
D|-X--X--X--X--X--X--X--X-XX--------|
A|-2--4--5--7--9--4--7--5-54--------|
E|----------------------------------|
B|----------------------------------|


~~Riff D~~
e|------------------------------------------------------------------------|
B|------------------------------------------------------------------------|
G|o-12/11-11-11--12/11-11-11--12/11-11-11-11/9-9-9--11-9-9-9--11-9-9-9----|
D|--X--X--X--X---X--X--X--X---X--X--X--X--X--X-X-X--X--X-X-X--X--X-X-X----|
A|o-10/9--9--9---10/9--9--9---10/9--9--9--9/-7-7-7--9/-7-7-7--9/-7-7-7----|
E|------------------------------------------------------------------------|
B|------------------------------------------------------------------------|

e|-------------------------------------|-------------|
B|-------------------------------------|-------------|
G|-444-----666---------777-----444-333-|------------o|
D|-----444-----444-444-----444---------|-------------|
A|-------------------------------------|------------o|
E|-------------------------------------|-------------|
B|-------------------------------------|-00000000----|
Pm                                       ........


~~Riff E~~
e|-----------------------------------------------------------------------------------|
B|-333-222-------------777-------------------333-222----88888888-777-555-33----------|
G|---------44--------------999-77--------------------44---------------------444-3333-|
D|------------55555555------------999-888888-----------------------------------------|
A|-----------------------------------------------------------------------------------|
E|-----------------------------------------------------------------------------------|
B|-----------------------------------------------------------------------------------|
Chords Behind That ---^ (Strum with any pattern)
   Bm  G   D   F#Sus F#    Bm  G   D   F#Sus F#7
e|-2---3-------2-----2-----2---3-------2-----2----------|
B|-3---3---7---2-----2-----3---3-------2-----2----------|
G|-4---4---7---4-----3-----4---4-------4-----3----------|
D|-4---5---7---4-----4-----4---5---4---4-----2----------|
A|-2---5---5---4-----4-----2---5---5---4-----4----------|
E|-----3-------2-----2---------3---5---2-----2----------|
B|---------------------------------3--------------------|


~~Riff F~~
e|-------------------------------------------------------------------------|
B|-------------------------------------------------------------------------|
G|-------------------------------------------------------------------------|
D|--------------------------------------------------------4-4/7-7/5-5------|
A|---------4-4/7-7/5-5---------4-4/7-7/5-5--9--9--------2-5-5/9-9/7-7------|
E|-------2-5-5/9-9/7-7-------2-5-5/9-9/7-7-10-10--0000000------------------|
B|-0000000-------------0000000---------------------------------------------|
Pm ......              ......                     ......

e|--------------------------------|
B|--------------------------------|
G|--------------------------------|
D|--------5-----------------------|
A|--------5-------5--------4------|
E|-333333-3-------5--------4------|
B|-----------3333-3---2222-2------|
Pm ......    ....     ....


__CLEAN SECTION__
~~Riff A~~
e|------------------------0------------------------------------0----------|
B|----3---3-------3---3-----2------------3---3-------3---3---2---2--------|
G|--0---0---0---0---0---0-----0--------0---0---0---0---0---0--------------|
D|------------------------------0----------------------------------0------|
A|-2----------2-------------------1--2-----------2-------------------4----|
E|------------------------------------------------------------------------|
B|------------------------------------------------------------------------|


~~Riff B~~
e|---------------------------------------------------------------------------|
B|-----3---3-------3---3-------2---2-------2---2-------3---3-------5---5-----|
G|---0---0---0---0---0---0---0---0---0---0---0---0---0---0---0---0---0---0---|
D|---------------------------------------------------------------------------|
A|-2-----------2-----------1-----------1-----------2-----------4-------------|
E|---------------------------------------------------------------------------|
B|---------------------------------------------------------------------------|

e|----------------------------|
B|-----2---2-------2---2------|
G|---0---0---0---0---0---0----|
D|----------------------------|
A|-1-----------1--------------|
E|----------------------------|
B|----------------------------|


~~Riff C~~
e|---------------------------------------------------------------------------|
B|-----3---3-------2---0-------2---3-------2---2-------3---3-------0---0-----|
G|---0---0---0---0---0---0---0---0---0---0---0---0---0---0---0---0---0---0---|
D|---------------------------------------------------------------------------|
A|-2-----------2-----------1-----------1-----------2-----------2-------------|
E|---------------------------------------------------------------------------|
B|---------------------------------------------------------------------------|

e|-----2---3------------------|
B|-----------------2---2------|
G|---0---0---0---0---0---0----|
D|----------------------------|
A|-4-----------1--------------|
E|----------------------------|
B|----------------------------|


~~Riff D~~
e|-----3---3-------2---2-------0---0--------------------|
B|-----------------------------------------2---2h3------|
G|---0---0---0---0---0---0---0---0---0---0---0----------|
D|-0----------------------------------------------------|
A|-------------4-----------2-----------1----------------|
E|------------------------------------------------------|
B|------------------------------------------------------|


~~Riff E~~
e|-----------------------------------------------------------------------------------|
B|-------7----7h8p7----------7----7h8p7----------7----7h8p7---------8------7h8-------|
G|-7---7------------7--7---7------------7--7---7------------7-----9---9--------9-----|
D|---7------7------------8------8------------9------9----------10--------10-------10-|
A|-----------------------------------------------------------------------------------|
E|-----------------------------------------------------------------------------------|
B|-----------------------------------------------------------------------------------|

Dunno what these chords are. Im rubbish at working chords out...

~~Riff F~~ (Solo)
e|------------------------------------------------------------------------|
B|----------------------------------------------------14--14b-15b-17b-11--|
G|---------------9b11-9b11-9-------------------9--11--12------------------|
D|-7-8-9-12-12-9--------------7-8-9-12-12-9--7----12--14------------------|
A|------------------------------------------------------------------------|
E|------------------------------------------------------------------------|
B|------------------------------------------------------------------------|

e|-(/)10-7----------------------------------------------|
B|---------10-7-----10-7------------9br--------14b------|
G|--------------9-7------9-7--------9br-----------------|
D|---------------------------9-7-9------7---9-----------|
A|----------------------------------------8-------------|
E|------------------------------------------------------|
B|------------------------------------------------------|


BACK TO HEAVY SECTION
~~Riff A~~
e|-----------------------------------------------------------------------------------|
B|-----------------------------------------------------------------------------------|
G|-----------------------------------------------------------------------------------|
D|-----------------------------------------------------------------------------------|
A|-5--5-5-5---8-8--7-4---5--5-5-5---8-8--7-4---5---5-5---8-8--7-4--5--5-5-5-8-8-7-4--|
E|-5--5-5-5---8-8--7-4---5--5-5-5---8-8--7-4---5---5-5---8-8--7-4--5--5-5-5-8-8-7-4--|
B|-3--3-3-3---6-6--5-2---3--3-3-3---6-6--5-2---3---3-3---6-6--5-2--3--3-3-3-6-6-5-2--|
Pm                                                 . .   . .  . .


~Riff B~ (Strum These)
e|-------------------------------------------------------------------------|
B|-------------------------------------------------------------------------|
G|-4--6--7--9--6--7--9--10-9/10--------------------------------------------|
D|-X--X--X--X--X--X--X--X--X-X---9--11-12--1112--9--12--11-14--12-12--5/8--|
A|-2--4--5--7--4--5--7--9--7/9---X--X---X--X--X--X---X--X---X---X--X--X-X--|
E|-------------------------------7--9--10--9/10--7--10--9--12--10-10--3/6--|
B|-------------------------------------------------------------------------|


~~Riff C~~
e|-----------------------------------------------------------------|
B|-----------------------------------------------------------------|
G|-----------------------------------------------------------------|
D|-9------9---9--11-----11--11-12------12---12--14------17---17----|
A|-X------X---X--X------X---X---X-------X----X---X-------X----X----|
E|-7-2----7---7--9-2----9---9--10-2----10---10--12-2----15---15----|
B|---0--0---0------0--0---0-------0--0----0--------0--0----0-------|
Pm      .   .         .   .          .    .           .    .


~~Riff D~~ (Main Solo Backing)
e|---------------------------------------------------------------|
B|---------------------------------------------------------------|
G|---------------------------------------------------------------|
D|---------------------------------------------------------------|
A|---------------------------------------------------------------|
E|------7-5h7-----9-7h9------------------------------------------|
B|-0--0-------0-0--------0-0-0--0-2-3-0-3-5-0-5-7-0-7-8-7-5-3----|
Pm    .       . .        . . .


MAIN SOLO
e|------------15-----19-17-15---------------------------------------------------|
B|----------17--16------------19-17-15------------------------------------------|
G|--------16------17-------------------18-16-14---------------------------------|
D|------17--------------------------------------17-16-14------------------------|
A|-16h19-------------------------------------------------17-16-14---------------|
E|----------------------------------------------------------------17-14-12-12---|
B|------------------------------------------------------------------------------|

e|------------------------------------------------------------------------------------|
B|----------------------------------------12------------------------------------------|
G|-----------------------9-11-12-11-(11V)----11-11-12-12-9-9-9------------------------|
D|---------------9-11-12---------------------------------------12-11-12--11h12p11-9---|
A|--------7-9-10----------------------------------------------------------------------|
E|-7-9-10-----------------------------------------------------------------------------|
B|------------------------------------------------------------------------------------|
Pm . . .  . . .

e|---------------------------------|
B|-10-12-8-10-7-8---7--------------|
G|----------------9---7-9-7-6------|
D|----------------------------9----|
A|---------------------------------|
E|---------------------------------|
B|---------------------------------|

Do each little section twice (except the last one).
e|-9-7-5-7-9-7-9-7-5-7-9-7-9-7-5-7--|-10-9-7-9-10-9-10-9-7-9-10-9-10-9-7-9----|
B|----------------------------------|-----------------------------------------|
G|----------------------------------|-----------------------------------------|
D|----------------------------------|-----------------------------------------|
A|----------------------------------|-----------------------------------------|
E|----------------------------------|-----------------------------------------|
B|----------------------------------|-----------------------------------------|

e|12-10-9-10-12-10-12-10-9-10-12-10-12-10-9-10-|-14-12-10-12-14-12-10-12--15-14-12-14-15-14-12-14|
B|---------------------------------------------|-------------------------------------------------|
G|---------------------------------------------|-------------------------------------------------|
D|---------------------------------------------|-------------------------------------------------|
A|---------------------------------------------|-------------------------------------------------|
E|---------------------------------------------|-------------------------------------------------|
B|---------------------------------------------|-------------------------------------------------|

e|-19-------------------19~~~------------|
B|----19-20-17-19-15-17------------------|
G|---------------------------------------|
D|---------------------------------------|
A|---------------------------------------|
E|---------------------------------------|
B|---------------------------------------|


~~Riff E~~ Do 1st section 3 times and then carry on.
e|-------------------------------|----------------------------------------|
B|-------------------------------|----------------------------------------|
G|-------------------------------|----------------------------------------|
D|-------------------------------|----------------------------------------|
A|-------------------------------|----------------------------------------|
E|-------------------------------|----------------------------------------|
B|-0-2-3-0-3-5-0-5-7-0-7-8-7-5-3-|-0-5-7-0-7-8-0-8-10-0-10-12-10-8-7------|

e|---------------------------------------------|
B|---------------------------------------------|
G|---------------------------------------------|
D|---------------------------------------------|
A|---------------------------------------------|
E|---------------------------------------------|
B|-0-8-10-0-10-12-0-12-14-0-14-15-14-12-0------|

DO Riff C of the BACK TO HEAVY SECTION  again.

~~Riff F~~
e|---------------------------------------------------------------------|
B|---------------------------------------------------------------------|
G|-16--14--12---11--16---14---12---9------7--14--18-18br-16--16--------|
D|--X---X---X---X----X----X----X---X---4---------------------19b21-----|
A|-14--12--10---9---14---12---10---7-----------------------------------|
E|---------------------------------------------------------------------|
B|---------------------------------------------------------------------|

MAIN SOLO 2
e|-10-----12-----14-----15------------------------------------------------------|
B|-13b15--15b17--17b19--18b20--15-12-11-12-15-12-15-12-11-12-15-12-15-12-11-12--|
G|------------------------------------------------------------------------------|
D|------------------------------------------------------------------------------|
A|------------------------------------------------------------------------------|
E|------------------------------------------------------------------------------|
B|------------------------------------------------------------------------------|

e|-------------------------------------------------------|
B|-14-12-11-12-14-12-14-12-11-12-14-12-14-12-11-12-------|
G|-------------------------------------------------------|
D|-------------------------------------------------------|
A|-------------------------------------------------------|
E|-------------------------------------------------------|
B|-------------------------------------------------------|

e|-14-----15-----17-----19-----22-19-18-19-22-19-22-19-18-19-22-19-22-19-18-19----|
B|-17b19--18b20--20b22--22b24-----------------------------------------------------|
G|--------------------------------------------------------------------------------|
D|--------------------------------------------------------------------------------|
A|--------------------------------------------------------------------------------|
E|--------------------------------------------------------------------------------|
B|--------------------------------------------------------------------------------|

e|-21-19-18-19-21-19-21-19-18-19-21-19-21-19-18-19--19-----------|
B|--------------------------------------------------22b24--------|
G|---------------------------------------------------------------|
D|---------------------------------------------------------------|
A|---------------------------------------------------------------|
E|---------------------------------------------------------------|
B|---------------------------------------------------------------|

Do Riff E again.


~~Riff G~~ Keep doing this but change the fret from 12, to 14, 15 and 17 on the B string 
then 15 on
the E string. (it makes it easier to tab)
e|-----------------------------------------------|
B|-----------------------------------------------|
G|-----------------------------------------------|
D|-----------------------------------------------|
A|-----------------------------------------------|
E|-----------------------------------------------|
B|-12-0-12-0-12-0-12-0-12-0-12-0-12-0-12-12-0----|


~~Riff H~~ I borrowed this from the GP tab. :)
e|--------------------------3------------5-----3----------------------------------|
B|-3------2-----------0-3-0---3------------3-----3-------------------8--7---------|
G|---4------4---4---0-----------4------------4-----4--4--3---7--6----7--7---6-----|
D|-----4------4---4---------------5----4--------------4--2---9----9--9--7---4-----|
A|----------------------------------------------------5--4---9--------------4-----|
E|--------------------------------------------------------------------------------|
B|--------------------------------------------------------------------------------|


And that's it. Rate please?
comments
We did not receive enough feedback on this tab! Please rate:
print report bad tab
1 2 3 4 5
3 comments total.
0 reply
Lukige wrote on January 29 2010, 06:20 pm

Could've chosen way better tabs for quite a few of these

0 reply
Majin Gaara wrote on February 1 2010, 01:34 pm

A LOT of it's wrong.

0 reply
slipknot836 wrote on February 4 2010, 02:26 pm

you could of asked for the tabs dude (dont matter though mate), ive got another version on the way due for march. ive asked lukige, alexdawsome, jjhand, dangd and a few others for the tabs and theyve sed yes. ive tabbed the offical version for 'into...' (came in a total guitar mag lol). gud job though, your tab will keep people busy till ive got my one tabbed.....ill put your name on my version....ill feel kinda bad taking all the glory m8 lol :)

I want to post or [tab]
guest
You may want to rate the tab now too:
select rating
Please do not post tabs as comments. Select "correction" instead!