Oops, an error
Loading. Please wait.

Shogun Tab

ver2
ver2

Album

Solo

Whole song

More versions @911Tabs.com
9,440 views 6 this week
5 commentsread comments
1 2 3 4 5
accurate
x 14
Autoscroll
+/-
esc
set tempo
stop
Contributor
Difficulty
advanced
Hey! There's an official Ultimate Guitar app which is ideal
for learning songs when you're away from computer. Get the app
WARNING: You are trying to view
                                    content from Ultimate-Guitar.com
                                    in an unauthorized application,
                                    which is prohibited.

                                    Please use an official Ultimate
                                    Guitar Tabs application for iPhone,
                                    iPad or Android to access legitimate
                                    chords, guitar, bass, and drum tabs
                                    from Ultimate-Guitar.com database.

                                    Type "ultimate guitar tabs" in Apple
                                    App Store's or Android Market's
                                    search to find the application.
Band:  Trivium
Album: Shogun

Songs: 
01.Kirisute Gomen                   (tabbed by Alexdawsome)4*,18R
02.Torn Between Scylla And Charybdis(tabbed by Lukige)5*,9R
03.Down From The Sky                (tabbed by Me)5*,1R
04.Into The Mouth Of Hell We March  (tabbed by Me)5*,2R
05.Throes Of Perdition              (tabbed by Me)5*,2R
06.Insurrection                     (tabbed by Unregistered user)5*,9R
07.The Calamity                     (tabbed by jjhand)4*,7R   
08.He Who Spawned The Furies        (tabbed by Me)5*,3R
09.Of Prometheus And The Crucifix   (tabbed by Lukige)5*,7R
10.Like Callisto To A Star In Heaven(tabbed by Assaels)5*,3R
11.Shogun                           (tabbed by Dangd)5*,14R
Bonus
Songs: 
12.Poison, The Knife Or The Noose   (tabbed by Dangd)5*,8R
13.Upon The Shores                  (tabbed by Me)5*,2R
and also just for the fun of it:
The Dirty Dixies
14.My Dog My Truck My Woman         (tabbed by Me)5*,1R

its taken me an awful long time to make this album tab, because
i have tabbed these song to the same legend and tabbing boxes.
i have asked for permission to use these tabs from the people
above and they have kindly let me use them so....i owe it to them
thanks alot guys!!!! :)
i have also put the ratings that the songs have got aswell, and
next to that i have put the amount of people that have rated them
on average this album is made up of mostly 5stars, just the two that
are 4stars

all of these songs are played on a seven string 
(B,E,A,D,G,B,E) LOW TO HIGH except for 'Like Callisto', 'Insurrection'
and 'My Dog, My Truck My Woman' which are played on a 
six string standard tuning
(E,A,D,G,B,E)   LOW TO HIGH

also im ver sorry for any glitches that look like... — or something like that, 
they're little things that i cant get 
rid of, probably a viruson my computer.....but please just 
ignore them, thanks 

Legend:
PH:pinch harmonic
BU:bend up
BR:bend return
h:hammer on
p:pull off
/:slide up
\:slide down
T:taping
WBH:raise whammy bar pitch
WBL:lower whammy bar pitch
TR:tremelo
b: slight bend
AH: artificial harmonic
/x\: pick slide
X: mute string
TCH: touch harmonic
PM: palm mute


ok, here goes...

~~~~~~~~~~~~~~~~~~~~~~~~~~~
01.Kirisute Gomen
~~~~~~~~~~~~~~~~~~~~~~~~~~~

Intro
Guitar 1
E||--------------------------------------------------------------------------------|
B||--------------------------------------------------------------------------------|
G||--12-11--9--5~---16--14--12--9--8~---12-11--9--17----17--16--17---16--16--14~---|
D||--------------------------------------------------------------------------------|
A||--10--9--7--3~---14--12--10--7--6~---10--9--7--15----15--14--15---14--14--12~---|
E||---0--------------0-------------------0---------0---------0------------0--------|
B||--------------------------------------------------------------------------------|

Guitar 2
(All of these natural harmonics are palm muted)
     NH NH NH NH NH NH NH NH NH NH NH NH NH NH NH NH
E||--------------------------------------------------|
B||--------------------------------------------------|
G||--------------------------------------------------|
D||--------------------------------------------------|
A||--------------------------------------------------|
E||--12-12-12-12-12-12-12-12-12-12-12-12-12-12-12-12-|
B||--------------------------------------------------|

Guitar 1
E||---------------------------------------------------------------------|
B||---------------------------------------------------------------------|
G||--------------------8--8--8--8h9p8-----------------------------------|
D||--9-9h10p9--------------------------10-9-----------------7--9-9------| x2
A||-----------12-10-9------------------------6--7---10-7-9--------------|
E||---------------------------------------------------------------------|
B||---------------------------------------------------------------------|

Guitar 2
E||------------------------------------------------------------------------|
B||------------------------------------------------------------------------|
G||------------------------------------------------------------------------|
D||-2----------------------------------------------------------------------|
A||-2----------------4-----------------------6--7---10-7-9---7--9----------|
E||-0----------------2---------------------------------------5--7----------|
B||------------------------------------------4--5----8-5-7-----------------|

Guitar 1
                                                                        NH
E||------------------------------------------------------------------------------|
B||----------------------16-16-16-16h17p16---------------------------------------|
G||-16-16h17p16----------------------------17-16------------------14-16-16-------|
D||-------------19-17-16-------------------------13-14---17-14-16----------------| x2
A||------------------------------------------------------------------------------|
E||------------------------------------------------------------------------------|
B||------------------------------------------------------------------------------|

Guitar 2
E||------------------------------------------------------------------------|
B||------------------------------------------------------------------------|
G||------------------------------------------------------------------------|
D||-2----------------------------------------------------------------------|
A||-2------------------4-------------------------6--7----10-7-9----7--9----|
E||-0------------------2-------------------------------------------5--7----|
B||----------------------------------------------4--5-----8-5-7------------|


Verse 1
Guitar 1
E||--------------------------------------------------------------------------------|
B||--------------------------------------------------------------------------------|
G||--------------------------------------------------------------------------------|
D||------5-5---4-4---------------------------------5-5---4-4-----------------------|
A||------7-7---6-6---------------------------------7-7---6-6-----------------------|
E||---0------0------0--0-0-0---0--0-0-0--0-0-0---0-----0-------0-3p0-3p0-2p0-2p0---|
B||--------------------------------------------------------------------------------|

E||----------------------------------------------------------------------------------------------|
B||----------------------------------------------------------------------------------------------|
G||----------------------------------------------------------------------------------------------|
D||------5-5---4-4---------------------------------5-5---4-4-------------------------------------|
A||------7-7---6-6---------------------------------7-7---6-6---2p0-2p0---------3p0-3p0-----------|
E||---0------0------0--0-0-0---0--0-0-0--0-0-0---0-----0---------------3p0-3p0----------2p0-2p0--|
B||----------------------------------------------------------------------------------------------|

Guitar 2
E||--------------------------------------------------------------------------------|
B||--------------------------------------------------------------------------------|
G||--------------------------------------------------------------------------------|
D||------5-5---4-4---------------------------------2-2---1-1-----------------------|
A||------7-7---6-6---------------------------------3-3---2-2-----------------------|
E||---0------0------0--0-0-0---0--0-0-0--0-0-0---0-----0-------0-3p0-3p0-2p0-2p0---|
B||--------------------------------------------------------------------------------|

E||----------------------------------------------------------------------------------------------|
B||----------------------------------------------------------------------------------------------|
G||----------------------------------------------------------------------------------------------|
D||------5-5---4-4---------------------------------2-2---1-1-------------------------------------|
A||------7-7---6-6---------------------------------3-3---2-2---2p0-2p0---------3p0-3p0-----------|
E||---0------0------0--0-0-0---0--0-0-0--0-0-0---0-----0---------------3p0-3p0----------2p0-2p0--|
B||----------------------------------------------------------------------------------------------|


Verse 2
both guitars
E||-----------------------------------------------------------------------------------------------|
B||-----------------------------------------------------------------------------------------------|
G||-----------------------------------------------------------------------------------------------|
D||-----------------------------------------------------------------------------------------------|
A||-----------------------------------------------------------------------------2-2-2-3-3-3-6-6-6-|
E||-----------------------------------------------------5-5-5-7-7-7-8-8-8-------------------------|
B||-5-5-5-5-5-4-4-4-5-5-5-7-7-7-8-8-8-7-7-7-5-5-5-0-0-0-------------------1-1-1-------------------|

E||----------------------------------------------------------------------------|
B||----------------------------------------------------------------------------|
G||--------------------------------------------------------12-11--9--8~--------|
D||----------------------------------------------------------------------------|
A||--------------------------------------------------------10--9--7--6~--------|
E||----------------------------------------------------------------------------|
B||--5-5-5-5-5-4-4-4-5-5-5-7-7-7-8-8-8-7-7-7-5-5-5-0-0-0-----------------12\---|


Chorus
both guitars
E||-------------------------------------------------------------------------------|
B||-------------------------------------------------------------------------------|
G||-------------------------------------------------------------------------------|
D||----------------------------------------------7-7-9-9-----10-10-9-9-7-7--------|
A||--------7-7-9-9-5-5-------9-9-10-10-6-6---------------7-7---------------7-7----|
E||-------------------------------------------------------------------------------|
B||--5-5-5-------------7-7-7---------------8-8-8----------------------------------|

E||--------------------------------------------------------------------------------------------|
B||--------------------------------------------------------------------------------------------|
G||--------------------------------------------------------------------------------------------|
D||---------------------------------------------------------7-7-7-9-9-9-7-7-7------------------|
A||--9-9---------------10-10----------------12-12-----------------------------10-10-10-9-9-9---|
E||------7-7-------7-7-------7-7--------7-7-------8-8------------------------------------------|
B||----------10-10----------------11-11---------------12-12------------------------------------|


Bridge
E||--------------------------------------------|--------------------------------------------|
B||--------------------------------------------|--------------------------------------------|
G||-12-12-12--9-9-9-9-9--12-12-12--9-9-9-9-12--|--11-11-11--8-8-8-8-8---8---8-9---9-11------|
D||--------------------------------------------|--------------------------------------------|
A||-10-10-10--7-7-7-7-7--10-10-10--7-7-7-7-10--|---9--9--9--6-6-6-6-6---6-0-6-7-0-7--9--0---|
E||--------------------------------------------|--------------------------------------------|
B||--------------------------------------------|--------------------------------------------|

E||--------------------------------------------|----------------------------------------------|
B||--------------------------------------------|----------------------------------------------|
G||-12-12-12--9-9-9-9-9--12-12-12--9-9-9-9-12--|--11-11-11--8-8-8-8-8-----16----14----11------|
D||--------------------------------------------|----------------------------------------------|
A||-10-10-10--7-7-7-7-7--10-10-10--7-7-7-7-10--|---9--9--9--6-6-6-6-6-----14----12-----9------|
E||--------------------------------------------|----------------------------------------------|
B||--------------------------------------------|----------------------------------------------|

E||--------------------------------------------|--------------------------------------------|
B||--------------------------------------------|--------------------------------------------|
G||-12-12-12--9-9-9-9-9--12-12-12--9-9-9-9-12--|--11-11-11--8-8-8-8-8---8---8-9---9-11------|
D||--------------------------------------------|--------------------------------------------|
A||-10-10-10--7-7-7-7-7--10-10-10--7-7-7-7-10--|---9--9--9--6-6-6-6-6---6-0-6-7-0-7-9--0----|
E||--------------------------------------------|--------------------------------------------|
B||--------------------------------------------|--------------------------------------------|

E||--------------------------------------------|-------------------------|
B||--------------------------------------------|-------------------------|
G||-12-12-12--9-9-9-9-9--12-12-12--9-9-9-9-12--|--11-11-11--8-8-8-8-8----|
D||--------------------------------------------|-------------------------|
A||-10-10-10--7-7-7-7-7--10-10-10--7-7-7-7-10--|---9--9--9--6-6-6-6-6----|
E||--------------------------------------------|-------------------------|
B||--------------------------------------------|-------------------------|

E||--------------------|---------------------|
B||--------------------|---------------------|
G||--11-----11----11---|11----11----11---9---|
D||--------------------|---------------------|
A||---9-0-0--9-0-0-9-0-|-9-0-0-9-0-0-9-0-7---|
E||--------------------|---------------------|
B||--------------------|---------------------|


Pre Solo Riff
Guitar 1
E||-----------------------------------------------------------------|
B||-----------------------------------------------------------------|
G||-----------------------------------------------------------------|
D||-----------------------------------------------------------------|
A||-----------------------------------------------------------------|
E||--12-0-0-12-0-0-12-0-0-11-0-0-14-0-14-0-14-0-15-0-15-0-15-0-0-0--|
B||-----------------------------------------------------------------|

E||-----------------------------------------------------------------|
B||-----------------------------------------------------------------|
G||-----------------------------------------------------------------|
D||-----------------------------------------------------------------|
A||-----------------------------------------------------------------|
E||--12-0-0-12-0-0-12-0-0-11-0-0--12-0-11-0-8-0-11-0-8-0-7-0-7------|
B||-----------------------------------------------------------------|

E||-----------------------------------------------------------------|
B||-----------------------------------------------------------------|
G||-----------------------------------------------------------------|
D||-----------------------------------------------------------------|
A||-----------------------------------------------------------------|
E||--12-0-0-12-0-0-12-0-0-11-0-0-14-0-14-0-14-0-15-0-15-0-15-0-0-0--|
B||-----------------------------------------------------------------|

E||-----------------------------------------------------------------|
B||-----------------------------------------------------------------|
G||-----------------------------------------------------------------|
D||-----------------------------------------------------------------|
A||-----------------------------------------------------------------|
E||---12-0-0-12-0-0-12-0-0-11-0-12-0-14-0-15-0-14-0-15-0-17~--------|
B||-----------------------------------------------------------------|


Solo 1
CKB wah wah pedal
E||----------------------------------------------------------------------|
B||--17-17-17-17\--17-17-17-17-16-16-17-17-19-19-19-20-20-20-19-19-19~---|
G||----------------------------------------------------------------------|
D||----------------------------------------------------------------------|
A||----------------------------------------------------------------------|
E||----------------------------------------------------------------------|
B||----------------------------------------------------------------------|

E||-20-19-17-------------------------------------------------------------------------------------|
B||----------20-19-17-16-17-19-17-16-------------------------------------------------------------|
G||----------------------------------17-16-14----------------------------------------------------|
D||-------------------------------------------17-16-14-13-14-16-14-13----------------------------|
A||--------------------------------------------------------------------15-14-12------------------|
E||-----------------------------------------------------------------------------15-14-12-11-12~--|
B||----------------------------------------------------------------------------------------------|

E||------------------------------------------------------------------------------------|
B||------------------------------------------------------------------------------------|
G||--------------------------------------14--16h17p16p14----------17p16p14-------------|
D||--14~--16-14-16--17-16h17p16-14-16-17-----------------17p16p14----------17p16p14----|
A||------------------------------------------------------------------------------------|
E||------------------------------------------------------------------------------------|
B||------------------------------------------------------------------------------------|

E||----------------------------------------------17-19-20---|
B||-------------------17-19-20----------17-19-20------------|
G||----------14-16-17----------14-16-17---------------------|
D||-14-16-17------------------------------------------------|
A||---------------------------------------------------------|
E||---------------------------------------------------------|
B||---------------------------------------------------------|

E||--19-19-19-19-19-19-20-19-17-19-19-19-19-19-19-20-19-17--20-19-17-------------------------|
B||------------------------------------------------------------------20-19-17----------------|
G||---------------------------------------------------------------------------20-19-17--16---|
D||------------------------------------------------------------------------------------------|
A||------------------------------------------------------------------------------------------|
E||------------------------------------------------------------------------------------------|
B||------------------------------------------------------------------------------------------|

E||----------------------------------------------------------------|
B||----------------------------------------------------------------|
G||--14-14-14-16-16-14-14-14-16-16-14-14-14-17-17-14-14-14-16-16---|
D||----------------------------------------------------------------|
A||----------------------------------------------------------------|
E||----------------------------------------------------------------|
B||----------------------------------------------------------------|

E||--------------------------------------------------|
B||--------------------------------------------------|
G||--12-12-12-14-14-12-12-12-16-16-12-12-12--14~-----|
D||--------------------------------------------------|
A||--------------------------------------------------|
E||--------------------------------------------------|
B||--------------------------------------------------|

     T       T       T       T        T        T        T        T
E||------------------------------------------------------------------------|
B||------------------------------------------------------------------------|
G||-12p11p9-12p11p9-12p11p9-12p11p9--14p12p11-14p12p11-14p12p11-14p12p11---|
D||------------------------------------------------------------------------|
A||------------------------------------------------------------------------|
E||------------------------------------------------------------------------|
B||------------------------------------------------------------------------|

     T        T        T        T         T        T        T        T
E||----------------------------------------------------------------------------|
B||----------------------------------------------------------------------------|
G||-16p14p12-16p14p12-16p14p12-16p14p12--17p16p14-17p16p14-17p16p14-17p16p14---|
D||----------------------------------------------------------------------------|
A||----------------------------------------------------------------------------|
E||----------------------------------------------------------------------------|
B||----------------------------------------------------------------------------|

     T        T        T        T         T        T        T        T
e||---------------------------------------------------------------------------24\---|
B||-20p19p17-20p19p17-20p19p17-20p19p17--22p20p19-22p20p19-22p20p19-22p20p19--------|
G||---------------------------------------------------------------------------------|
D||---------------------------------------------------------------------------------|
A||---------------------------------------------------------------------------------|
E||---------------------------------------------------------------------------------|
B||---------------------------------------------------------------------------------|

solo 2
MKH
E||---------------------------------------------------------------------|
B||---------------------------------------------------------------------|
G||---------------------------------------------------------------------|
D||---------------------------------------------------------------------|
A||---------------------------------------------------------------------|
E||---------------------------------------------------------------------|
B||---5\0--(dime squeal on the 5th fret, then lower the tremolo bar)----|


E||------12-------12h14p12-14BU(15)-12h14p12-------------|
B||------15BU(17)-----------------------------15BU(17)---|
G||------------------------------------------------------|
D||------------------------------------------------------|
A||------------------------------------------------------|
E||------------------------------------------------------|
B||------------------------------------------------------|

E||--15-14-12h14p12-11h12p11------------------------------------------|
B||----------------------------13-12h13p12-10h12p10-------------------|
G||-------------------------------------------------11h12p11-9-8~-----|
D||-------------------------------------------------------------------|
A||-------------------------------------------------------------------|
E||-------------------------------------------------------------------|
B||-------------------------------------------------------------------|

E||------------------------------------------------20-------|
B||--------13-12h13p12--/20--19h20p19---20BU(21)~-----------|
G||--11-12--------------------------------------------------|
D||---------------------------------------------------------|
A||---------------------------------------------------------|
E||---------------------------------------------------------|
B||---------------------------------------------------------|

E||-------------------------------------------------------------------------------|
B||-------------------------------------------------------16-17-20-16-17-20-20----|
G||------------------------16-17-20-16-17-20-20~-16-17-20-------------------------|
D||--16-17-21-21--16-17-21--------------------------------------------------------|
A||-------------------------------------------------------------------------------|
E||-------------------------------------------------------------------------------|
B||-------------------------------------------------------------------------------|

E||----------16-17-20-17-16--------------------------------------------------|
B||-16-17-20----------------20-17-16-20-17-16--------------------------------|
G||-------------------------------------------20-17-16-20-17-16--------------|
D||-------------------------------------------------------------21-17-16-----|
A||--------------------------------------------------------------------------|
E||--------------------------------------------------------------------------|
B||--------------------------------------------------------------------------|

E||--------------------17------------------|
B||--------------16-19----19-16-17---------|
G||-----------17---------------------------|
D||-----16-19------------------------------|
A||--18------------------------------------|
E||----------------------------------------|
B||----------------------------------------|

E||------------------------------17--20-17----17---------------------------|
B||--20-19h20p19--17----17-19-20-----------19---19----19-------------------|
G||------------------20----------------------------20----20-17-20-17-------|
D||------------------------------------------------------------------19----|
A||------------------------------------------------------------------------|
E||------------------------------------------------------------------------|
B||------------------------------------------------------------------------|

E||----------------------------------------------------------|
B||--------------------------------------17--16h17p16--------|
G||--17-16----------16-17-16----------16---------------------|
D||--------19-18-19----------19-18-19------------------------|
A||----------------------------------------------------------|
E||----------------------------------------------------------|
B||----------------------------------------------------------|

E||------------------------------17---------------------------------------------------------------|
B||--20-19h20p19--17----17-19-20-----16-13---13---------------------------------------------------|
G||------------------20--------------------14---14---14-------------------------------------------|
D||------------------------------------------------16---16-13-16-13---13--------------------------|
A||-----------------------------------------------------------------15---15-12-15-12---12---------|
E||----------------------------------------------------------------------------------14---14-11---|
B||-----------------------------------------------------------------------------------------------|

E||----------------------------------------------------------------------------------|
B||----------------------------------------------------------------------------------|
G||--16-17p16h17p16h17p16--16p14h16p14h16p14--14p12h14p12h14p12--12p11h12p11h12p11---|
D||----------------------------------------------------------------------------------|
A||----------------------------------------------------------------------------------|
E||----------------------------------------------------------------------------------|
B||----------------------------------------------------------------------------------|


Song played in order:
Intro
Verse 1
Verse 2
Verse 1
Verse 2
Chorus
Verse 1
Verse 2
Chorus
Bridge
Pre solo riff
Solo
Verse 1
Verse 2
Chorus
Bridge


~~~~~~~~~~~~~~~~~~~~~~~~~~~~~~~~~~~~~
02.Torn Between Scylla And Charybdis
~~~~~~~~~~~~~~~~~~~~~~~~~~~~~~~~~~~~~

Intro
Guitar 1
E||----------------------------------------|
B||-12-0-0-12-0-0-12-0-0-12-0-0-12-0-12-0--|
G||----------------------------------------|
D||----------------------------------------|
A||----------------------------------------|
E||----------------------------------------|
B||----------------------------------------|
E||----------------------------------------|
B||-15-0-0-15-0-0-15-0-14-0-0-14-0-0-14-0--|
G||----------------------------------------|
D||----------------------------------------|
A||----------------------------------------|
E||----------------------------------------|
B||----------------------------------------|

E||----------------------------------------|
B||-10-0-0-10-0-0-10-0-0-10-0-0-10-0-10-0--|
G||----------------------------------------|
D||----------------------------------------|
A||----------------------------------------|
E||----------------------------------------|
B||----------------------------------------|

E||----------------------------------------|
B||-15-0-0-15-0-0-15-0-14-0-0-14-0-0-14-0--|
G||----------------------------------------|
D||----------------------------------------|
A||----------------------------------------|
E||----------------------------------------|
B||----------------------------------------|

E||----------------------------------------|
B||--15-0-0-15-0-0-15-0-0-15-0-0-15-0-15-0-|
G||----------------------------------------|
D||----------------------------------------|
A||----------------------------------------|
E||----------------------------------------|
B||----------------------------------------|

E||----------------------------------------|
B||-19-0-0-19-0-0-19-0-17-0-0-17-0-0-17-0--|
G||----------------------------------------|
D||----------------------------------------|
A||----------------------------------------|
E||----------------------------------------|
B||----------------------------------------|

E||----------------------------------------|
B||-14-0-0-14-0-0-14-0-0-14-0-0-14-0-14-0--|
G||----------------------------------------|
D||----------------------------------------|
A||----------------------------------------|
E||----------------------------------------|
B||----------------------------------------|

E||----------------------------------------|
B||-19-0-0-19-0-0-19-0-17-0-0-17-0-0-17-0--|
G||----------------------------------------|
D||----------------------------------------|
A||----------------------------------------|
E||----------------------------------------|
B||----------------------------------------|

E||-------------------------------------------------|
B||-24-12-12-24-12-12-24-12-12-24-12-12-24-12-24-12-|
G||-------------------------------------------------|
D||-------------------------------------------------|
A||-------------------------------------------------|
E||-------------------------------------------------|
B||-------------------------------------------------|

E||-------------------------------------------------|
B||-19-12-12-19-12-12-19-12-22-12-12-22-12-12-22-12-|
G||-------------------------------------------------|
D||-------------------------------------------------|
A||-------------------------------------------------|
E||-------------------------------------------------|
B||-------------------------------------------------|

E||-------------------------------------------------|
B||-17-12-12-17-12-12-17-12-12-17-12-12-17-12-17-12-|
G||-------------------------------------------------|
D||-------------------------------------------------|
A||-------------------------------------------------|
E||-------------------------------------------------|
B||-------------------------------------------------|

E||-------------------------------------------------|
B||-24-12-12-24-12-12-24-12-22-12-12-22-12-12-22-12-|
G||-------------------------------------------------|
D||-------------------------------------------------|
A||-------------------------------------------------|
E||-------------------------------------------------|
B||-------------------------------------------------|

E||-----------|
B||-24~~~-----|
G||-----------|
D||-----------|
A||-----------|
E||-----------|
B||-----------|

Guitar 2
E||---------------------------------------|
B||---------------------------------------|
G||---------------------------------------|
D||---------------------------------------|
A||---------------------------------------|
E||---------------------------------------|
B||---------------------------/10\--------|

E||---------------------------------------|
B||---------------------------------------|
G||---------------------------------------|
D||---------------------------------------|
A||---------------------------------------|
E||---------------------------------------|
B||--0----------------------------0----2--|

E||---------------------------------------|
B||---------------------------------------|
G||---------------------------------------|
D||---------------------------------------|
A||---------------------------------------|
E||----------------0--------2---------5---|
B||--3~~----------------------------------|

E||---------------------------------------|
B||---------------------------------------|
G||---------------------------------------|
D||---------------------------------------|
A||---------------------------------------|
E||--3------------------------------------|
B||---------------------------------------|

E||---------------------------------------|
B||---------------------------------------|
G||---------------------------------------|
D||---------------------------------------|
A||-/5-------------4--------5---------0---|
E||---------------------------------------|
B||---------------------------------------|

E||---------------------------------------|
B||---------------------------------------|
G||---------------------------------------|
D||---------------------------------------|
A||---------------------------------------|
E||---------------------------------------|
B||--0-0-0--0------0-0-0--0------0-0--2-2-|

E||---------------------------------------|
B||---------------------------------------|
G||---------------------------------------|
D||---------------------------------------|
A||---------------------------------------|
E||----------------0-0--0-0-2--2-2-2--5-5-|
B||--3-3-3--3-----------------------------|

E||---------------------------------------|
B||---------------------------------------|
G||---------------------------------------|
D||---------------------------------------|
A||---------------------------------------|
E||--3-3-3--3------3-3-3--3------3-3--3-3-|
B||---------------------------------------|

E||---------------------------------------|
B||---------------------------------------|
G||---------------------------------------|
D||-/4-------------2--------4---------0---|
A||-/5-------------4--------5---------0---|
E||---------------------------------------|
B||---------------------------------------|


Verse 1
Both guitars
E||--------------------------------------------------------|
B||--------------------------------------------------------|
G||--------------------------------------------------------|
D||----------------------------------7---------------------|
A||----------------------------------------10-----9---10---|
E||--------9p7h9-------10p7h10-----------------------------|
B||--0-000-------0-000---------5-555---5-5----5-5---5------|

Guitar 1
E||--------------------------------------------------|
B||--------------------------------------------------|
G||--------------------------------------------------|
D||-------------------9\-----------0h4----------0h2--|
A||-------9-----7--------------0h2----------0h1------|
E||-6-666---6-6---6-6--------------------------------|
B||------------------------0h3----------0h2----------|

Guitar 2 
E||----------------------------------------------------|
B||----------------------------------------------------|
G||----------------------------------------------------|
D||-------------------9\-----------0h12----------0h11--|
A||-------9-----7--------------0h9-----------0h9-------|
E||-6-666---6-6---6-6----------------------------------|
B||-----------------------0h12----------0h11-----------|


Verse 2
Both guitars
E||---------------------------------------------|
B||---------------------------------------------|
G||---------------------------------------------|
D||---------------------------------------------|
A||-9\-------5-----5---9-9\---------------------|
E||-7\-------2-----3---6-7\-------7-7-7/9-9-9---|
B||----0-000---0-0---0------0-000-3-3-3/6-6-6---|

Guitar 1
E||----------------------------------------------------|
B||----------------------------------------------------|
G||----------------------------------------------------|
D||-------------------------------0h4-5--4--2----------|
A||-9\-------5-----5---9------0h2--------------5--4--2-|
E||-7\-------2-----3---6-------------------------------|
B||----0-000---0-0---0----0h3--------------------------|

Guitar 2
E||-----------------------------------------------------|
B||-----------------------------------------------------|
G||-------------------------------------9---------------|
D||--------------------------------0h12---12-11-9-------|
A||-9\-------5-----5---9-------0h9----------------12-10-|
E||-7\-------2-----3---6--------------------------------|
B||----0-000---0-0---0----0h12--------------------------|

(The second time this is played after)
Guitar 1
E||------------------------------|
B||------------------------------|
G||------------------------------|
D||----------0h2--4--2-0---------|
A||------0h1--------------4--2-1-|
E||------------------------------|
B||--0h2-------------------------|

Guitar 2
E||------------------------------|
B||------------------------------|
G||------------------------------|
D||----------0h9-12-11-9---------|
A||------0h9-------------13-10-9-|
E||------------------------------|
B||-0h11-------------------------|


Pre-Chorus
Both guitars
E||--------------------------------------------------------|
B||--------------------------------------------------------|
G||-----------------------------------------11---12---11---|
D||-9-----9-----11-----11-----12-----12--------------------|
A||---9-9---9-9----9-9----9-9----9-9----9-9----9----9----9-|
E||--------------------------------------------------------|
B||--------------------------------------------------------|

E||------------------------------------------------------------|
B||------------------------------------------------------------|
G||------------------------------------------------------------|
D||-9-----9-----11-----11-----12p11----9-------12p11----9------|
A||---9-9---9-9----9-9----9-9-------12---12-10-------12---12-9-|
E||------------------------------------------------------------|
B||------------------------------------------------------------|

E||----------------------------------------------------------|
B||----------------------------------------------------------|
G||-------------------------------------------11---12---11---|
D||--9------9-----11-----11-----12-----12--------------------|
A||----9-9----9-9----9-9----9-9----9-9----9-9----9----9----9-|
E||----------------------------------------------------------|
B||----------------------------------------------------------|

E||--------------------------------------------------------------|
B||--------------------------------------------------------------|
G||--------------------------------------------------------------|
D||--9------9-----11-----11-----12p11----9-------12p11----9------|
A||----9-9----9-9----9-9----9-9-------12---12-10-------12---12-9-|
E||--------------------------------------------------------------|
B||--------------------------------------------------------------|

E||----------------------------------------------10p9----7------|
B||---------------------------------------------------10---10-7-|
G||----------------9------9-----11p9----9-----------------------|
D||-12-----12------------------------12---12-11-----------------|
A||----9-9----9-9----9-9----9-9---------------------------------|
E||-------------------------------------------------------------|
B||-------------------------------------------------------------|


Chorus
Guitar 1
E||-------------------------15/17-15--14---12---|
B||-----------15------15/17---------------------|
G||--15/16-------16-----------------------------|
D||---------------------------------------------|
A||---------------------------------------------|
E||---------------------------------------------|
B||---------------------------------------------|

E||-----------------------------------------|
B||-----------15-----15----------14-----14--|
G||-11/12-12-----12------11--11-----11------|
D||-----------------------------------------|x2
A||-----------------------------------------|
E||-----------------------------------------|
B||-----------------------------------------|

Guitar 2 
E||------------------------------------------------|
B||------------------------------------------------|
G||------------------------------------------------|
D||------------------------------------------------|
A||------2--------2----2--2---5--------5----5--5---|
E||------2--------2----2--2---5--------5----5--5---|
B||------0--------0----0--0---3--------3----3--3---|

E||-----------------------------------------|
B||-----------------------------------------|
G||-----------------------------------------|
D||--5---------5----5--5---4----------------|
A||--5---------5----5--5---4----------------|
E||--3---------3----3--3---2----------------|
B||--------------------------------2--------|


Breakdown
Guitar 2
E||-----------------------------------------------------|
B||-----------------------------------------------------|
G||-----------------------------------------------------|
D||-----------------------------------------------------|
A||-----------------------------------------------------|
E||---15-0-0-11-0-0-12-0-14-0-15-0-0-11-0-0-12-0-14-0---|
B||-----------------------------------------------------|

E||----------------------------------------------------|
B||----------------------------------------------------|
G||----------------------------------------------------|
D||----------------------------------------------------|
A||----------------------------------------------------|
E||-15-0-0-11-0-0-12-0-14-0-15-0-0-11-0-0-12-0-14-0----|
B||----------------------------------------------------|

Both guitars
E||-------------------------------------------------|
B||-------------------------------------------------|
G||-------------------------------------------------|
D||-------------------------------------------------|
A||-------------------------------------------------|
E||-------------------------------------------------|
B||-15-0-0-11-0-0-12-0-14-0-15-0-0-11-0-0-12-0-14-0-|

E||--------------------------------------------------|
B||--------------------------------------------------|
G||--------------------------------------------------|
D||--------------------------------------------------|
A||--------------------------------------------------|
E||--------------------------------------------------|
B||-15-0-0-11-0-0-12-0-14-0-15-0-0-11-0-0-12-0-14-0--|

Guitar 1
E||------------------|
B||------------------|
G||------------------|
D||------------------|
A||------------------|
E||------------------|
B||-/12-11~~-/8-7~~--|

Guitar 2
E||------------------|
B||------------------|
G||------------------|
D||------------------|
A||------------------|
E||-/10-9~~--/7-6~~--|
B||------------------|


Solo 1
CKB
E||-14p10------------10h14p10----------10h12p9------------9h12p9----------9--|
B||-------12----12------------12----12-----------11----11--------11----11----|
G||----------11------------------11-----------------12--------------12-------|
D||--------------------------------------------------------------------------|
A||--------------------------------------------------------------------------|
E||--------------------------------------------------------------------------|
B||--------------------------------------------------------------------------|

E||-14p10------------10h14p10----------10h15p12----------12h15p12----------15---|
B||-------12----12------------12----12----------14----14----------14----17------|
G||----------11------------------11----------------15----------------15---------|
D||-----------------------------------------------------------------------------|
A||-----------------------------------------------------------------------------|
E||-----------------------------------------------------------------------------|
B||-----------------------------------------------------------------------------|

E||-18p15----------------------------12h15p12------------------------------|
B||-------17-------14h17p14-------14----------14-------11h14p11---------14-|
G||----------18-15----------15-------------------15-12---------12----15----|
D||----------------------------17---------------------------------14-------|
A||------------------------------------------------------------------------|
E||------------------------------------------------------------------------|
B||------------------------------------------------------------------------|

E||---------------------------------------|
B||-17p14---------------------------------|
G||-------15--------12h15p12----15-WBL----|
D||----------17--14----------14-----------|
A||---------------------------------------|
E||---------------------------------------|
B||---------------------------------------|

E||-------------------------------------------------------------|
B||-------------------------------------------------------------|
G||--------------------11----------------------12--14--12~~-----|
D||---/12---11-12-14------14~~-----/16---14-16------------------|
A||-------------------------------------------------------------|
E||-------------------------------------------------------------|
B||-------------------------------------------------------------|

E||--------------------------------------------|
B||--12-0-11-0-14-0-12-0-15-0-14-0-17-0-15-0---|
G||--------------------------------------------|
D||--------------------------------------------|
A||--------------------------------------------|
E||--------------------------------------------|
B||--------------------------------------------|

E||-14-14-14-14-14-14-14-14-15-14-12--------------------------------|
B||----------------------------------15-14-12-----------------------|
G||-------------------------------------------14-12-11--------------|
D||----------------------------------------------------14-12-11-----|
A||-------------------------------------------------------------14~-|
E||-----------------------------------------------------------------|
B||-----------------------------------------------------------------|

E||-15-12----------------12-15-12----------------11-|
B||-------12----------12----------12----------12----|
G||----------12----12----------------12----12-------|
D||-------------14----------------------14----------|
A||-------------------------------------------------|
E||-------------------------------------------------|
B||-------------------------------------------------|

E||-19-15----------------15-19-15----------------14-|
B||-------17----------17----------17----------17----|
G||----------16----16----------------16----16-------|
D||-------------17----------------------17----------|
A||-------------------------------------------------|
E||-------------------------------------------------|
B||-------------------------------------------------|

E||-14-11----------------11-14-11----------------11-|
B||-------12----------12----------12----------12----|
G||----------11----11----------------11----11-------|
D||-------------13----------------------13----------|
A||-------------------------------------------------|
E||-------------------------------------------------|
B||-------------------------------------------------|

E||-17-14----------------14-17-14----------------14-|
B||-------16----------16----------16----------16----|
G||----------17-14-17----------------17-14-17-------|
D||-------------------------------------------------|
A||-------------------------------------------------|
E||-------------------------------------------------|
B||-------------------------------------------------|

E||-------------------------------------11-14-12\--|
B||----------------------13----------13------------|
G||----11-14-------11-14-------11-14---------------|
D||-13-------10-13----------13---------------------|
A||------------------------------------------------|
E||------------------------------------------------|
B||------------------------------------------------|

E||-12--------12--------14--------14--------|
B||-15BU(17)--15BU(17)--17BU(19)--17BU(19)--|
G||-----------------------------------------|
D||-----------------------------------------|
A||-----------------------------------------|
E||-----------------------------------------|
B||-----------------------------------------|

E||-15--------15--------17--------17--------|
B||-18BU(20)--18BU(20)--20BU(22)--20BU(22)--|
G||-----------------------------------------|
D||-----------------------------------------|
A||-----------------------------------------|
E||-----------------------------------------|
B||-----------------------------------------|

E||-14---------14---------17---------17---------|
B||----12---------12----------------------------|
G||-------11---------11------16-14------16-14---|
D||---------------------------------------------|
A||---------------------------------------------|
E||---------------------------------------------|
B||---------------------------------------------|

E||----------------------------14-15-17----------15-17-19----------17-19-20-22BU(24)-|
B||-------------------13-16-17----------16-17-19----------17-19-20-------------------|
G||----------12-14-16----------------------------------------------------------------|
D||-13-14-16-------------------------------------------------------------------------|
A||----------------------------------------------------------------------------------|
E||----------------------------------------------------------------------------------|
B||----------------------------------------------------------------------------------|


Bridge
Guitar 1
E||------------------------------|----------------------------------|
B||------------------------------|----------------------------------|
G||--11--------------------------|--11-----------------11-----11\---|
D||---x--------------------------|---x------------------x------x----|
A||---9--------------------------|---9------------------9------9\---|
E||------------------------------|----------------------------------|
B||------------------------------|----------------------------------|

Guitar 2
E||------------------------------|------------------------------------|
B||------------------------------|------------------------------------|
G||------------------------------|------------------------------------|
D||------------12-12-------12-12-|----------12-12----------12----12---|
A||-------------9--9--------9--9-|-----------9--9-----------9-----9---|
E||------------10-10-------10-10-|----------10-10----------10----10---|
B||---0----0-0-------0-0-0-------|---0--0-0-------0-0---0-------------|

Guitar 1
E||------------------------------|------------------------------------|
B||------------------------------|------------------------------------|
G||-------------7--7--------7--7-|-----------7--7-----------7-----7---|
D||-------------x--x--------x--x-|-----------x--x-----------x-----x---|
A||-------------5--5--------5--5-|-----------5--5-----------5-----5---|
E||------------------------------|------------------------------------|
B||---0----0-0-------0-0-0-------|---0--0-0-------0-0---0-------------|

E||--------------------------|-------------------------------|
B||--------------------------|-------------------------------|
G||-10-----------------------|--10---------------------------|
D||--x-----------------------|---x---------------------------|x2
A||--8-----------------------|---8---------------------------|
E||--------------------------|-------------------------------|
B||--------------------------|-------------------------------|

guitar 2
E||--------------------------|-------------------------------|
B||--------------------------|-------------------------------|
G||--------------------------|-------------------------------|
D||--------11-11-------11-11-|-------------------------------|x2
A||---------8--8--------8--8-|-------------------------------|
E||---------9--9--------9--9-|-------------------------------|
B||--0-0-0-------0-0-0-------|---0--0-0-2-0-2-0-2-0-3-0-3----|

guitar 1
E||--------------------------|-------------------------------|
B||--------------------------|-------------------------------|
G||---------6--6--------6--6-|-------------------------------|
D||---------x--x--------x--x-|-------------------------------|x2
A||---------4--4--------4--4-|-------------------------------|
E||--------------------------|-------------------------------|
B||--0-0-0-------0-0-0-------|-------------------------------|


Bass Solo
Both guitars
E||-12-12-12-12-12-12-12-12-12-12-12-12-|-12-12-12-12-12-12-12-12-12-12-12-12---|
B||-x--x--x--x--x--x--x--x--x--x--x--x--|-x--x--x--x--x--x--x--x--x--x--x--x----|
G||-9--9--9--9--9--9--9--9--9--9--9--9--|-9--9--9--9--9--9--9--9--9--9--9--9----|
D||-------------------------------------|---------------------------------------|
A||-------------------------------------|---------------------------------------|
E||-------------------------------------|---------------------------------------|
B||-------------------------------------|---------------------------------------|

E||---------------------------|------------------------------------|
B||---------------------------|------------------------------------|
G||---------------------------|------------------------------------|
D||---------14-14-------14-14-|----------14-14----------14----14---|
A||---------10-10-------10-10-|----------10-10----------10----10---|
E||---------12-12-------12-12-|----------12-12----------12----12---|
B||---0-0-0-------0-0-0-------|---0-0-0----------0-0-0-------------|

E||---------------------------|------------------------------------|
B||---------------------------|------------------------------------|
G||----------9--9--------9--9-|-----------9--9-----------9-----9---|
D||----------x--x--------x--x-|-----------x--x-----------x-----x---|
A||----------7--7--------7--7-|-----------7--7-----------7-----7---|
E||---------------------------|------------------------------------|
B||---0-0-0-------0-0-0-------|---0-0-0-----------0-0-0------------|


E||-11-11-11-11-11-11-11-11-11-11-11-11-|-7-7-7-7-7-7-11-11-11-11-11-11--|
B||--x--x--x--x--x--x--x--x--x--x--x--x-|-x-x-x-x-x-x--x--x--x--x--x--x--|
G||--8--8--8--8--8--8--8--8--8--8--8--8-|-4-4-4-4-4-4--8--8--8--8--8--8--|
D||-------------------------------------|--------------------------------|x2
A||-------------------------------------|--------------------------------|
E||-------------------------------------|--------------------------------|
B||-------------------------------------|--------------------------------|

E||-------------------------------------|-----------------------------------|
B||-------------------------------------|-----------------------------------|
G||-------------------------------------|-----------------------------------|
D||----------13----13----------13----13-|-------9---9----------13----13-----|x2
A||-----------9-----9-----------9-----9-|-------6---6-----------9-----9-----|
E||----------11----11----------11----11-|-------7---7----------11----11-----|
B||---0-0-0-------------0-0-0-----------|-0-0-0---------0-0-0---------------|

E||-------------------------------------|-----------------------------------|
B||-------------------------------------|-----------------------------------|
G||-----------8-----8-----------8-----8-|-------4---4-----------8-----8-----|
D||-----------x-----x-----------x-----x-|-------x---x-----------x-----x-----|
A||-----------6-----6-----------6-----6-|-------2---2-----------6-----6-----|x2
E||-------------------------------------|-----------------------------------|
B||--0-0-0-------------0-0-0------------|-0-0-0--------0-0-0----------------|

Pre-Solo
Guitar 1
E||------------------------------------------------|
B||------------------------------------------------|
G||------------------------------------------------|
D||------------------------------------------------|
A||----------------------------------7h9h10-7h9h10-|
E||----7h9h10-7h9h10---7h9h10-7h9h10---------------|
B||------------------------------------------------|

Guitar 2
E||------------------------------------------------|
B||------------------------------------------------|
G||------------------------------------------------|
D||------------------------------------------------|
A||------------------------------------------------|
E||------------------------------------------------|
B||--0---------------0-----------------------------|

Guitar 1
E||--------------------------------------------------------------|
B||--------------------------------------------------------------|
G||--------------------------------------------------------------|
D||-----------------------------------------------8h9h11-8h9h11--|x2
A||---------------------------------7h9h10-7h9h10----------------|
E||---7h9h10-7h9h10---7h9h10-7h9h10------------------------------|
B||--------------------------------------------------------------|

Guitar 2
E||--------------------------------------------------------------|
B||--------------------------------------------------------------|
G||--------------------------------------------------------------|
D||--------------------------------------------------------------|
A||--------------------------------------------------------------|
E||--------------------------------------------------------------|
B||-0---------------0--------------------------------------------|


Solo 2
MKH
E||-------------------------------|---------------------------|
B||-------------------------------|-12------------------------|
G||------------------12-----11----|--------14-----------------|
D||-14------13--------------------|-------------13~~~~~-------|
A||----10-------10-------10----10-|----10---------------------|
E||-------------------------------|---------------------------|
B||-------------------------------|---------------------------|

E||-------------------------------------------------------12-14-15-12-14-15-|
B||-------------------------------------12-13-15-12-13-15-------------------|
G||-------------------11-12-14-11-12-14-------------------------------------|
D||-10-13-14-10-13-14-------------------------------------------------------|
A||-------------------------------------------------------------------------|
E||-------------------------------------------------------------------------|
B||-------------------------------------------------------------------------|

E||-/20----17-----------------|
B||-----19----16~~~~----------|
G||---------------------------|
D||---------------------------|
A||---------------------------|
E||---------------------------|
B||---------------------------|

E||----------------15h19p15----------------------------15h20p15-------------|
B||-------------17----------17----------------------17----------17----------|
G||----------16----------------16----------------17----------------17-------|
D||-------17----------------------17----------17----------------------17----|
A||-14h19----------------------------19p15h19----------------------------19-|
E||-------------------------------------------------------------------------|
B||-------------------------------------------------------------------------|

E||----------------15h19p15----------------------------14h19p14--------------|
B||-------------17----------17----------------------16----------16-----------|
G||----------16----------------16----------------16----------------16--------|
D||-------17----------------------17----------16----------------------16-----|
A||-14h19----------------------------19p14h18----------------------------18--|
E||--------------------------------------------------------------------------|
B||--------------------------------------------------------------------------|

E||-------------------------------------------------------17-19-20-17-19-20-|
B||-------------------------------------17-19-20-17-19-20-------------------|
G||-------------------16-17-20-16-17-20-------------------------------------|
D||-16-17-19-16-17-19-------------------------------------------------------|
A||-------------------------------------------------------------------------|
E||-------------------------------------------------------------------------|
B||-------------------------------------------------------------------------|

E||-23-19-23-23BU(24)---------|
B||---------------------------|
G||---------------------------|
D||---------------------------|
A||---------------------------|
E||---------------------------|
B||---------------------------|

Song played in order:
Intro/outro
Verse 1
Verse 2
Pre-chorus
Chorus
Verse 1
Verse 2
Pre-chorus
Chorus
Breakdown
Solo 1
Bridge
Bass solo 1
Pre-solo
Solo 2
Bridge
Bass solo 2
Verse 2
Pre-chorus
Chorus
Intro/outro

~~~~~~~~~~~~~~~~~
03.Down From Sky
~~~~~~~~~~~~~~~~~


Intro
Guitar 1
E||----------------------------------------------------------------------|
B||-0---0---0---0-0---------0----------0---0---0---0-0-------------------|
G||-2h4-4---4---4-4---------6h7p6------2h4-4---4---4-4-------------------|
D||-----------------2p0-----------7--------------------2p0---------------|
A||---------------------2----------------------------------2---4h5p4-----|
E||------------------------------------------------------------------5---|
B||----------------------------------------------------------------------|

E||----------------------------------------------------------------------|
B||-0---0---0---0-0---------0----------0---0---0---0-0-0-0-0-0-0-0-0-0---|
G||-2h4-4---4---4-4---------6h7p6------2h4-4---4---4-4-4-4-6-6-7-7-9-9---|
D||-----------------2p0-----------7--------------------------------------|
A||---------------------2------------------------------------------------|
E||----------------------------------------------------------------------|
B||----------------------------------------------------------------------|

E||----------------------------------------------------------------------|
B||-0---0---0---0-0---------0----------0---0---0---0-0-------------------|
G||-2h4-4---4---4-4---------6h7p6------2h4-4---4---4-4-------------------|
D||-----------------2p0-----------7--------------------2p0---------------|
A||---------------------2----------------------------------2---4h5p4-----|
E||------------------------------------------------------------------5---|
B||----------------------------------------------------------------------|

E||----------------------------------------------------------------------|
B||-0---0---0---0-0---------0-----------0---0---0---0---0--0-0-0-0-0-0-0-|
G||-2h4-4---4---4-4---------6h7p6------11--11--11--11--11-11-9-7-9-6-7-9-|
D||-----------------2p0-----------7--------------------------------------|
A||---------------------2------------------------------------------------|
E||----------------------------------------------------------------------|
B||----------------------------------------------------------------------|

Guitar 2 
(this is the rhythm that is played throughout the intro)
E||----------------------------------------------------------|
B||----------------------------------------------------------|
G||----------------------------------------------------------|
D||-9--------9--------7--------7\5--------5/7-----2----------|
A||-9--------9--------7--------7\5--------5/7-----2----------|
E||-7--------7--------5----5-5-5\3----3-3-3/5-----0----------|
B||----------------------------------------------------------|


Verse 1
Guitar 1
E||-----------------------------------|--------------------------------------|
B||-----------------------------------|--------------------------------------|
G||-----------------------------------|--------------------------------------|
D||-----------------------------------|--------------------------------------|
A||---------9-------------------------|---------10---------------------------|
E||---------7-------------------------|---------7----------------------------|
B||-0-0-0-0-0-------------------------|-0-0-0-0-0----------------------------|

E||-----------------------------------|--------------------------------------|
B||-----------------------------------|--------------------------------------|
G||-----------------------------------|---------6---6-6-6-6-7-7-7-7-9-9-9-9--|
D||---------5-------------------------|--------------------------------------|
A||---------5-------------------------|---------4---4-4-4-4-5-5-5-5-7-7-7-7--|
E||-3-3-3-3-3-------------------------|-0-0-0-0-0----------------------------|
B||-----------------------------------|--------------------------------------|

E||-----------------------------------|--------------------------------------|
B||-----------------------------------|--------------------------------------|
G||-----------------------------------|--------------------------------------|
D||-----------------------------------|--------------------------------------|
A||---------9-------------------------|---------10---------------------------|
E||---------7-------------------------|---------7----------------------------|
B||-0-0-0-0-0-------------------------|-0-0-0-0-0----------------------------|

E||--------------------------------|---------------------------------------------|
B||--------------------------------|---------------------------------------------|
G||--------------------------------|---------9---9-9-9-9-11-11-11-11-16-16-16-16-|
D||---------5----------------------|---------------------------------------------|
A||---------5----------------------|---------7---7-7-7-7--9--9--9--9-14-14-14-14-|
E||-3-3-3-3-3----------------------|-0-0-0-0-0-----------------------------------|
B||--------------------------------|---------------------------------------------|

In verse 2 there is a little chug thing.
It goes like this... 

E||-----------------------------------|--------------------------------------|
B||-----------------------------------|--------------------------------------|
G||-----------------------------------|--------------------------------------|
D||-----------------------------------|--------------------------------------|
A||---------9---------2-2-------------|---------10---------2-2---------------|
E||---------7---------2-2-------------|---------7----------2-2---------------|
B||-0-0-0-0-0---------0-0-------------|-0-0-0-0-0----------0-0---------------|


Verse 3
Both guitars
E||-------------------------|-------------------------|
B||-------------------------|-------------------------|
G||-------------------------|-------------------------|
D||-------------------------|-------------------------|
A||-------------------------|-------------------------|
E||-7-5-7-------7-5-7-------|-7-5-7-------------------|
B||-------0-0-0-------0-0-0-|-------0-0-0-2-2-3-3-5-5-|

E||-------------------------|---------------------|
B||-------------------------|---------------------|
G||-------------------------|---------------------|
D||-------------------------|---------------------|
A||-------------------------|-5-4-5-0-0-0-/7---4~-|
E||-3-2-3-0-0-0-3-2-3-0-0-0-|---------------------|
B||-------------------------|---------------------|


Pre-Chorus
Guitar 1
E||-------------------------------------|-----------------------------------------|
B||-------------------------------------|-----------------------------------------|
G||-------------------------------------|-----------------------------------------|
D||-5-5-5-5-7-7-7-7-9-9-9-9-11-11-11-11-|-7-7-7-7-9-9-9-9-11-11-11-11-12-12-12-12-|
A||-------------------------------------|-----------------------------------------|
E||-3-3-3-3-5-5-5-5-7-7-7-7--9--9--9--9-|-5-5-5-5-7-7-7-7--9--9--9--9-10-10-10-10-|
B||-------------------------------------|-----------------------------------------|

Guitar 2
E||---------------------------------|---------------------------------|
B||---------------------------------|---------------------------------|
G||---------------------------------|---------------------------------|
D||-5-5-5-5-5-5-5-5-5-5-5-5-5-5-5-5-|-7-7-7-7-7-7-7-7-7-7-7-7-7-7-7-7-|
A||-5-5-5-5-5-5-5-5-5-5-5-5-5-5-5-5-|-7-7-7-7-7-7-7-7-7-7-7-7-7-7-7-7-|
E||-3-3-3-3-3-3-3-3-3-3-3-3-3-3-3-3-|-5-5-5-5-5-5-5-5-5-5-5-5-5-5-5-5-|
B||---------------------------------|---------------------------------|


Chorus
Guitar 1
E||-----------------------------------|-----------------------------------|
B||-----------------------------------|-----------------------------------|
G||---------11----11----9~~~~---------|---------11--9--11--12--11~~~~-----|
D||-/9---9----------------------------|-/9---9----------------------------|
A||-----------------------------------|-----------------------------------|
E||-----------------------------------|-----------------------------------|
B||-----------------------------------|-----------------------------------|

E||-----------------------------------|-----------------------------------|
B||-----------------------------------|-----------------------------------|
G||---------9----9----7~~~~-----------|-7\6---6\4---4/6---4\3/4/6~~~~-----|
D||-/7---7----------------------------|-----------------------------------|
A||-----------------------------------|-----------------------------------|
E||-----------------------------------|-----------------------------------|
B||-----------------------------------|-----------------------------------|

E||-----------------------------------|-----------------------------------|
B||-----------------------------------|-----------------------------------|
G||---------11----11----9~~~~---------|---------11--9--11--12--11~~~~-----|
D||-/9---9----------------------------|-/9---9----------------------------|
A||-----------------------------------|-----------------------------------|
E||-----------------------------------|-----------------------------------|
B|------------------------------------|-----------------------------------|

E||-----------------------------------|-----------------------------------|
B||-----------------------------------|-8-------5-------7-------2---------|
G||---------9----9----7~~~~-----------|---7-6-7---7-6-4---6-4-3---3-4PH~~-|
D||-/7---7----------------------------|-----------------------------------|
A||-----------------------------------|-----------------------------------|
E||-----------------------------------|-----------------------------------|
B||-----------------------------------|-----------------------------------|

Guitar 2
(This rhythm is played throughout the chorus)
E||----------------------------------|-----------------------------|
B||----------------------------------|-----------------------------|
G||o-8-------9------6-----7-----6----|----------------------------o|
D||--9-------9------7-----7-----7----|-5------2--------------------|
A||o-9-x16--10-x16--7-x3--7-x4--7-x9-|---------------5-------4--5-o|
E||--7-------7------5-----5-----5----|---3-33---0-00---2-22--5--7--|
B||----------------------------------|-----------------------------|

Middle Section:
Part 1: Elephant Riff
Both guitars
E||---------------------------------|---------------------------------|
B||---------------------------------|---------------------------------|
G||---------------------------------|---------------------------------|
D||---------------------------------|---------------------------------|
A||-------------------------6-------|-------------------------6-------|
E||-----------------3-4-5---4-6-----|-----------------3-4-5---4-6-----|
B||-6BU(7)-3~~~-----1-2-3-0---4---0-|-6BU(7)-3~~~-----1-2-3-0---4---0-|

Part 2: Elephant Riff
Guitar 1
E||---------------------------------|---------------------------------|
B||---------------------------------|---------------------------------|
G||---------------------------------|---------------------------------|
D||---------------------------------|---------------------------------|
A||---------------------------------|---------------------------------|
E||----/7---2---3--/7------/6-------|----/7---2---3--/7------/6-------|
B||-0-------------------3-------2---|-0-------------------3-------2---|

E||---------------------------------|---------------------------------|
B||---------------------------------|---------------------------------|
G||---------------------------------|---------------------------------|
D||---------------------------------|---------------------------------|
A||---------------------------------|---------------------------------|
E||----/7---2---3--/7------/6-------|----/7---2---3--/7------/6-------|
B||-0-------------------3-------2---|-0-------------------3-------2---|

Guitar 2
E||---------------------------------|
B||---------------------------------|
G||---------------------------------|
D||---------------------------------|
A||-2-------------------------------|
E||-2-------------------------------|
B||-0-------------------------------|

E||---------------------------------|---------------------------------|
B||---------------------------------|---------------------------------|
G||---------------------------------|---------------------------------|
D||---------------------------------|---------------------------------|
A||---------------------------------|---------------------------------|
E||-2-2-2-2-2-2-2-2-2-2-2-2-2-2-2-2-|-2-2-2-2-2-2-2-2-2-2-2-2---------|
B||-0-0-0-0-0-0-0-0-0-0-0-0-0-0-0-0-|-0-0-0-0-0-0-0-0-0-0-0-0-/x\-----|

Both guitars
E||-------------------------------------------------------|
B||-------------------------------------------------------|
G||-------------------------------------------------------|
D||-------------------------------------------------------|
A||-------------------------------------------------------|
E||---------7-7-7---2-2-2---3-3-3-----------6-6-6---------|
B||-0-0-0---------------------------3-3-3-----------2-2-2-|

E||-------------------------------------------------------|
B||-------------------------------------------------------|
G||-------------------------------------------------------|
D||-------------------------------------------------------|
A||-------------------------------------------------------|
E||---------7-7-7---2-2-2---3-3-3-----------6-6-6---------|
B||-0-0-0---------------------------3-3-3-----------2-2-2-|

Both guitars
    TR---------------------------------------------------
E||-------------------------------------------------------|
B||-------------------------------------------------------|
G||-------------------------------------------------------|
D||-------------------------------------------------------|
A||-------------------------------------------------------|
E||---------7-------2-------3---------------6-------------|
B||-0-------------------------------3---------------2-----|

    TR---------------------------------------------------
E||-------------------------------------------------------|
B||-------------------------------------------------------|
G||-------------------------------------------------------|
D||-------------------------------------------------------|
A||-------------------------------------------------------|
E||---------7-------2-------3---------------6-------------|
B||-0-------------------------------3---------------2-----|


Solo
MKH
E||-13~~~~~~~~----10~~~~~~~~------------------13-16~~~~~--|
B||-16BU(18)~~----13BU(15)~~---------------15-------16~~--|
G||----------------------------------13h16----------------|
D||----------------------------12h15----------------------|
A||-------------------------------------------------------|
E||-------------------------------------------------------|
B||-------------------------------------------------------|

E||-20~~~~~~~~~~~-----------------------------17-20~~~~~--|
B||---------------19~~~~~~~~~~-------------19-------19~~--|
G||----------------------------------17h20----------------|
D||----------------------------16h19----------------------|
A||-------------------------------------------------------|
E||-------------------------------------------------------|
B||-------------------------------------------------------|
 
E||-------------------------------------------------------|
B||-19-18-15-19-18-15-19-18-15-19-18-15-19-18-15-19-18-15-|
G||-------------------------------------------------------|
D||-------------------------------------------------------|
A||-------------------------------------------------------|
E||-------------------------------------------------------|
B||-------------------------------------------------------|
 
E||-------------------------------------------------------|
B||-19-18-14-19-18-14-19-18-14-19-18-14-19-18-14-19-18-14-|
G||-------------------------------------------------------|
D||-------------------------------------------------------|
A||-------------------------------------------------------|
E||-------------------------------------------------------|
B||-------------------------------------------------------|
 
E||-------------------------------------------------------|
B||-19-18-13-19-18-13-19-19-13-19-18-13-19-18-13-19-18-13-|
G||-------------------------------------------------------|
D||-------------------------------------------------------|
A||-------------------------------------------------------|
E||-------------------------------------------------------|
B||-------------------------------------------------------|

E||--------------------------------------------|
B||--------------------------------------------|
G||--------------------------------10--11--13--|
D||---------------------9--10--12--------------|
A||-----------8--9--11-------------------------|
E||-7--8--10-----------------------------------|
B||--------------------------------------------|

                                       AH--------
E||-------------13--14--15-16~~~~~~~---16---------(16)WBL--|
B||-12--13--15------------------16~~-------16-----(16)WBL--|
G||--------------------------------------------16-(16)WBL--|
D||--------------------------------------------------------|
A||--------------------------------------------------------|
E||--------------------------------------------------------|
B||--------------------------------------------------------|

This is the harmony to the solo
E||-17------------------------5-8-------|
B||---------16--------------7-----7~~~~-|
G||---------------------5h8-------------|
D||-----------------4h7-----------------|
A||-------------------------------------|
E||-------------------------------------|
B||-------------------------------------|

E||-24------------------------5-8-------|
B||---------23--------------7-----7~~~~-|
G||---------------------5h8-------------|
D||-----------------4h7-----------------|
A||-------------------------------------|
E||-------------------------------------|
B||-------------------------------------|
 
E||-19-18-15-19-18-15-19-18-15-19-18-15-19-18-15-19-18-15-|
B||-------------------------------------------------------|
G||-------------------------------------------------------|
D||-------------------------------------------------------|
A||-------------------------------------------------------|
E||-------------------------------------------------------|
B||-------------------------------------------------------|
 
E||-19-18-14-19-18-14-19-18-14-19-18-14-19-18-14-19-18-14-|
B||-------------------------------------------------------|
G||-------------------------------------------------------|
D||-------------------------------------------------------|
A||-------------------------------------------------------|
E||-------------------------------------------------------|
B||-------------------------------------------------------|
 
E||-19-18-13-19-18-13-19-18-13-19-18-13-19-18-13-19-18-13-|
B||-------------------------------------------------------|
G||-------------------------------------------------------|
D||-------------------------------------------------------|
A||-------------------------------------------------------|
E||-------------------------------------------------------|
B||-------------------------------------------------------|

E||--------------------------------------------|
B||--------------------------------------------|
G||--------------------------------10--11--13--|
D||---------------------9--10--12--------------|
A||-----------8--9--11-------------------------|
E||-7--8--10-----------------------------------|
B||--------------------------------------------|

                                       AH--------
E||-------------13--14--15-16~~~~~~~---16---------(16)WBL--|
B||-12--13--15------------------16~~-------16-----(16)WBL--|
G||--------------------------------------------16-(16)WBL--|
D||--------------------------------------------------------|
A||--------------------------------------------------------|
E||--------------------------------------------------------|
B||--------------------------------------------------------|

The rhythm behind the solo and solo harmony is the
Elephant riff: part 1

Pre-Chorus: with Corey Solo
E||----------------------------------------------|
B||----------------------------------------------|
G||----------------------------4--6--7--6PH~~~~~-|
D||-------------------4--5--7--------------------|
A||----------4--5--7-----------------------------|
E||-3--5--7--------------------------------------|
B||----------------------------------------------|

E||--------------------------------------7h9p7---------7-9-10-|
B||-------------------7h8p7-------7-8-10-------10-8-10--------|
G||-6h7p6-------6-7-9-------9-7-9-----------------------------|
D||-------9-7-9-----------------------------------------------|
A||-----------------------------------------------------------|
E||-----------------------------------------------------------|
B||-----------------------------------------------------------|

E||-12-10-9----9-10-12-14-/19~~~-|
B||---------12-------------------|
G||------------------------------|
D||------------------------------|
A||------------------------------|
E||------------------------------|
B||------------------------------|


Elephant Riff: part 1/outro
E||------------------------------|-----------------------------|
B||------------------------------|-----------------------------|
G||------------------------------|-----------------------------|
D||------------------------------|-----------------------------|
A||----------------------6-------|-6-------6-------6-----------|
E||--------------3-4-5---4-6-----|-4-6-----4-6-----4-----------|
B||-6BU(7)--3~~--1-2-3-0---4---0-|---4---0---4---0---4BU---(7)-|

E||---------------------------------------------|
B||---------------------------------------------|
G||---------------------------------------------|
D||---------------------------------------------|
A||-2----this-last-note-gets-allot-of-feedback--|
E||-2-------------------------------------------|
B||-0-------------------------------------------|


Song played in order:
Intro
Verse 1
Verse 3
Pre-chorus
Chorus
Verse 2
Verse 3
Pre-chorus
Chorus
Middle section:
Part 1 elephant riff
Part 2 elephant riff
Solo: Matt
Verse 3
Pre-chorus with Corey’s solo
Chorus
Part 2 elephant riff (gallop part)
Part 1 elephant riff: outro

~~~~~~~~~~~~~~~~~~~~~~~~~~~~~~~~~~~
04.Into The Mouth Of Hell We March
~~~~~~~~~~~~~~~~~~~~~~~~~~~~~~~~~~~

Intro
Guitar 1  
E||---------------------------------------------------|---------------------------------|
B||-------------------------------------first-ending--|---second-ending-----------------|
G||-4-BU(5BR4)--------4-BU(5BR4)--------4---4/5---2~~~|---4---5--/9------(21)TCH~~~~----|
D||------------5-3---------------5-3------------------|---------------------------------|
A||---------------------------------------------------|---------------------------------|
E||---------------------------------------------------|---------------------------------|
B||---------------------------------------------------|---------------------------------|

Guitar 2
E||-------------------------------------------------------------|
B||-------------------------------------------------------------|
G||-------------------------------------------------------------|
D||-5-5-5----5----4-4-4-----------4-4-4----4h5----2-2-2---------|
A||-3-3-3----3----3-3-3----3/5----2-2-2----2------2-2-2----5----|
E||-X-X-X----X----X-X-X-----------0-0-0----0------0-0-0----5----|
B||-1-1-1-XX-1-XX-1-1-1-XX-1/3-XX-------XX-----XX-------XX-3-XX-|


Verse 1
Guitar 1
    PM---   --   --   -   -----   --   --   -
E||---------------------------------------------|
B||---------------------------------------------|
G||---------------------------------------------|
D||------------5--------4------------5--------2-|
A||-------3---------3-----------3---------------|
E||---------------------------------------3-----|
B||-1-111---11---11---1---1-111---11---11---1---|

Guitar 1 harmony
    PM---   -   -----   -   -----   -   -----   -
E||-------------------------------------------------|
B||-------------------------------------------------|
G||-------------------------------------------------|
D||-------4---4-------2---2-------7---7-------5---5-|
A||-------3---3-------3---3-------7---7-------7---7-|
E||-0-000---0---0-000---0---0-000---0---0-000---0---|
B||-------------------------------------------------|

Guitar 2 harmony
    PM---    -    -----    -    -----    -    -----    -
E||----------------------------------------------------------|
B||----------------------------------------------------------|
G||----------------------------------------------------------|
D||----------------------------------------------------------|
A||-------12---12-------10---10-------15---15-------14---14--|
E||-0-000----0----0-000----0----0-000----0----0-000----0-----|
B||----------------------------------------------------------|

if you wanna play both the ending harmonies together its...
E||-----------------------------------------------------|
B||-----------------------------------------------------|
G||-----------------------------------------------------|
D||-------7---7-------5---5-------10---10--------9----9-|
A||-------9---9-------7---7-------12---12-------10---10-|
E||-0-000---0---0-000---0---0-000----0----0-000----0----|
B||-----------------------------------------------------|


Verse 2 part 1
Both guitars
E||-------------------------------------------------------------------------|
B||-------------------------------------------------------------------------|
G||-------------------------------------------------------------------------|
D||-------5-4-5-7-5-4-5-4---------5-4-5-7-5-4-5-4---------5-4-5-7-5-4-5-4---|
A||-3-333-----------------5-3-333-----------------5-7-777-----------------5-|
E||-------------------------------------------------------------------------|
B||-------------------------------------------------------------------------|

E||---------------------------|
B||---------------------------|
G||----first-ending-----------|
D||------5-4-5-7-5-4-5-4------|
A||7-777-----------------5----|
E||---------------------------|
B||---------------------------|

E||------------------------------|
B||--second-ending---------------|
G||-5-4---4----------------------|
D||-----7---7-5-7-5-4-5-4--------|
A||-----------------------7------|
E||------------------------------|
B||------------------------------|

Verse 2 part 2
Both guitars
E||------------------------------------------------------------------------|
B||------------------------------------------------------------------------|
G||-------4-2-4-5-4-2-4-2---------4-2-4-5-4-2-4-2---------4-2-4-5-4-2-4-2--|
D||-2-222-----------------4-2-222-----------------4-5-555----------------4-|
A||------------------------------------------------------------------------|
E||------------------------------------------------------------------------|
B||------------------------------------------------------------------------|

E||----------------------------|
B||-----first-ending-----------|
G||-------4-2-4-5-4-2-4-2------|
D||-5-555-----------------5----|
A||----------------------------|
E||----------------------------|
B||----------------------------|

E||-2----------------------------|
B||---5-3-5-3---3----------------|
G||-----------5---5-4-5-4-2------|
D||----second-ending-------------|
A||------------------------------|
E||------------------------------|
B||------------------------------|


Chorus
Guitar 1
E||--7----------------|-7--------------------|
B||----8-7-8----------|---8-7-8-------7------|
G||----------9-7--/9~-|---------9-7-9---9-9\-|
D||-------------------|----------------------|
A||-------------------|----------------------|
E||-------------------|----------------------|
B||-------------------|----------------------|

Guitar 2
E||--------------------------------------------------|
B||--------------------------------------------------|
G||--------------------------------------------------|
D||--------------------------------------------------|
A||-3-3-5--5-55-7-5-7--3-3-5--5-55-7-5-7-7-5---------|
E||-3-3-5--5-55-7-5-7--3-3-5--5-55-7-5-7-7-5---------|
B||-1-1-3--3-33-5-3-5--1-1-3--3-33-5-3-5-5-3---------|


Interlude
Both guitars
E||-------------------------|--------------------------|
B||--8\5-5-5h7----7-7/8-7-5-|-7\3-5-5/7---7-7/8-7-5----|
G||------------7~-----------|-----------7-----------7~-|
D||-------------------------|--------------------------|
A||-------------------------|--------------------------|
E||-------------------------|--------------------------|
B||-------------------------|--------------------------|

Middle section
Guitar 1
E||-7-0------|-7-0--------------|-7-0-------------------|
B||-----7-8~-|-----7-8-10-8-7---|-----7-8-10-8h10p8p7---|
G||----------|----------------9-|---------------------9-|
D||----------|-first,-second----|-fourth-ending---------|
A||----------|-and-third-ending-|-----------------------|
E||----------|------------------|-----------------------|
B||----------|------------------|-----------------------|

Middle section rhythm
Guitar 2
E||---------------------------------------------------------------------|
B||---------------------------------------------------------------------|
G||---------------------------------------------------------------------|
D||---------------------------------------------------------------------|
A||-7---5---3---2--5--7-7-7-7/--5-5-5-5/--3-3-3-3--2-2-2-2--5-5-5-5-----|
E||-7---5---3---2--5--7-7-7-7/--5-5-5-5/--3-3-3-3--2-2-2-2--5-5-5-5-----|
B||-5---3---1---0--3--5-5-5-5/--3-3-3-3/--1-1-1-1--0-0-0-0--3-3-3-3-----|

E||--------------------------------------------------------------------------------------|
B||--------------------------------------------------------------------------------------|
G||--------------------------------------------------------------------------------------|
D||-----------5---7/9\7-5-7-5-----------------4---5/7\5-4-5-4-----------------2---4/5\4--|
A||-7-7-7-7-7---7-------------7-5h7-5-5-5-5-5---5-------------5-3h5-3-3-3-3-3---3--------|
E||-7-7-7-7-------------------------5-5-5-5-------------------------3-3-3-3--------------|
B||-5-5-5-5-------------------------3-3-3-3-------------------------1-1-1-1--------------|

E||-------------|
B||-------------|
G||-------------|
D||-2---2-------|
A||---3---3-2h3-|
E||-------------|
B||-------------|

E||----------------------|
B||----------------------|
G||----------------------|
D||----/5-4--------/4-5--|
A||-2-----------5--------|
E||-2-----------5--------|
B||-0-----------5--------|


descending riff
both guitars play this riff the first time
but the second time corey plays a harmony
E||----------------------|----------------------|----------------------|-first-ending--|
B||----------------------|-------------------3~-|----------------------|---------------|
G||-------4~-2-----------|------4~-2------------|-------4~-2-----------|-4-2--5-4------|
D||-2-4-5------5-4~-5-2~-|-0-4-5------5-4~-5----|---4-5------5-4~-5-2~-|-----------5-2-|
A||----------------------|----------------------|-3--------------------|---------------|
E||----------------------|----------------------|----------------------|---------------|
B||----------------------|----------------------|----------------------|---------------|

    TR-----------------
E||----------------------|
B||----------3-----3--5\-|
G||-4--2--4-----4--------|
D||----------------------|
A||----------------------|
E||----------------------|
B||----------------------|

harmony
E||------------------------------------------------------------------------------|
B||-------3------------------3---------3--------3--------------------------------|
G||---2-4---5-4-2-4------2-4---5-4-2-4------2-4---5-4-2-4-----7-5-7-11-7-11-12---|
D||-5---------------5--4----------------------------------5----------------------|
A||---------------------------------------3--------------------------------------|
E||------------------------------------------------------------------------------|
B||------------------------------------------------------------------------------|


pre solo/ solo rhythm
Guitar 2
E||---------------------------------------------------------------------------|
B||---------------------------------------------------------------------------|
G||---------------------------------------------------------------------------|
D||---------------------------------------------------------------------------|
A||--------------------------------------------------------------------12-12\-|
E||-000-0-000-0h5h7---0-000-0-000-0h7h8---0-000-0-000-0h8h10---0-000-0-12-12\-|
B||---------------------------------------------------------------------------|



solo 1 CKB
    TR-------------------------
E||-12--11h12p11--8h11p8--7h8p7---|
B||-------------------------------|
G||-------------------------------|
D||-------------------------------|
A||-------------------------------|
E||-------------------------------|
B||-------------------------------|

E||-201816-------------------------------------------|
B||--------20171513----------------------------------|
G||-----------------161412---------------------------|
D||------------------------141210--------------------|
A||-------------------------------141210-------------|
E||--------------------------------------14121112~~\-|
B||--------------------------------------------------|

E||----------------------------------------------------------14h15p14h15p14/17-|
B||----------------------------------------12h13p12-12h13p12-------------------|
G||----------------------11h12p11-11h12p11-------------------------------------|
D||--------9h10p9-9h10p9-------------------------------------------------------|
A||-9h10p9---------------------------------------------------------------------|
E||----------------------------------------------------------------------------|
B||----------------------------------------------------------------------------|

E||-20p17----17-20\17p14-17p14----14-17\14p11----14p11-------------------|
B||-------19-------------------16-------------13-------13----------------|
G||-------------------------------------------------------14-11----------|
D||-------------------------------------------------------------14-13~~~-|
A||----------------------------------------------------------------------|
E||----------------------------------------------------------------------|
B||----------------------------------------------------------------------|

E||------------------------------------|
B||-------------------7-8-7-8-10-8-7-8-|
G||-------------9-8-9------------------|
D||------9----9------------------------|
A||-7-10---10--------------------------|
E||------------------------------------|
B||------------------------------------|

     T     T        T              T          T           T
E||-14p12-14p12-11-13p11\-------------------------------------------------|
B||-----------------------8h10h12-13p12p10p8------------------------------|
G||------------------------------------------12p11p9p8h9-11p9p8-----------|
D||-------------------------------------------------------------7---------|
A||----------------------------------------------------------------9--7~~-|
E||-----------------------------------------------------------------------|
B||-----------------------------------------------------------------------|

E||-323000-535000-757000-878000-1212111188111188778877557755-----------|
B||---------------------------------------------------------8877554~~--|
G||--------------------------------------------------------------------|
D||--------------------------------------------------------------------|
A||--------------------------------------------------------------------|
E||--------------------------------------------------------------------|
B||--------------------------------------------------------------------|

E||-12-8-10-12-14-10-12-14-15-12-14-15-17-14-15-201917-------------------------|
B||---------------------------------------------------201917-------------------|
G||---------------------------------------------------------191716-------------|
D||---------------------------------------------------------------191716-------|
A||---------------------------------------------------------------------1918---|
E||----------------------------------------------------------------------------|
B||----------------------------------------------------------------------------|


solo 2 MKH
(these notes are all triplets)
E||------------------------------------------------------------------------|
B||17p13----13-------------------------------------------------------------|
G||------16----16p12-16p12----12-------------------------------------------|
D||------------------------16----16p14-16p14----14-------------------------|
A||------------------------------------------15----15p14-15p14----14-------|
E||------------------------------------------------------------15----15p14-|
B||------------------------------------------------------------------------|

E||-----------------------------|
B||-----------------------------|
G||-----------------------------|
D||----------------------14--13-|
A||--------------15--14---------|
E||-12--/15--14-----------------|
B||-----------------------------|

E||-------------------------------------------------------------------------------------|
B||-------------------------------------------------------------------------------------|
G||------------------------------------------------------------121416121416-------------|
D||------------------------131416131416------------131416131416------------131416131416-|
A||------------121415121415------------121415121415-------------------------------------|
E||121415121415-------------------------------------------------------------------------|
B||-------------------------------------------------------------------------------------|

E||--------------|
B||--------------|
G||-121416121416-|
D||--------------|
A||--------------|
E||--------------|
B||--------------|

e|--------/20-19---12----14----15----14----12----10----8-----7-------|
B|-----------------15b17-17b19-18b20-17b19-15b17-13b15-11b13-10b12---|
G|-/17-16------------------------------------------------------------|
D|-------------------------------------------------------------------|
A|-------------------------------------------------------------------|
E|-------------------------------------------------------------------|
B|-------------------------------------------------------------------|

e|-19p15------15h19p15--17p14------14h17p14--15p12------12h15p12--14p11------11h14p11---|
B|------17--17---------------15--15---------------13--13---------------12--12-----------|
G|--------16-------------------14-------------------12-------------------11-------------|
D|--------------------------------------------------------------------------------------|
A|--------------------------------------------------------------------------------------|
E|--------------------------------------------------------------------------------------|
B|--------------------------------------------------------------------------------------|

e|-19p15------15h19p15--17p14------14h17p14--15p12------12h15p12--14BU(15)--12h14p12---------|
B|------17--17---------------15--15---------------13--13-----------------------------15b17~~-|
G|--------16-------------------14-------------------12---------------------------------------|
D|-------------------------------------------------------------------------------------------|
A|-------------------------------------------------------------------------------------------|
E|-------------------------------------------------------------------------------------------|
B|-------------------------------------------------------------------------------------------|


song in order:
intro
verse 1
verse 2 part 1
verse 2 part 2
chorus
interlude
verse 1
verse 2 part 1
verse 2 part 2
chorus
middle section
descending riff
pre solo
solo 1
solo 2
verse 1
verse 2 part 2
chorus
interlude
intro
middle section

~~~~~~~~~~~~~~~~~~~~~~~
05.Throes Of Perdition
~~~~~~~~~~~~~~~~~~~~~~~

intro
Guitar 1
    
E||-----------------------------------------------------|
B||-7--0--0--3--0--5--0--2--0--0--3--0--7-5-3-0-0-0-0---|
G||-----------------------------------------------------|
D||-----------------------------------------------------|
A||-----------------------------------------------------|
E||-----------------------------------------------------|
B||-----------------------------------------------------| X14

Guitar 2
    PM--------------------------------------------------|
E||-----------------------------------------------------|
B||-----------------------------------------------------|
G||-----------------------------------------------------|
D||-----------------------------------------------------|
A||-----------------------------------------------------|
E||-7--7--7--7--7--7--7--7--7--7--7--7--7-7-7-7-7-7-7---|
B||-----------------------------------------------------| X2

     PM-----------------------------------------------|  
E||---------------------------------------------------|
B||---------------------------------------------------|
G||---------------------------------------------------|
D||---------------------------------------------------|
A||---------------------------------------------------|
E||-5--5--5--5--5--5--5--5--5--5--5--5--5-5-5-5-5-5-5-|
B||---------------------------------------------------|

    PM--------------------------------------------------|
E||-----------------------------------------------------|
B||-----------------------------------------------------|
G||-----------------------------------------------------|
D||-----------------------------------------------------|
A||-----------------------------------------------------|
E||0--0--0--0--0--0--0--0--0-----0--0--0--0-0-0-0-0-0-0-|
B||-----------------------------------------------------|


     PM-------------------------------------------------|
E||-----------------------------------------------------|
B||-----------------------------------------------------|
G||-----------------------------------------------------|
D||-----------------------------------------------------|
A||-----------------------------------------------------|
E||3--3--3--3--3--3--3--3--3-----3--3--3--3-3-3-3-3-3-3-|
B||-----------------------------------------------------| X2

     PM-------------------------------------------------|
E||-----------------------------------------------------|
B||-----------------------------------------------------|
G||-----------------------------------------------------|
D||-----------------------------------------------------|
A||-----------------------------------------------------|
E||-----------------------------------------------------|
B||0--0--0--0--0--0--0--0--0-----0--0--0--0-0-0-0-0-0-0-| X2

    PM--------------------------------------------------|
E||-----------------------------------------------------|
B||-----------------------------------------------------|
G||-----------------------------------------------------|
D||-----------------------------------------------------|
A||-----------------------------------------------------|
E||-7--7--7--7--7--7--7--7--7--7--7--7--7-7-7-7-7-7-7---|
B||-----------------------------------------------------| X2

     PM-----------------------------------------------|  
E||---------------------------------------------------|
B||---------------------------------------------------|
G||---------------------------------------------------|
D||---------------------------------------------------|
A||---------------------------------------------------|
E||-5--5--5--5--5--5--5--5--5--5--5--5--5-5-5-5-5-5-5-|
B||---------------------------------------------------|

    PM--------------------------------------------------|
E||-----------------------------------------------------|
B||-----------------------------------------------------|
G||-----------------------------------------------------|
D||-----------------------------------------------------|
A||-----------------------------------------------------|
E||0--0--0--0--0--0--0--0--0-----0--0--0--0-0-0-0-0-0-0-|
B||-----------------------------------------------------|

     PM-------------------------------------------------|
E||-----------------------------------------------------|
B||-----------------------------------------------------|
G||-----------------------------------------------------|
D||-----------------------------------------------------|
A||-----------------------------------------------------|
E||3--3--3--3--3--3--3--3--3-----3--3--3--3-3-3-3-3-3-3-|
B||-----------------------------------------------------| X2


both guitars
E||---------------------------------------------------|
B||---------------------------------------------------|
G||---------------------------------------------------|
D||---------------------------------------------------|
A||-2--2--2--2----2--2--2--2--2----2--2--2------------|
E||-2--2--2--2----2--2--2--2--2----2--2--2------------|
B||-0--0--0--0----0--0--0--0--0----0--0--0------------|


verse 1
both guitars
E||---------------------------------------------------|
B||---------------------------------------------------|
G||---------------------------------------------------|
D||---------------------------------------------------|
A||---------------------------------------------------|
E||---------------------------------------------------|
B||-7--0--0--3--0--5--0--2--0--0--3--0--7--5--3--0----| X8

verse 2
both guitars
E||---------------------------------------------------|
B||---------------------------------------------------|
G||---8-8--8-8--8-----------------4-4--4-4--4---------|
D||---9-9--9-9--9---8-8--8-8--8---5-5--5-5--5---------|
A||---9-9--9-9--9---9-9--9-9--9---5-5--5-5--5---------|
E||---7-7--7-7--7---6-6--6-6--6---3-3--3-3--3---------|
||----------------------------------------------------|

guitar 1

E||-------------|
B||-------------|
G||-------------|
D||------17~-16~|
A||-/16---------|
E||-------------|
B||-------------|

guitar 2

E||-------------|
B||-------------|
G||-------------|
D||--1----3-----|
A||--2----4-----|
E||--2----4-----|
B||--0----2-----|


both guitars
E||---------------------------------------------------|
B||---------------------------------------------------|
G||---8-8--8-8--8-----------------4-4--4-4--4---------|
D||---9-9--9-9--9---8-8--8-8--8---5-5--5-5--5---------|
A||---9-9--9-9--9---9-9--9-9--9---5-5--5-5--5---------|
E||---7-7--7-7--7---6-6--6-6--6---3-3--3-3--3---------|
||----------------------------------------------------|


E||------------------|
B||------------------|
G||------------------|
D||--2-2-2-2-2-2-2-2-|
A||--3-3-3-3-3-3-3-3-|
E||------------------|
B||------------------|


verse 3
guitar 1

E||----------------------------------------------------------|
B||----------------------------------------------------------|
G||-----9BU(11BR9)-----9BU(11BR9)-----6-7-6~~----6--4--3-3~~-|
D||--9--------------8---------------5----------5-------------|
A||----------------------------------------------------------|
E||----------------------------------------------------------|
B||----------------------------------------------------------|


verse 4
both guitars
E||----------------------------------------------|
B||----------------------------------------------|
G||----------------------------------------------|
D||----------------------------------------------|
A||----------------------------------------------|
E||--7p5-----7p5------7p5-----7p5-----7p5--5h8~~-|
B||------5p0------5p0-----5p0-----5p0------------|


E||-----------------------------------------|
B||-----------------------------------------|
G||-----------------------------------------|
D||-----------------------------------------|
A||-----------------------------------------|
E||-7p5-----7p5-----7p5-----7p5-----7p5-5h8-|
B||-----5p0-----5p0-----5p0-----5p0---------|

E||-----------------------------------------|
B||-----------------------------------------|
G||-----------------------------------------|
D||-----------------------------------------|
A||-7p5-----7p5-----7p5-----7p5-----7p5-5h8-|
E||-----------------------------------------|
B||-----5p0-----5p0-----5p0-----5p0---------|

E||------------------------------------------|
B||------------------------------------------|
G||------------------------------------------|
D||------------------------------------------|
A||-9p7-----9p7-----9p7-----9p7-----9p7-7p10-|
E||------------------------------------------|
B||-----7p0-----7p0-----7p0-----7p0----------|


verse 5
both gutars
   PM-------------------------------|
E||---------------------------------|
B||---------------------------------|
G||---------------------------------|
D||-----------------4-4-4-4-4-4-4-4-|
A||-----------------5-5-5-5-5-5-5-5-|
E||-7-7-7-7-7-7-7-7-5-5-5-5-5-5-5-5-|
B||-0-0-0-0-0-0-0-0-3-3-3-3-3-3-3-3-|

chorus
guitar 1

E||-----------------------------------------------------------------------|
B||-----------------------------------------------------------------------|
G||-11-11-11-11-9-9-9-9-11-11-11-11-9-9-9-9-2-2-2/4-4-4-4-4---------------|
D||---------------------------------------------------------2-2-2/4-4-4-4-|
A||--9--9--9--9-7-7-7-7--9--9--9--9-7-7-7-7-------------------------------|
E||-----------------------------------------------------------------------|
B||-----------------------------------------------------------------------|

E||--------------------------------|
B||--------------------------------|
G||-4-4-4-4-6-6-6-6-7-7-7-7-9-9-9-9|
D||--------------------------------|
A||-2-2-2-2-4-4-4-4-5-5-5-5-7-7-7-7|
E||--------------------------------|
B||--------------------------------|


guitar 2 (chorus rhythm)
E||-----------------------------------------------|
B||---x16times---x8times---x8times---x16times-----|
G||--8----------6---------1---------4-------------|
D||--9----------7---------2---------5-------------|
A||--9----------7---------2---------5-------------|
E||--7----------5---------0---------3-------------|
B||-----------------------------------------------|

both guitars
verse 6

E||---------------------------------------------|
B||---------------------------------------------|
G||---------------------------------------------|
D||---------------------------------------------|
A||---------------------------------------------|
E||-5h7-----5h7-----5h8p5-5h7-----5h7-----5h8p5-|
B||-----5p0-----5p0-----------5p0-----5p0-------|



verse 7
both guitars (play 4 times)
        PM---   -       -----   -       -----   -----   -----
E||-------------------------------------------------------------------|
B||-------------------------------------------------------------------|
G||-------------------------------------------------------------------|
D||-------------------------------------------------------------------|
A||-------------------------------------------------------------------|
E||---7-------7---7\5-3-------3---3/5-2-------2-------2-------2/5-3-3-|
B||---8-8-8-8-8-8-8\7-5-5-5-5-5-5-5/7-0-0-0-0-0-0-0-0-3-3-3-3-3/7-5-5-|


verse 8
both guitars (PLAY 4 TIMES)


     PM------------------------  PM  PM     PM------       PM  PM
E||-----------------------------|---------|--------------|---------|
B||-----------------------------|---------|--------------|---------|
G||-----------------------------|---------|--------------|---------|
D||-----------------------------|---4---4-|--------------|---4---4-|
A||-----------------------------|---5---5-|--------------|---5---5-|
E||--7-7777-7-7-7777-7-7-7777-7-|---5---5-|-7-7777-7--5PH|---5---5-|
B||--0-0000-0-0-0000-0-0-0000-0-|-0-3-0-3-|-0-0000-0-----|-0-3-0-3-|
                                play 1st    play 2nd      play 3rd 
                                 time        time         time

E||-------------------------|
B||-------------------------|
G||-------------------------|
D||-5-4---4-----------------|
A||-----7---7-5-7-5-4-5-4---|
E||-----------------------7-|
B||-------------------------|
   play 4th time



solo 1 guitar 1 (CKB)

E||----------------------------------------------------------------/14-12~|
B||-----------------------------------------------------------------------|
G||---19\----4~~-6-7-9-11~~--11h12p11-9-7-6--6h-7p6-------6h7p6-----------|
D||-------------------------------------------------7~~~--------7---------|
A||-----------------------------------------------------------------------|
E||-----------------------------------------------------------------------|
B||-----------------------------------------------------------------------|


ive transcribed this bit for tapping and picking to make it easier

      T         T    T    T    T    T    T
E||--------------------------------------------------|
B||--12p8p3h8--15p8-14p8-12p8-15p8-15p8-14p8---------|
G||--------------------------------------------------|
D||--------------------------------------------------|
A||--------------------------------------------------|
E||--------------------------------------------------|
B||--------------------------------------------------|

      T          T     T     T     T          T
E||--------------------------------------------------|
B||--15p12p7h12-19p12-17p12-15p12-19p12p7h12-17p12---|
G||--------------------------------------------------|
D||--------------------------------------------------|
A||--------------------------------------------------|
E||--------------------------------------------------|
B||--------------------------------------------------|

      T           T     T     T     T           T
E||--------------------------------------------------|
B||--19p15p10h15-22p15-21p15-19p15-22p15p10h15-21p15-|
G||--------------------------------------------------|
D||--------------------------------------------------|
A||--------------------------------------------------|
E||--------------------------------------------------|
B||--------------------------------------------------|

or you can play it like this
E||--7-------10---9---7---10---10---9---|
B||----8---8----8---8---8----8----8---8-|
G||------7------------------------------|
D||-------------------------------------|
A||-------------------------------------|
E||-------------------------------------|
B||-------------------------------------|

E||--10----------14----12----10----------14----12----|
B||-----12----12----12----12----12----12----12----12-|
G||--------11----------------------11----------------|
D||--------------------------------------------------|
A||--------------------------------------------------|
E||--------------------------------------------------|
B||--------------------------------------------------|

E||--14----------17----16----14----------17----16----|
B||-----15----15----15----15----15----15----15----15-|
G||--------14----------------------14----------------|
D||--------------------------------------------------|
A||--------------------------------------------------|
E||--------------------------------------------------|
B||--------------------------------------------------|


E||---17-15-14----------19-17-15----------19--17--19--21--19--21-21BU(22)|
B||------------17-15-14----------19-17-15--------------------------------|
G||----------------------------------------------------------------------|
D||----------------------------------------------------------------------|
A||----------------------------------------------------------------------|
E||----------------------------------------------------------------------|
B||----------------------------------------------------------------------|


solo 2 guitar 2 (MKH)

E||-15-14-12----------------------------------------------------------|
B||----------15-14-12-------------------------------------------------|
G||-------------------14-12-11----------------------------------------|
D||----------------------------14-12-11-------------------------------|
A||-------------------------------------14-12-10------------------12~-|
E||----------------------------------------------14-12-10--9~-/10-----|
B||-------------------------------------------------------------------|

E||-----------------------------------|
B||-----------------------------------|
G||-----------------------------------|
D||-----------14BU(16)(14)-12-14-16---|
A||-----------------------------------|
E||--/9--10---------------------------|
B||-----------------------------------|

                                                  
E||--14-10----------------------------------------------------------------|
B||--------10-12----------------------------------------------------------|
G||--------------11-12-11-------------------------------------------------|
D||-----------------------12-10-------------------------------------11h12-|
A||-----------------------------14-12-10-12-14-12----------10-12-14-------|
E||-----------------------------------------------10-12-14----------------|
B||-----------------------------------------------------------------------|

E||----------10----------------10-12-13-|
B||-10-11-12----12-11-10-11-12----------|
G||-------------------------------------|
D||-------------------------------------| x2
A||-------------------------------------|
E||-------------------------------------|
B||-------------------------------------|

E||----------14----------------19-------|     |-17BU(19)~~---|
B||-15-17-18----18-17-15-17-18----18-17-|     |--------------|
G||-------------------------------------|     |--------------|
D||-------------------------------------| x2  |--------------|
A||-------------------------------------|     |--------------|
E||-------------------------------------|     |--------------|
B||-------------------------------------|     |--------------|

solo rhythm (plays throughout solo)
     PM------ ----------- ------- --------- --------- -------
E||------------------------------------------------------------|
B||------------------------------------------------------------|
G||------------------------------------------------------------|
D||------------------------------------------------------------|
A||------------------------------------------------------------|
E||----------7-----------7-------7---------7---------7-------7-|
B||--8-8-8-8-8-8-8-8-8-8-8-8-8-8-8-5-5-5-5-5-5-5-5-5-5-5-5-5-5-|

     PM------ ----------- ------- --------- --------- -------
E||------------------------------------------------------------|
B||------------------------------------------------------------|
G||------------------------------------------------------------|
D||------------------------------------------------------------|
A||------------------------------------------------------------|
E||----------2-----------2-------2---------2---------2-------2-|
B||--0-0-0-0-0-0-0-0-0-0-0-0-0-0-0-3-3-3-3-3-3-3-3-3-3-3-3-3-3-|


outro 
both guitars
E||---------------------------|
B||---------------------------|
G||---------------------------|
D||---------------------------|
A||---------------9~~-----9~~~| hold last chord
E||---7~~---7~~---6~~-----7~~~| till end
B||---8~~---5~~---------------|

song in order:
intro
verse 1
verse 2
verse 3 X2
verse 4
verse 2
verse 3 X2
verse 4
verse 5
chorus
verse 6
chorus
verse 6
verse 7
verse 8
solo 1/ guitar 1(CKB)
solo 2/ guitar 2(MKH)
verse 8
chorus X2
verse 6
chorus
verse 6
chorus
verse 6
verse 1
outro


~~~~~~~~~~~~~~~~
06.Insurrection
~~~~~~~~~~~~~~~~

intro
both guitars
E||-----------------------------------------------------------------|
B||-----------------------------------------------------------------|
G||-----------------------------------------------------------------|
D||----------------------------9------------------------------------|
A||-8p7---10---7-----------0-7---7-5h8-7~-----------------3h5p2h3p2~|
E||-----0----0---0-000-000-----------------0-000-0-000-000----------|
    
E||---------------------------------------|
B||---------------------------------------|
G||---------------------------------------|
D||---------------------------------------|
A||---------3---2-----3---2-----3-5-5-----|
E||-4-3-1-0---1---1-1---1---1-1---3-3-----|

verse
both guitars
E||-----------------------------------------------|-1st------|-----------|
B||-----------------------------------------------|-ending---|-----------|
G||-----------------------------------------------|------CKB-|-----MKH---|
D||-----------------------------------------------|----------|-----------|
A||-3p2---5p2-----------------------3p2---5p2-----|-----8-7--|----12-10--|
E||-1p0-0-3p0-0-0-0-0-0-000-000-000-1p0-0-3p0-000-|0000----8-|0000-----12|

E||-2nd-ending------------|---------------------|
B||-------------CKB-------|------MKH------------|
G||-----------------------|---------------------|
D||-----6-9------7-10-----|-----10-13-----11-14-|
A||---------5-8-----------|----------9-12-------|
E||4-7--------------------|-8-11----------------|

pre-chorus
both guitars   
E||-----------------------------------------|-----------------------|
B||-----------------------------------------|--1st-&-3rd-ending-----|
G||-----------------------------------------|----------CKB&MKH------|
D||7----9--10------12--10--9---7----9---10--|----9------------------|
A||0-00-0-0-0-0000-0-0-0-0-0-0-8-88-8-8-8-88|-88-8-8----------------|
E||-----------------------------------------|--------8\-------------|

E||-2nd-ending------|---------------------|
B||-------------CKB-|--MKH----------------|
G||-9-7----7-9-10-9-|12-10----10-12-14-12-|
D||-----10----------|------12-------------|
A||-----------------|---------------------|
E||-----------------|---------------------|
      
E||-4th-ending--------|-------------------------|
B||-------CKB---------|-------MKH---------------|
G||-9-7---------------|-12-10-------------------|
D||-----10-9-7--------|-------14-12-10----------|
A||------------10-8-7-|----------------14-12-10-|
E||-------------------|-------------------------|

chorus
both guitars
E||------------------------------------------------|
B||------------------------------------------------|
G||------------------------------------------------|
D||9---10-9---7-9-10-9-7-9------9----14-13-10-9-7--|
A||7---8--7---5-7-8--7-5-7-2222-7----12-11-8--7-5--|
E||--00-----00-------------0000---00---------------|

bridge part 1
guitar 1
E||----------------------------------------------------------------|
B||----------------------------------------------------------------|
G||----------------------------------------------------------2---4-|
D||--2-3---0-2---2---3-2-3---2---1---2-3---0-2---2---3-2-3---------|
A||----------------------------------------------------------------|
E||0-----0-----0---1-------1---1---4-----4-----4---1-------1---1---|

brigde part 2
both gutars
    TR------------------------------------------------------|
E||---------------------------------------------------------|
B||---------------------------------------------------------|
G||---------------------------------------------------------|
D||---------------------------------------------------------|
A||---------------------------------------------------------|
E||-0------1------4------1------0------1------4------1------|

Solo rhythm
E||--------------------------------------------part-1---------------|
B||-----------------------------------------------------------------|
G||-------------------------------------------------------------x2--|
D||2-0-2-3---2---0---2---3-6-3-2-3-2-0-2-3---2---0---2---3----------|
A||2-0-2-3---2---0---2---3-6-3-2-3-2-0-2-3---2---0---2---3----------|
E||--------0---0---0---0-------------------0---0---0---0----4-5-----|

play the part above twice and then this:
E||-part-2-|
B||--------|  play it like this: 1,1,2,1,1,2
G||--------|
D||3--6--7-| 
A||--------|
E||1--4--5-|

solo 1
CKB
E||-------------------------------------------|
B||-------------------------------------------|
G||------------------------------------141617-|
D||---------------141617--------141617--------|
A||--------121415--------141517---------------|
E||-121415------------------------------------|

E||-------------------------------------------|
B||---------------1719201917------------171920|
G||--------161719------------1917161719-------|
D||-161719------------------------------------|
A||-------------------------------------------|
E||-------------------------------------------|
 
E||1719201917----------171717/16161616/13131313/121212|
B||-----------20BU(22)--------------------------------|
G||---------------------------------------------------|
D||---------------------------------------------------|
A||---------------------------------------------------|
E||---------------------------------------------------|

     T        T     T        T        T     T        T       T    T
E||-16p13p12-16p12-16p13p12----------------------------------------------|
B||-------------------------15p13p12-15p12-15p13p12----------------------|
G||----------------------------------------------------------------------|
D||-------------------------------------------------12p10p9-12p9-12p10p9-|
A||----------------------------------------------------------------------|
E||----------------------------------------------------------------------|
    
     T      T    T         
E||-------------------|----------------------------------1316-12~~~-|
B||-------------------|-------------------------1215-912------------|
G||-------------------|---------------1013--------------------------|
D||-------------------|--------------------1215---------------------|
A||-11p8p7-11p7-11p8p7|-----1417-1114-------------------------------|
E||-------------------|1215-----------------------------------------|
                                                           
E||-/191919/242424-22h24p22-22-20-19-20-22-/22-20h22p20-19h20p19---|
B||--------------------------------------------------------------18|
G||----------------------------------------------------------------|
D||----------------------------------------------------------------|
A||----------------------------------------------------------------|
E||----------------------------------------------------------------|

E||13-8-------------------8-17-13----------------------|
B||----10---------------10-------13--------------------|
G||------10-----------10-----------14----------------14|
D||--------10-------10---------------15------------15--|
A||----------12-8-12-------------------15--------15----|
E||--------------------------------------17-13-17------|
     
E||-201917------------------------|
B||--------181715-----------------|
G||---------------171614-161413---|
D||-------------------------------|
A||-------------------------------|
E||-------------------------------|

solo 2
MKH
E||--------------------------------------------------------------------|
B||--------------------------------------------------------------------|
G||--------------------------------------------------------------------|
D||--------------------------------------------------------------------|
A||-11BU(12)(11)-7BU(8)(7)-87578----11BU(12)(11)-13BU(14)14-14-14-14~~-|
E||-----------------------------578------------------------------------|
      
E||--------------------------------------|
B||--------------------------------------|
G||-13BU(14)(13)-9BU(10)(9)-1097910------|
D||---------------------------------7910-|
A||--------------------------------------|
E||--------------------------------------|

E||-----------------------------------------------------------------|
B||131210131210-151312151312-171513171513-181715181713-211817211817-|
G||-----------------------------------------------------------------|
D||-----------------------------------------------------------------|
A||-----------------------------------------------------------------|
E||-----------------------------------------------------------------|

E||------------------|-16h17p16p13h16p13-------------|
B||-22-22-22-21-18-17|-------------------17h18p15h17-|
G||------------------|-------------------------------|
D||------------------|-------------------------------|
A||------------------|-------------------------------|
E||------------------|-------------------------------|
      
E||-------------------------------------------------------|
B||-------------------------------------------------------|
G||-16h17p16p14h16p14\13h14p13----13----------------------|
D||----------------------------15----15p14h15p12h14----12-|
A||-------------------------------------------------15----|
E||-------------------------------------------------------|
      
E||-----------------------------------|
B||-----------------------------------|
G||-----------------------------------|
D||-----------------------------------|
A||-15p14h15p12h14h15p14p12-----------|
E||-------------------------13-12-10-5|

harmony MKH
     T                       T
E||-17p16p13-play-6-times-|-16p13p12-play-8-times-|-17BU(19)~~~-|
B||-----------------------|-----------------------|-------------|
G||-----------------------|-----------------------|-------------|
D||-----------------------|-----------------------|-------------|
A||-----------------------|-----------------------|-------------|
E||-----------------------|-----------------------|-------------|

harmony CKB
     T                      T
E||-12p10p8-play-6-times-|-10p8p7-play-8-times-|-12BU(14)~~~-|
B||----------------------|---------------------|-------------|
G||----------------------|---------------------|-------------|
D||----------------------|---------------------|-------------|
A||----------------------|---------------------|-------------|
E||----------------------|---------------------|-------------|

outro
both guitars
E||--------------|
B||--------------|
G||--------------|
D||--------------|
A||----------333-|
E||-0-000-0--111-| 

song in order:
intro
verse
pre-chorus
chorus
intro
verse
pre-chorus
chorus
bridge part 1
bridge part 2
solo 1
solo 2
chorus
intro
outro


~~~~~~~~~~~~~~~~
07.The Calamity
~~~~~~~~~~~~~~~~

Intro
guitar 1
E||---------------------------------|---------------------------------|
B||---------------------------------|---------------------------------|
G||-7-5-0-7-5-0-7-5-0-7-5-0-7-5-0-0-|-8-5-0-8-5-0-8-5-0-8-5-0-8-5-0-0-|
D||---------------------------------|---------------------------------|
A||---------------------------------|---------------------------------|
E||---------------------------------|---------------------------------|
B||---------------------------------|---------------------------------|

E||---------------------------------|---------------------------------|
B||---------------------------------|---------------------------------|
G||-5-3-0-5-3-0-5-3-0-5-3-0-5-3-0-0-|-3-3-3-3-3-3-5-5-----------------|
D||---------------------------------|-----------------3-3-3-3-3-3-3-3-|
A||---------------------------------|---------------------------------|
E||---------------------------------|---------------------------------|
B||---------------------------------|---------------------------------|

Verse 1
both guitars
E||---------------------------------|---------------------------------|
B||---------------------------------|---------------------------------|
G||---------------------------------|---------------------------------|
D||-5-5-5-5-----------------5-5-5-5-|-----------------5-5-----5-5-----|
A||-5-5-5-5-----------------5-5-5-5-|-----------------5-5-----5-5-----|
E||-3-3-3-3-3-3-3-3-3-3-3-3-3-3-3-3-|-3-3-3-3-3-3-3-3-3-3-3-3-3-3-3-3-|
B||---------------------------------|---------------------------------|

E||---------------------------------|---------------------------------|
B||---------------------------------|---------------------------------|
G||---------------------------------|---------------------------------|
D||-6-6-6-6-----------------6-6-6-6-|-----------------6-6-----6-6-----|
A||-6-6-6-6-----------------6-6-6-6-|-----------------6-6-----6-6-----|
E||-4-4-4-4-4-4-4-4-4-4-4-4-4-4-4-4-|-4-4-4-4-4-4-4-4-4-4-4-4-4-4-4-4-|
B||---------------------------------|---------------------------------|

E||---------------------------------|---------------------------------|
B||---------------------------------|---------------------------------|
G||---------------------------------|---------------------------------|
D||-3-3-3-3-----------------3-3-3-3-|-----------------3-3-----3-3-----|
A||-3-3-3-3-----------------3-3-3-3-|-----------------3-3-----3-3-----|
E||-1-1-1-1-1-1-1-1-1-1-1-1-1-1-1-1-|-1-1-1-1-1-1-1-1-1-1-1-1-1-1-1-1-|
B||---------------------------------|---------------------------------|

E||---------------------------------|---------------------------------|
B||---------------------------------|---------------------------------|
G||---------------------------------|---------------------------------|
D||-5-5-5-5-----------------5-5-5-5-|-----------------5-5-----5-5-----|
A||-5-5-5-5-----------------5-5-5-5-|-----------------5-5-----5-5-----|
E||-3-3-3-3-3-3-3-3-3-3-3-3-3-3-3-3-|-3-3-3-3-3-3-3-3-3-3-3-3-3-3-3-3-|
B||---------------------------------|---------------------------------|

guitar 1 Repeats Verse 1, while Guitar 2 plays:
Verse 2
E||----------|---------|----------------|--------------|--------|----------|
B||----------|---------|----------------|--------------|--------|----------|
G||-4--4/5\4-|-7----10-|-7/8\7--7/8\7-7-|-/10-10-12-13-|-13--10-|-4--7/8\7-|
D||----------|---------|----------------|--------------|--------|----------|
A||-2--2/3\2-|-5----8--|-5/6\5--5/6\5-5-|-/8--8--10-11-|-11---8-|-2--5/6\5-|
E||----------|---------|----------------|--------------|--------|----------|
B||----------|---------|----------------|--------------|--------|----------|

verse 3
E||---------------------------------|---------------------------------|
B||---------------------------------|---------------------------------|
G||---------------------------------|---------------------------------|
D||---------------------------------|---------------------------------|
A||---------------------------------|---------------------------------|
E||-3-3-3-3-3-3-3-3-3-3-3-3-3-3-3-3-|---------------------------------|
B||---------------------------------|-4-4-4-4-4-4-4-4-6-6-6-6-6-6-6-6-|

E||---------------------------------|---------------------------------|
B||---------------------------------|---------------------------------|
G||---------------------------------|---------------------------------|
D||---------------------------------|---------------------------------|
A||---------------------------------|---------------------------------|
E||-3-3-3-3-3-3-6-6-----------------|-3-3-3-3-3-3-3-3-6-6-6-6-4-4-4-4-|
B||-----------------6-6-6-6-6-6-6-6-|---------------------------------| 

Chorus
Guitar 1  
E||-----------------|-----------------|-----------------|-----------------|
B||-----------------|-----------------|-----------------|-----------------|
G||-----------------|-----------------|-----------------|-----------------|
D||-5-5-5-5-5-5-5-5-|-3-3-3-3-3-3-3-3-|-----------------|-----------------|
A||-5-5-5-5-5-5-5-5-|-3-3-3-3-3-3-3-3-|-3-3-3-3-3-3-3-3-|-5-5-5-5-5-5-5-5-|
E||-3-3-3-3-3-3-3-3-|-1-1-1-1-1-1-1-1-|-3-3-3-3-3-3-3-3-|-5-5-5-5-5-5-5-5-|
B||-----------------|-----------------|-1-1-1-1-1-1-1-1-|-3-3-3-3-3-3-3-3-|

Guitar 2
E||-----------------|-----------------|-----------------|----------------|
B||-----------------|-----------------|-----------------|----------------|
G||---------------8-|-5---------------|-5-------8--5--8-|-7---5----------|
D||-5-------5--8----|-----8---7---8---|-----------------|---------8---7--|
A||-----------------|-----------------|-----------------|----------------|
E||-----------------|-----------------|-----------------|----------------|
B||-----------------|-----------------|-----------------|----------------|
  
Guitar 1
E||-----------------|-----------------|----------|----------|
B||-----------------|-----------------|----------|----------|
G||-----------------|-----------------|----------|----------|
D||-5-5-5-5-5-5-5-5-|-3-3-3-3-3-3-3-3-|----------|----------|
A||-5-5-5-5-5-5-5-5-|-3-3-3-3-3-3-3-3-|-3--------|-5--------|
E||-3-3-3-3-3-3-3-3-|-1-1-1-1-1-1-1-1-|-3--------|-5--------|
B||-----------------|-----------------|-1--------|-3--------|

Guitar 2
E||-----------------|-----------------|----------|------/14-|
B||-----------------|-----------------|----------|-----7----|
G||---------8-----8-|-5---------------|-5---8-5-8|-7--------|
D||-5----------5----|-----8---7---8---|----------|----------|
A||-----------------|-----------------|----------|----------|
E||-----------------|-----------------|----------|----------|
B||-----------------|-----------------|----------|----------|

Guitar 1 (while Guitar 2 repeats)
E||--------------|--------------|-----------------|-----------------|
B||--------------|--------------|-----------------|-----------------|
G||--------------|--------------|-5-5-5-5-5-5-5-5-|-7-7-7-7-7-7-7-7-|
D||-5-5-5-5-5----|-3-3-3-3-3----|-5-5-5-5-5-5-5-5-|-7-7-7-7-7-7-7-7-|
A||-5-5-5-5-5----|-3-3-3-3-3----|-3-3-3-3-3-3-3-3-|-5-5-5-5-5-5-5-5-|
E||-3-3-3-3-3----|-1-1-1-1-1----|-----------------|-----------------|
B||--------------|--------------|-----------------|-----------------|

E||-----------------|-----------------|----------|----------|
B||-----------------|-----------------|----------|----------|
G||-----------------|-----------------|----------|----------|
D||-5-5-5-5-5-5-5-5-|-3-3-3-3-3-3-3-3-|----------|----------|
A||-5-5-5-5-5-5-5-5-|-3-3-3-3-3-3-3-3-|-3--------|-5--------|
E||-3-3-3-3-3-3-3-3-|-1-1-1-1-1-1-1-1-|-3--------|-5--------|
B||-----------------|-----------------|-1--------|-3--------|

Intermediate Riff
E||---------------------------------|---------------------------------|
B||---------------------------------|---------------------------------|
G||---------------------------------|---------------------------------|
D||---------------------------------|---------------------------------|
A||---------3-3-3-3-----------------|---------3-3-3-3---------5-5-5-5-|
E||-------------------------3-3-3-3-|---------------------------------|
B||-1-1-1-1---------1-1-1-1---------|-3-3-3-3---------3-3-3-3---------|

E||---------------------------------|---------------------------------|
B||---------------------------------|---------------------------------|
G||---------------------------------|---------------------------------|
D||---------------------------------|---------------------------------|
A||-------------------------6-6-6-6-|---------------------------------|
E||---------3-3-3-3-----------------|---------4-4-4-4---------3-3-3-3-|
B||-4-4-4-4---------4-4-4-4---------|-6-6-6-6---------4-4-4-4---------|
 
this solo Is based around G Phrygian (key of Eb).
Solo
E||----------------------------------------------------------------------|
B||----------------------------------------------------------------------|
G||----------------------------------------------------10-11-12-10-11-12-|
D||-----------------------------------10-11-13-10-11-13------------------|
A||--------------10-11-13-10-11-13---------------------------------------|
E||-8-9-10-8-9-10--------------------------------------------------------|
B||----------------------------------------------------------------------|

E||-------------|
B||-13-12-9-12~-|
G||-------------|
D||-------------|
A||-------------|
E||-------------|
B||-------------|

Rhythm Guitar
E||----------------------------------------|
B||----------------------------------------|
G||---------------------4/5\4---7-----10~--|
D||-3--3--3--5-----------------------------|
A||-3--3--3--5----------2/3\2---5------8~--|
E||-1--1--1--3-----------------------------|
B||----------------------------------------|

Solo Cont'd
E||-----------------------------------------------------------------------|
B||-----------------------------------------------------13-14-15-13-14-15-|
G||------------------10-11-12-10-11-12-13-14-15-13-14-15------------------|
D||-10-11-12-10-11-12-----------------------------------------------------|
A||-----------------------------------------------------------------------|
E||-----------------------------------------------------------------------|
B||-----------------------------------------------------------------------|

E||-20-19-16-19~-|
B||--------------|
G||--------------|
D||--------------|
A||--------------|
E||--------------|
B||--------------|

Rhythm Guitar
E||----------------------------------------|
B||----------------------------------------|
G||---------------------4/5\4---7-----12~--|
D||-3--3--3--5-----------------------------|
A||-3--3--3--5----------2/3\2---5-----10~--|
E||-1--1--1--3-----------------------------|
B||----------------------------------------|

solo Cont'd
E||-------------------------------------|
B||-12-10-12-13-10-12-15-10-12-13-12-13-|
G||-------------------------------------|
D||-------------------------------------|
A||-------------------------------------|
E||-------------------------------------|
B||-------------------------------------|

E||-------------------------------------------------|
B||-16-12-13-16\15-10-12-15-13-15-16-13-16-18-15-18-|
G||-------------------------------------------------|
D||-------------------------------------------------|
A||-------------------------------------------------|
E||-------------------------------------------------|
B||-------------------------------------------------|

Rhythm Guitar
E||-------------------------|-----------------|
B||-------------------------|-----------------|
G||-------------------4/5\4-|----7------12-10-|
D||-5--5--5--3--------------|-----------------|
A||-5--5--5--3--------2/3\2-|----5------10-8--|
E||-3--3--3--1--------------|-----------------|
B||-------------------------|-----------------|

Solo Cont'd
E||---------15-21-15--------|
B||-------16--------16------|
G||-----17------------17----|
D||---17----------------17--|
A||-15----------------------|
E||-------------------------|
B||-------------------------|

* Harmonizer on (B minor, 3rd) 
E||----------------------|
B||----------13-11-------|
G||----------------13-12-|
D||----------------------|
A||-15~---14-------------|
E||----------------------|
B||----------------------|

E||----------------------------------------------------------------20~|
B||-11------------11---------------------------------------------20---|
G||----13-12-10-13--13-12-10----12-10-------12----------------17------|
D||--------------------------13-------13-12----13-12-10----17---------|
A||-----------------------------------------------------15------------|
E||-------------------------------------------------------------------|
B||-------------------------------------------------------------------|

Rhythm Guitar
E||-----------------------|---------------------------|
B||-----------------------|---------------------------|
G||----------------6/7\6--|---------------------------|
D||-5-------6-------------|-5---6--5------------------|
A||-5-------6------4/5\4--|-----------8--6--8-8-8--10-|
E||-3-------4-------------|-3---4--3------------------|
B||-----------------------|-----------6--4--6-6-6---8-|

solo 2 (another Guitar overlaps last note of solo 1)
rhythm guitar repeats previous solo rhythm riff
pllay each of these boxes twice
E||-8p3-------3-|-13p10----------10-|
B||-----4---4---|-------12----12----|
G||-------5-----|----------13-------|
D||-------------|-------------------|
A||-------------|-------------------|
E||-------------|-------------------|
B||-------------|-------------------|

E||-17p13----------13-|-19p16----------16-|
B||-------15----15----|-------18----18----|
G||----------16-------|----------19-------|
D||-------------------|-------------------|
A||-------------------|-------------------|
E||-------------------|-------------------|
B||-------------------|-------------------|

For easier reading, tap 20th fret after each note
E||-18T-18T-16T-16T-15T-16T-16T-15T-15T-13T-13T-15T-15T-16T-16T-|
B||-------------------------------------------------------------|
G||-------------------------------------------------------------|
D||-------------------------------------------------------------|
A||-------------------------------------------------------------|
E||-------------------------------------------------------------|
B||-------------------------------------------------------------|

E||-15p11---------------------------------|---------------------|
B||-------13------------------------------|---------------------|
G||----------12p8-------------------------|---------------------|
D||---------------10----------------------|------------------17~|
A||------------------10p6-----------------|----------13-14-15---|
E||-----------------------8~~~~~~~--------|-/13-14-15-----------|
B||---------------------------------------|---------------------|

E||-------------------15~---15-|-15h16-13h16-12h13---16-------------|
B||-------------14h15----------|-------------------15--13-15-13-12~-|
G||----14h15h17----------------|------------------------------------|
D||-17-------------------------|------------------------------------|
A||----------------------------|------------------------------------|
E||----------------------------|------------------------------------|
B||----------------------------|------------------------------------|

E||----------12-16-12----18-16------16-21p17-17-19-21~--|
B||--------14--------14~------15--15--------------------|
G||------13---------------------14----------------------|
D||-11-14-----------------------------------------------|
A||-----------------------------------------------------|
E||-----------------------------------------------------|
B||-----------------------------------------------------|

Rhythm Guitar ending
E||----------------------------|
B||----------------------------|
G||----------------------------|
D||-5---6--5-------------------|
A||----------------------------|
E||-3---4--3-------------------| 
B||----------4--3--4-3-4-3-0-1-|   

3rd part during last chorus (heard around 4:41 on track)
E||---------3-------|---------5-------|
B||-------4---4-----|-------7---7-----|
G||-5---5-------5---|-----7-------7---|
D||---5-----------5-|---7-----------7-|
A||-----------------|-5---------------|
E||-----------------|-----------------|
B||-----------------|-----------------|

E||-----------------|---------1-------|------|------|
B||-----------------|----------1------|------|------|
G||-------3-----3---|-3-2---2---2-----|------|------|
D||-5---5-----5---5-|-----3------3----|------|------|
A||---5-------------|-------------3---|-3----|-5----|
E||-----------------|--------------1--|-3----|-5----|
B||-----------------|-----------------|-1----|-3----|

outro
both guitars
E||-----------------------------|
B||-----------------------------|
G||-----------------------------|
D||-------3--3--3----5----5\----|
A||-3-3---3--3--3----5----5\----|
E||-1-1---1--1--1----3----3\----|
B||-1-1---1--1--1----3----3\----| 

song in order:
intro
verse 1
verse 2
verse 3
chorus
intermediate riff
verse 2
verse 3
chorus
intermediate riff
solo 1
solo 2
intermediate riff
verse 1
verse 3
chorus
outro

~~~~~~~~~~~~~~~~~~~~~~~~~~~~~
08.He Who Spawned The Furies
~~~~~~~~~~~~~~~~~~~~~~~~~~~~~

Intro/chorus
Guitar 2 X2   
      PM----- -------- -----       
E||------------------------------------|-------------------------|
B||------------------------------------|-------------------------|
G||------------------------------------|-------------------------|
D||------------------------------------|-5-555-7-777-4-444-4-444-|
A||-2--------2--------9--------4--5--7-|-5-555-5-555-4-444-4-444-|
E||-2--------2--------6--------6--7--9-|-3-333-3-333-2-222-2-222-|
B||-0-0--000-0-0--000---0--000---------|-------------------------| 


Guitar 1
E||-----------------|---------------------------------------------------|
B||-----------------|-12-12-12-12-12-12-11-11-11-11-11-11---------------|
G||---11-BU(12BR11)-|-------------------------------------11-BU(12BR11)-|
D||-----------------|---------------------------------------------------|
A||-----------------|---------------------------------------------------|
E||-----------------|---------------------------------------------------|
B||-----------------|---------------------------------------------------|


verse 1   (the afterbirth has barely dried...)
Both guitars X4
E||-------------------------------------|
B||-------------------------------------|
G||-------------------------------------|
D||-9--9-9\7-7--7-7\5-5--5-5\3-3--3-3-3-|
A||-9--9-9\7-7--7-7\5-5--5-5\3-3--3-3-3-|
E||-7--7-7\5-5--5-5\3-3--3-3\1-1--1-1-1-|
B||-------------------------------------|


verse 2        (devour...)
Both guitars X4
             PM---------
E||----------------------------------------|
B||----------------------------------------|
G||----------------------------------------|
D||-12-X-12\-------------8-8--8-X-8-8--8-X-|
A||-12-X-12\-------------8-8--8-X-8-8--8-X-|
E||-10-X-10\-------------6-6--6-X-6-6--6-X-|
B||----------0-0-0-0-0-0-------------------|


verse 3      (swallowed his children whole...)
Both guitars
E||--------------------------------------|
B||--------------------------------------|
G||--------------------------------------|
D||--------------------------------------|
A||--5-5-5--5-5-5-5--5-4-4-4--4-4-4-4--4-|
E||--5-5-5--5-5-5-5--5-4-4-4--4-4-4-4--4-|
B||--3-3-3--3-3-3-3--3-2-2-2--2-2-2-2--2-|


Middle section  
Both guitars X4
E||----------------------------------------|
B||----------------------------------------|
G||----------------------------------------|
D||--3----3--------3----3--------3----3----|
A||--5-55-4-444444-5-55-4-444444-5-55-4-44-|
E||----------------------------------------|
B||----------------------------------------|


verse 4        (he who spawned the furies...)
Both guitars X4
E||----------------------------------------|
B||----------------------------------------|
G||----------------------------------------|
D||----------------------------------------|
A||----------------------------------------|
E||--1----0--------1----0--------1----0----|
B||--3-33-2-222222-3-33-2-222222-3-33-2-22-|


solo 1
guitar 2
(sweep picking)
E||----------6-9--9p6-----------------9-12--12p9--------|
B||--------8----------8------------11------------11-----|
G||-/6~~-6--------------6~~-/9~~-9------------------9~~-|
D||-----------------------------------------------------|
A||-----------------------------------------------------|
E||-----------------------------------------------------|
B||-----------------------------------------------------|


(sweep picking cont')
E||------6-9p6--------9-12p9--------7-10p7--------9-|
B||----8-------8---11--------11---9--------9---11---|
G||--6-----------9--------------7------------9------|
D||-------------------------------------------------|
A||-------------------------------------------------|
E||-------------------------------------------------|
B||-------------------------------------------------|


E||--15---14---13---14---15---14\---|
B||---------------------------------|
G||---------------------------------|
D||---------------------------------|
A||---------------------------------|
E||---------------------------------|
B||---------------------------------|


(tapping)
      T       T       T       T       T       T        T       T
E||--15p12p9-15p12p9-15p12p9------------------------------------------|
B||--------------------------14p11p9-14p11p9-14p11p9------------------|
G||---------------------------------------------------14p10p9-14p10p9-|
D||-------------------------------------------------------------------| X4
A||-------------------------------------------------------------------|
E||-------------------------------------------------------------------|
B||-------------------------------------------------------------------|


E||----------19\/(19WBH)~~~~~-|
B||-14/17~~-------------------|
G||---------------------------|
D||---------------------------|
A||---------------------------|
E||---------------------------|
B||---------------------------|


solo 2
guitar 1
    TR---------------------------    
E||-------------------------------|
B||-14h15---14h15---14h15---14h15-|
G||-------------------------------|
D||-------------------------------|
A||-------------------------------|
E||-------------------------------|
B||-------------------------------|

                                 
E||--17--16--14--16--14--13--14--13---------|
B||----------------------------------15--14-|
G||-----------------------------------------|
D||-----------------------------------------|
A||-----------------------------------------|
E||-----------------------------------------|
B||-----------------------------------------|


(tremelo)
     TR--------------------
E||--------------------------|
B||-----------------15---14--|
G||------------12------------|
D||--12---13-----------------|
A||--------------------------|
E||--------------------------|
B||--------------------------|


verse 5         (Wreathed with serpents...)
Both guitars X2
     PM----- -------- -------- --------
E||--------------------------------------|
B||--------------------------------------|
G||---------------------------3--------3-|
D||---------3--------3-5-5555-5-4-4444-4-|
A||--5-5555-5-4-4444-4-------------------|
E||--------------------------------------|
B||--------------------------------------|


verse 6         (criminals!...)
Both guitars X4
       PM-- ------- ----- ------- ----- ----
E||------------------------------------------|
B||------------------------------------------|
G||------------------------------------------|
D||------------------------------------------|
A||--2-----2-------2-----2-------2-----2-----|
E||--2-----2-------2-----2-------2-----2-----|
B||--0-000-0-000---0-000-0-000---0-000-0-000-|


song played in order:
intro/chorus
verse 1
verse 2
verse 3
intro/chorus
verse 1
verse 2
verse 3
intro/chorus
middle section
verse 4
solo
verse 5
verse 6
intro/chorus X2
verse 6

~~~~~~~~~~~~~~~~~~~~~~~~~~~~~~~~~~
09.Of Prometheus And The Crucifix
~~~~~~~~~~~~~~~~~~~~~~~~~~~~~~~~~~

Intro
guitar 1
E||----------------------------------|---------------------------------|
B||----------------------------------|---------------------------------|
G||----------------------------------|---------------------------------|
D||-11-11-11-11--9--9--9-------------|----------------------------11-9-|
A||----------------------11-11-11-11-|-12-12-12-12-12-11-11-11---------|
E||----------------------------------|-------------------------12------|
B||----------------------------------|---------------------------------|

E||----------------------------------|----------------------------------|
B||----------------------------------|----------------------------------|
G||----------------------------------|----------------------------------|
D||-12-12-12-12-11-11-11-------------|----------------------------------|
A||----------------------12-12-12-12-|-12-12-12-12-11-11-11--8--8--8--8-|
E||----------------------------------|----------------------------------|
B||----------------------------------|----------------------------------|

harmony
E||----------------------------------|---------------------------------|
B||-14-14-14-14-12-12-12-------------|---------------------------14-12-|
G||----------------------13-13-13-13-|-14-14-14-14-14-13-13-13---------|
D||----------------------------------|-------------------------14------|
A||----------------------------------|---------------------------------|
E||----------------------------------|---------------------------------|
B||----------------------------------|---------------------------------|

E||----------------------------------|----------------------------------|
B||-15-15-15-15-14-14-14-------------|----------------------------------|
G||----------------------14-14-14-14-|-14-14-14-14-13-13-13-10-10-10-10-|
D||----------------------------------|----------------------------------|
A||----------------------------------|----------------------------------|
E||----------------------------------|----------------------------------|
B||----------------------------------|----------------------------------|

guitar 2
E||----------------------------------|--------------------------------|
B||----------------------------------|--------------------------------|
G||----------------------------------|--------------------------------|
D||----------------------------------|--------------------------------|
A||--9-------------------------------|--7-----------------------------|
E||--9-------------------------------|--7-----------------------------|
B||--7-------------------------------|--5-----------------------------|

E||----------------------------------|--------------------------------|
B||----------------------------------|--------------------------------|
G||----------------------------------|--------------------------------|
D||----------------------------------|--------------------------------|
A||--5-------------------------------|--2-----------4--4-----8--8--8--|
E||--5-------------------------------|--2-----------x--x-----x--x--x--|
B||--3-------------------------------|--0--------x--2--2--x--6--6--6--|

verse
guitar 1
E||-----------------------------------|----------------------------------|
B||-----------------------------------|----------------------------------|
G||o----------------------------------|----------------------------------|
D||-----------------------------------|----------------------------------|
A||o-------------------------11---9---|-------------------------11---9---|
E||-----------------10---9------------|----------------10---9------------|
B||--7-7-9-7-10-7-7----7---7----7---7-|-6-6-9-6-10-6-6----6---6----6---6-|

E||--------------------------------|------------------------------||
B||--------------------------------|------------------------------||
G||--------------------------------|-----------------------------o||
D||--------------------------------|-------------------7---6------||
A||------------------------9---7---|-----9---8-------------------o||
E||----------------9---7-----------|------------------------------||
B||-5-5-9-5-10-5-5---5---5---5---5-|-7-7---7---7-7-6-6---6---6-6--||

guitar 2
E||-----------------------------------|----------------------------------|
B||-----------------------------------|----------------------------------|
G||o----------------------------------|----------------------------------|
D||-----------------------------------|----------------------------------|
A||o-------------------------11---9---|-------------------------11---9---|
E||-----------------10---9------------|----------------10---9------------|
B||--7-7-9-7-10-7-7----7---7----7---7-|-6-6-9-6-10-6-6----6---6----6---6-|

E||--------------------------------|------------------------------||
B||--------------------------------|------------------------------||
G||--------------------------------|-----------------------------o||
D||--------------------------------|-------------------4---3------||
A||------------------------9---7---|-----5---4-------------------o||
E||----------------9---7-----------|------------------------------||
B||-5-5-9-5-10-5-5---5---5---5---5-|-3-3---3---3-3-2-2---2---2-2--||

Pre-Chorus
guitar 1
E||-----------------------------------------------------------------------|
B||-----------------------------------------------------------------------|
G||-----------------------------------------------------------------------|
D||-----------------------------------------------------------------------|
A||-----------------------------------------------------------------------|
E||-----------------------------------------------------------------------|
B||-10p7-7-7-7-7-10p7-7-7-7-7-10p7-7-7-12p9-9-9-9-9-12p9-9-9-9-9-12p9-9-9-|

E||-------------------------------------------------|
B||-------------------------------------------------|
G||-------------------------------------------------|
D||-------------------------------------------------|
A||-------------------------------------------------|
E||-------------------------------------------------|
B||-14p10-10-10-10-10-14p10-10-10-10-10-14p10-10-10-|

E||---------------------------------|
B||---------------------------------|
G||---------------------------------|
D||---------------------------------|
A||---------------------------------|
E||---------------------------------|
B||-9p6-6-6-6-6-9p6-6-6-6-6-9p6-6-6-|

E||-----------------------------------------------------------------------|
B||-----------------------------------------------------------------------|
G||-----------------------------------------------------------------------|
D||-----------------------------------------------------------------------|
A||-----------------------------------------------------------------------|
E||-----------------------------------------------------------------------|
B||-10p7-7-7-7-7-10p7-7-7-7-7-10p7-7-7-12p9-9-9-9-9-12p9-9-9-9-9-12p9-9-9-|

E||----------------------------------------------------------------|
B||----------------------------------------------------------------|
G||----------------------------------------------------------------|
D||-------------------------------------------------11-11-x-11\----|
A||-------------------------------------------------11-11-x-11\----|
E||--------------------------------------------------9--9-x--9\----|
B||-14p10-10-10-10-10-14p10-10-10-10-10-14p10-10-10----------------|

guitar 2
E||------------------------------------------------------------------------|
B||------------------------------------------------------------------------|
G||------------------------------------------------------------------------|
D||------------------------------------------------------------------------|
A||------------------------------------------------------------------------|
E||--9p5-5-5-5-5--9p5-5-5-5-5--9p5-5-5-10p7-7-7-7-7-10p7-7-7-7-7-10p7-7-7--|
B||------------------------------------------------------------------------|

E||----------------------------------------------|
B||----------------------------------------------|
G||----------------------------------------------|
D||----------------------------------------------|
A||----------------------------------------------|
E||-12p9--9--9--9--9-12p9--9--9--9--9-12p9--9--9-|
B||----------------------------------------------|

E||----------------------------------|
B||----------------------------------|
G||----------------------------------|
D||----------------------------------|
A||----------------------------------|
E||-7p4-4-4-4-4-7p4-4-4-4-4-7p4-4-4--|
B||----------------------------------|

E||-----------------------------------------------------------------------|
B||-----------------------------------------------------------------------|
G||-----------------------------------------------------------------------|
D||-----------------------------------------------------------------------|
A||--9p5-5-5-5-5--9p5-5-5-5-5--9p5-5-5-11p7-7-7-7-7-11p7-7-7-7-7-11p7-7-7-|
E||-----------------------------------------------------------------------|
B||-----------------------------------------------------------------------|

E||-------------------------------------------------------------|
B||-------------------------------------------------------------|
G||-------------------------------------------------------------|
D||----------------------------------------------11-11-x-11\----|
A||-12p9--9--9--9--9-12p9--9--9--9--9-12p9--9--9-11-11-x-11\----|
E||-----------------------------------------------9--9-x--9\----|
B||-------------------------------------------------------------|

chorus
guitar 1
E||-------------------|--------------------------------------|
B||-------------------|----------------14---12---------------|
G||o------14-13-------|-------14-13------------14---13\------|
D||--11-11------------|-11-11-------11--------------------12-|
A||o------------------|--------------------------------------|
E||-------------------|--------------------------------------|

B||-------------------|----------------------------------------||
E||-------------------|-12---------------/17---16----14--------||
B||-------------------|----15-14---12-------------17-----------||
G||-------14-13-------|---------------14----------------------o||
D||-12-12----------14-|----------------------------------------||
A||-------------------|---------------------------------------o||
E||-------------------|----------------------------------------||
B||-------------------|----------------------------------------||

guitar 2
E||----------------------------|------------------------------------------|
B||----------------------------|------------------------------------------|
G||o---------------------------|------------------------------------------|
D||---4-----4-4-4-4-4-4-4-4----|------------------------------------------|
A||o--4-----4-4-4-4-4-4-4-4--4-|---4------4--4--4--4-4--4-4----4-----5----|
E||---2-----2-2-2-2-2-2-2-2--4-|---4------4--4--4--4-4--4-4----4-----5----|
B||--------------------------2-|---2------2--2--2--2-2--2-2----2-----3----|

E||----------------------------|----------------------------------------||
B||----------------------------|----------------------------------------||
G||----------------------------|---------------------------------------o||
D||----------------------------|--7--7--7-7--x--6-----x-----------------||
A||--5--5--5-5-5-5-5-5-5--5----|--7--7--7-7--x--7-----x--7-------x-----o||
E||--5--5--5-5-5-5-5-5-5--5----|--5--5--5-5--x--4--x-----7-------x------||
B||--3--3--3-3-3-3-3-3-3--3----|-------------------------5-------x------||

Breakdown
guitar 1
E||----------------------------|-------------|----------------------------|
B||----------------------------|-------------|----------------------------|
G||----------------------------|-------------|----------------------------|
D||-4--------------------------|-4-3-4-6-3-4-|-4--------------------------|
A||-4--------------------------|-4-3-4-6-3-4-|-4--------------------------|
E||-2--2-2-2-2-2-2-2-2-2-2-2-2-|-2-1-2-4-1-2-|-2--2-2-2-2-2-2-2-2-2-2-2-2-|
B||----------------------------|-------------|----------------------------|

E||---------------------------------|------------------------------|
B||---------------------------------|------------------------------|
G||---------------------------------|------------------------------|
D||---------------------------------|-4----------------------------|
A||---------------------------------|-4----------------------------|
E||-4p2-2-2-4p2-2-2-7p2-2-2-5p2-2-2-|-2--2-2-2-2-2-2-2-2-2-2-2-2---|
B||---------------------------------|------------------------------|

E||-------------|----------|-------------|
B||-------------|----------|-------------|
G||-------------|----------|-------------|
D||-4-3-4-6-3-4-|-4--------|-------------|
A||-4-3-4-6-3-4-|-4--------|-------------|
E||-2-1-2-4-1-2-|-2--------|-------------|
B||-------------|----------|-x\----------|

both guitars
E||-----------------------------|-------------------------------|
B||-----------------------------|-------------------------------|
G||o----------------------------|-------------------------------|
D||--4--------------------------|-6-----------------------------|
A||o-x--------------------------|-x-----------------------------|
E||--2--2-2-2-2-2-2-2-2-2-2-2-2-|-4--2-2-2-2-2-2-2-2-2-2-2-2----|
B||-----------------------------|-------------------------------|

E||----------------------------|--1st-ending--|
B||----------------------------|--------------|
G||----------------------------|-------------o|
D||-7--------------------------|-4-3-4-6-3-4--|
A||-x--------------------------|-x-x-x-x-x-x-o|
E||-5--2-2-2-2-2-2-2-2-2-2-2-2-|-2-1-2-4-1-2--|
B||----------------------------|--------------|

E||---2nd-ending--------------------|
B||---------------------------------|
G||---------------------------------|
D||---------------------------------|
A||---------------------------------|
E||-4p2-2-2-4p2-2-2-7p2-2-2-5p2-2-2-|
B||---------------------------------|

guitar 1
E||-------------|-------------|-------------|
B||-------------|-------------|-------------|
G||-------------|-------------|-------------|
D||-4\3--/6--4--|-4\3--/6--4--|-4\3--/6--4--|
A||-x-x---x--x--|-x-x---x--x--|-x-x---x--x--|
E||-2\1--/4--2--|-2\1--/4--2--|-2\1--/4--2--|
B||-------------|-------------|-------------|

guitar 2
E||-----------|-----------|-----------|-----------|--------------------|
B||-----------|-----------|-----------|-----------|--------------14-17-|
G||-----------|-----------|-----------|-----------|-----13h14h16-------|
D||-7\6-/9--7-|-7\6-/9--7-|-7\6-/9--7-|-11\9--/12-|--------------------|
A||-x-x--x--x-|-x-x--x--x-|-x-x--x--x-|--x-x----x-|--------------------|
E||-5\4-/7--5-|-5\4-/7--5-|-5\4-/7--5-|--9\7--/10-|-/14----------------|
B||-----------|-----------|-----------|-----------|--------------------|

Solo 1
guitar 2
E||---------------------------|---------------------------|
B||-17BU(19)------------------|--17BU(19)(17)-15--14---15-|
G||---------------------------|---------------------------|
D||---------------------------|---------------------------|
A||---------------------------|---------------------------|
E||---------------------------|---------------------------|
B||---------------------------|---------------------------|

E||--------------------------------|
B||--14h15p14-12-------------------|
G||--------------14---13-14-13-----|
D||-----------------------------16-|
A||--------------------------------|
E||--------------------------------|
B||--------------------------------|

E||-------------------------|-----------------------------|
B||-------------------------|-----------------------------|
G||--14--13-----------------|-18-----18-16------16\14-----|
D||---------14-16-------/16-|-----16---------16--------16-|
A||-------------------------|-----------------------------|
E||-------------------------|-----------------------------|
B||-------------------------|-----------------------------|

E||--------------------------|
B||-----------------------14-|
G||--14\13----13-------------|
D||--------16----16-14-16----|
A||--------------------------|
E||--------------------------|
B||--------------------------|

E||------------------------------------|---------------------------|
B||------12h14p12----12----------------|---------------------------|
G||---------------14------14-13-11-----|--11-----------------------|
D||---------------------------------14-|------14-12-11-12-11-------|
A||------------------------------------|---------------------12----|
E||------------------------------------|---------------------------|
B||------------------------------------|---------------------------|

E||-----------------------------------|-----------------------------------|
B||-----------------------------------|-----------------------------------|
G||-------------------11-----13----14-|---------------------13--14--------|
D||-----------9-11-12-----------------|------------11-12-14--------11-11--|
A||--9--11-12-------------------------|--11--12-14------------------------|
E||-----------------------------------|-----------------------------------|
B||-----------------------------------|-----------------------------------|

E||------------------------------|-------------------------------|
B||-----------------14----12-----|-------------------------------|
G||--14-----13-------------------|--14-----13h14p13p11-13--------|
D||------11----11------11-----11-|------11-----------------------|
A||------------------------------|-------------------------------|
E||------------------------------|-------------------------------|
B||------------------------------|-------------------------------|

E||------------------------------------------------16-|
B||--------------------------------------15-17--19----|
G||-----------------------------14-16-18--------------|
D||--------------------14-16-18-----------------------|
A||-----------14-16-17--------------------------------|
E||-14--16-17-----------------------------------------|
B||---------------------------------------------------|

E||------------17-19-21-17-19-19BU(21)-----|
B||--17--19-21-----------------------------|
G||----------------------------------------|
D||----------------------------------------|
A||----------------------------------------|
E||----------------------------------------|
B||----------------------------------------|

E||-17-21p17----------17-21p17----------17-----|
B||----------19----19----------19----19--------|
G||-------------18----------------18-----------|
D||--------------------------------------------|
A||--------------------------------------------|
E||--------------------------------------------|
B||--------------------------------------------|

E||--17h19p17-16h17p16-/14--------------|
B||--------------------------15-14------|
G||-------------------------------------|
D||-------------------------------------|
A||-------------------------------------|
E||-------------------------------------|
B||-------------------------------------|

solo 2
E||-14--------16-16--------17-17--------21-21BU(22)(21)-|
B||-17BU(19)-----19BU(21)-----20BU(22)------------------|
G||-----------------------------------------------------|
D||-----------------------------------------------------|
A||-----------------------------------------------------|
E||-----------------------------------------------------|
B||-----------------------------------------------------|

E||-22-21-19-22-21-19-------------------------------------|
B||-------------------22-21-19-22-21-19-------------------|
G||-------------------------------------21-19-18-21-19-18-|
D||-------------------------------------------------------|
A||-------------------------------------------------------|
E||-------------------------------------------------------|
B||-------------------------------------------------------|

E||--------------------------------------------|
B||--------------------------------------------|
G||--------------------------------------------|
D||-21-19-18-21-19-18--------------------------|
A||-------------------19-17-16-19-17-16--------|
E||-------------------------------------19-17--|
B||--------------------------------------------|

E||---------------------------------------------------|
B||---------------------------------------------------|
G||---------------------------------------------------|
D||---------------------------------------------------|
A||-----------------------16----------------16--17-19-|
E||-16--19-17-16-16-17-19----19-17-16-17-19-----------|
B||---------------------------------------------------|
                                      
E||----------------------------------------------|
B||----------------------------------------------|
G||----------------------------------------------|
D||----------------------------------------------|
A||------------16----------------16~~-17-19-16---|
E||--16--17-19----19-17-16-17-19-----------------|
B||----------------------------------------------|

E||---------------------------------------------------|
B||---------------------------------------------------|
G||---------------------------------------------------|
D||---------------------------------------------------|
A||-----------14----------------14-16-17-----------16-|
E||-14--16-17----17-16-14-16-17----------16-17--19----|
B||---------------------------------------------------|

E||---------------------------------------------------|
B||---------------------------------------------------|
G||------------------16----------------------16-18-19-|
D||---------16-18-19-------19-18-16-16-18-19----------|
A||--17--19-------------------------------------------|
E||---------------------------------------------------|
B||---------------------------------------------------|

E||------------------------------19--------------------|
B||---------------------19-21-22------22-21-19--21-22--|
G||------------18-19-21--------------------------------|
D||--18--19-21-----------------------------------------|
A||----------------------------------------------------|
E||----------------------------------------------------|
B||----------------------------------------------------|

E||--19--21----22-24BU(26)-----------|-/17-14----------------------|
B||----------------------------------|---------17-14---------17-14-|
G||----------------------------------|----------------16-14--------|
D||----------------------------------|-----------------------------|
A||----------------------------------|-----------------------------|
E||----------------------------------|-----------------------------|
B||----------------------------------|-----------------------------|

E||------------------------------|
B||------------------------------|
G||--16-14---------16BU(18)--16--|
D||---------16-14----------------|
A||------------------------------|
E||------------------------------|
B||------------------------------|

E||----------14----------------14----------------14----------------14-|
B||-------------17p14-------------17p14-------------17p14-------------|
G||-16BU(18)----------16BU(18)----------16BU(18)----------16BU(18)----|
D||-------------------------------------------------------------------|
A||-------------------------------------------------------------------|
E||-------------------------------------------------------------------|
B||-------------------------------------------------------------------|

E||-------------------------------------|
B||--17p14----------17-17BU(19)~~~~-----|
G||--------16BU(18)---------------------|
D||-------------------------------------|
A||-------------------------------------|
E||-------------------------------------|
B||-------------------------------------|

Harmony Section
guitar 1
E||----------17-19-19BU(21)~~~----------16-17-17BU(19)~~~-|
B||-20BU(22)-------------------19BU(21)-------------------|
G||-------------------------------------------------------|
D||-------------------------------------------------------|
A||-------------------------------------------------------|
E||-------------------------------------------------------|
B||-------------------------------------------------------|

E||-------------------------------|--1st-ending----------------------|
B||-17---15h17p15\14---12-14-12-14|-15----14-12-14-12----/17--18-----|
G||-------------------------------|-------------------14-------------|
D||-------------------------------|----------------------------------|
A||-------------------------------|----------------------------------|
E||-------------------------------|----------------------------------|
B||-------------------------------|----------------------------------|

E||-2nd-ending-----------------------------------------------------|
B||-15----14-12-14-12--------------------------14-15-17-14-15---17-|
G||-------------------14-13-14---16-13-14---16---------------------|
D||----------------------------------------------------------------|
A||----------------------------------------------------------------|
E||----------------------------------------------------------------|
B||----------------------------------------------------------------|

harmony
E||----------14-16-16BU(17)~~~----------12-14-14BU(16)~~~-|
B||-17BU(19)-------------------15BU(17)-------------------|
G||-------------------------------------------------------|
D||-------------------------------------------------------|
A||-------------------------------------------------------|
E||-------------------------------------------------------|
B||-------------------------------------------------------|

E||------------------------------|-1st-ending---------------|
B||-14-12-12h14p12\10---9-10-9-10|-12----10-9-10-9----------|
G||------------------------------|-----------------11-/9-10-|
D||------------------------------|--------------------------|
A||------------------------------|--------------------------|
E||------------------------------|--------------------------|
B||------------------------------|--------------------------|

E||----------------------------------------------------------------|
B||-12----10--9-10--9--------------------------14-15-17-14-15---17-|
G||-------------------11-13-14---16-13-14---16---------------------|
D||----------------------------------------------------------------|
A||----------------------------------------------------------------|
E||----------------------------------------------------------------|
B||----------------------------------------------------------------|

guitar 2
rhythm
E||--------------------------------------------------|
B||--------------------------------------------------|
G||-11----11-11-11-11----11-11--11--11-11--11---9----|
D||--x-----x--x--x--x-----x--x---x---x--x---x---x----|
A||--9-----9--9--9--9-----9--9---9---9--9---9---7----|
E||--------------------------------------------------|
B||--------------------------------------------------|

E||------------------------------------------|
B||------------------------------------------|
G||---9--9--9--9--9----9-9---9--9-9---9----7-|
D||---x--x--x--x--x----x-x---x--x-x---x----x-|
A||---7--7--7--7--7----7-7---7--7-7---7----5-|
E||------------------------------------------|
B||------------------------------------------|

E||--------------------------------------------|
B||--------------------------------------------|
G||---7----7--7----7-------7-7-7-7--7--7--7--6-|
D||---x----x--x----x-------x-x-x-x--x--x--x--x-|
A||---5----5--5----5-------5-5-5-5--5--5--5--4-|
E||--------------------------------------------|
B||--------------------------------------------|

E||-------------------------------------------------------------|
B||-------------------------------------------------------------|
G||--6--6--6--6-------------------------------------------------|
D||--x--x--x--x-------------------------------------------------|
A||--4--4--4--4-----7-------7-----7----------8--------8---------|
E||-----------------x-------x-----x----------x--------x---------|
B||--------------x--5-------5-----5----x-----6--------6----x----|

song in order:
intro
verse
pre-chorus
chorus
verse 
pre-chorus
chorus
breakdown
solo 1
solo 2
harmony section
pre-chorus
chorus
intro


~~~~~~~~~~~~~~~~~~~~~~~~~~~~~~~~~~~~~
10.Like Callisto To A Star In Heaven
~~~~~~~~~~~~~~~~~~~~~~~~~~~~~~~~~~~~~

Intro
guitar 1
E||--------------------------|------------------------------|
B||--------------------------|------------------------------|
G||----------------7-9-------|-----------------7-9----------|
D||----9-7~----7-9-----10~---|-----9-7~----7-9-----10~-9-9~-|
A||-7~------10---------------|--7~------10------------------|
E||--------------------------|------------------------------|

guitar 2
E||---------------------------|-----------------------------|
B||---------------------------|-----------------------------|
G||---------------------------|-----------------------------|
D||-2~----3~---3--5~----7~--7-|-2~----3~---3--5~----7~--5-5-|
A||-2~----3~---3--5~----7~--7-|-2~----3~---3--5~----7~--5-5-|
E||-0~--0-1~---1--3~--3-5~--5-|-0~--0-1~---1--3~--3-5~--3-3-|

E||---------------------------|-----------------------------|
B||---------------------------|-----------------------------|
G||---------------------------|-----------------------------|
D||-2~----3~---3--5~----7~--7-|-2~----3~---3--5~-/7-7--\5-5-|
A||-2~----3~---3--5~----7~--7-|-2~----3~---3--5~-/7-7--\5-5-|
E||-0~--0-1~---1--3~--3-5~--5-|-0~--0-1~---1--3~-/5-5--\3-3-|

verse 1
both guitars
E||---------------------------------------------------------|
B||---------------------------------------------------------|
G||---------------------------------------------------------|
D||---------------------------------------------------------|
A||-----7---5h8-----7---5h8-----7---5h8-----------3-2-------|
E||-0-0---0-----0-0---0-----0-0---0-----0-0-5-4-5-----5-4-1-|

E||---------------------------------------------------------------|
B||---------------------------------------------------------------|
G||-----------------------------------------14-14-14-14-13-13-13--|
D||---------------------------------------------------------------|
A||-----7---5h8-----7---5h8-----7---5h8-----12-12-12-12-11-11-11--|
E||-0-0---0-----0-0---0-----0-0---0-----0-0-----------------------|

But, at the second time, the second guitar does 
this harmony in the last bar:
E||---------------------------------------------------------------|
B||---------------------------------------------------------------|
G||-----------------------------------------17-17-17-17-16-16-16--|
D||---------------------------------------------------------------|
A||-----7---5h8-----7---5h8-----7---5h8-----15-15-15-15-14-14-14--|
E||-0-0---0-----0-0---0-----0-0---0-----0-0-----------------------|

verse 2
both guitars
E||---------------------------------|-------------------------------|
B||---------------------------------|-------------------------------|
G||---------------------------------|-------------------------------|
D||-------------------------3-------|-------------------------2-3-3-|
A||-----------------3-----3---3-----|-------------------------2-3-3-|
E||-0-0-0-0-0-0-0-0---4-1-------4-1-|-0-0-0-0-0-0-0-0-0-0-0-0-0-1-1-|

E||---------------------------------|------------------------------|
B||---------------------------------|------------------------------|
G||---------------------------------|------------------------------|
D||-------------------------3-------|-------------------5-5-\3/5-5-|
A||-----------------3-----3---3-----|-------------------5-5-\3/5-5-|
E||-0-0-0-0-0-0-0-0---4-1-------4-1-|-0-0-0-0-0-0-0-0-3-3-3-\1/3-3-|

pre-chorus
both guitars
E||------------------------------------|------------------------------|
B||------------------------------------|------------------------------|
G||------------------------------------|------------------------------|
D||-2------3p2---------5p2---------6p2-|-2------3p2-------------2h3p2-|
A||-2------3p2---------5p2---------6p2-|-2------3p2-------5---5-------|
E||-0--0-0-1p0-0-0-0-0-3p0-0-0-0-0-4p0-|-0--0-0-1p0-0-0-4---4---------|

E||------------------------------------|---------------------------|
B||------------------------------------|---------------------------|
G||------------------------------------|---------------------------|
D||-2------3p2---------5p2---------6p2-|-2------3p2----------------|
A||-2------3p2---------5p2---------6p2-|-2------3p2----------------|
E||-0--0-0-1p0-0-0-0-0-3p0-0-0-0-0-4p0-|-0--0-0-1p0-0-0--0000-0000-|

Play the section twice, but the 
second time, replace the last bar by this:
E||-----------------------------------------------|
B||-----------------------------------------------|
G||----------------------------------------4h5-4--|
D||-2------3p2-------------2h3p2~--6---6-7--------|
A||-2------3p2-------5---5-----------7------------|
E||-0--0-0-1p0-0-0-4---4--------------------------|

Harmony
E||------------------------------------------------|
B||------------------------------------------------|
G||-----------------------------------------7h9-7--|
D||-2------3p2-------------2h3p2~--9---9-10--------|
A||-2------3p2-------5---5-----------7-------------|
E||-0--0-0-1p0-0-0-4---4---------------------------|

chorus
guitar 1
E||-----------------------------------|---------------------------------|
B||-----------------------------------|---------------------------------|
G||o---------------------------------o|---------------------------------|
D||o-----5---2h5-----5---2h5-----5---o|-----5---2h5-----5---2h5-----5---|
A||-----------------------------------|-3-3---3-----3-3---3-----3-3---3-|
E||--0-0---0-----0-0---0-----0-0---0--|---------------------------------|

E||--------------------------------|
B||--------------------------------|
G||--------------------------------|
D||-----4---4h5-----9p0-7p0-5p0-4--|
A||-5-5---5-----5-5----------------|
E||--------------------------------|

guitar 2
E||----------|-----------|-----------|-----------|
B||----------|-----------|-----------|-----------|
G||----------|-----------|--5~~-5~~--|--7~~-7~~--|
D||-2~~-2~~--|--2~~-2~~--|--5~~-5~~--|--7~~-7~~--|
A||-2~~-2~~--|--2~~-2~~--|--3~~-3~~--|--5~~-5~~--|
E||-0~~-0~~--|--0~~-0~~--|-----------|-----------|

intro variation
guitar 1
E||------------------------------|------------------------------|
B||------------------------------|------------------------------|
G||----------------7-9-----------|-----------------7-9------7~--|
D||----9-7~----7-9-----10~-9-9~--|-----9-7~----7-9-----10~------|
A||-7~------10-------------------|--7~------10------------------|
E||------------------------------|------------------------------|

guitar 2
E||------------------------------|----------------------------|
B||------------------------------|----------------------------|
G||------------------------------|-5-----5~----5---7--7--7--7-|
D||-2-----2~----2--2-----2~----2-|-5-----5~----5---7--7--7--7-|
A||-2-----2~----2--2-----2~----2-|-3---3-3~----3---5--5--5--5-|
E||-0---0-0~----0--0---0-0~----0-|----------------------------|

E||------------------------------|-------------------------------|
B||------------------------------|-------------------------------|
G||------------------------------|-5-----5~----5---7--7--7-------|
D||-2-----2~----2--2-----2~----2-|-5-----5~----5---7--7--7-------|
A||-2-----2~----2--2-----2~----2-|-3---3-3~----3---5--5--5-------|
E||-0---0-0~----0--0---0-0~----0-|-------------------------X\\\\-|

bridge
guitar 1
E||----------------------------------------------------------|
B||----------------------------------------------------------|
G||-9-9---9-9---9-9-9-9-9-9-9-10--1010-10-10--13-13---16-16--|
D||-x-x---x-x---x-x-x-x-x-x-x--x---x-x--x--x---x--x----x--x--|
A||-7-7---7-7---7-7-7-7-7-7-7--8---8-8--8--8--11-11---14-14--|
E||----------------------------------------------------------|

E||----------------------------------------------------------------|
B||----------------------------------------------------------------|
G||-9-9---9-9---9-9-9-9-9-9-9-10--1010-10-10--16-16-16-14-14-14----|
D||-x-x---x-x---x-x-x-x-x-x-x--x---x-x--x--x---x--x--x--x--x--x----|
A||-7-7---7-7---7-7-7-7-7-7-7--8---8-8--8--8--14-14-14-12-12-12----|
E||----------------------------------------------------------------|

guitar 2
E||----------------------------------------------------|
B||----------------------------------------------------|
G||----------------------------------------------------|
D||-2-2---2-2---2-2-2-2-2-2-2-2--2-2--2--2--2-2---2-2--|
A||-2-2---2-2---2-2-2-2-2-2-2-2--2-2--2--2--2-2---2-2--|
E||-0-0---0-0---0-0-0-0-0-0-0-0--0-0--0--0--0-0---0-0--|

E||--------------------------------------------------------|
B||--------------------------------------------------------|
G||--------------------------------------------------------|
D||-2-2---2-2---2-2-2-2-2-2-2-2--2-2--2--2------5-----3----|
A||-2-2---2-2---2-2-2-2-2-2-2-2--2-2--2--2------5-----3----|
E||-0-0---0-0---0-0-0-0-0-0-0-0--0-0--0--0--3-3-3-1-1-1----|

Bridge variation
E||--------------------------------------------------|
B||--------------------------------------------------|
G||--------------------------------------------------|
D||-2-2---2-2---2-2---2--2-2---2-2--2--2--2-2---2-2--|
A||-2-2---2-2---2-2---2--2-2---2-2--2--2--2-2---2-2--|
E||-0-0---0-0---0-0---0--0-0---0-0--0--0--0-0---0-0--|

E||--------------------------------------------------|
B||--------------------------------------------------|
G||--------------------------------------------------|
D||-2-2---2-2---2-2---2--2-2---2-2--2--2-----5----3--|
A||-2-2---2-2---2-2---2--2-2---2-2--2--2-----5----3--|
E||-0-0---0-0---0-0---0--0-0---0-0--0--0--3333-1111--|

Solo
     T   T    T    T    T    T   T    T    T    T    T
E||------------------------------------------------------|
B||-10p3-9p3-10p3-12p3-13p3-12p3-10p3-9p3-15p3-13p3-12p3-|
G||------------------------------------------------------|
D||------------------------------------------------------|
A||------------------------------------------------------|
E||------------------------------------------------------|

     T    T    T    T    T
E||---------------------------12------13-----13-12-10-13-12-10--|
B||-18p3-17p3-18p3-21p3-22p3--15b17~--16b18---------------------|
G||-------------------------------------------------------------|
D||-------------------------------------------------------------|
A||-------------------------------------------------------------|
E||-------------------------------------------------------------|

Solo Harmony
|--------------|-16------17------17-16-13-17-16-13-19-17-16-19-17-16---|
|--------------|-19b21~--20b22~----------------------------------------|
|-Tapping-Part-|-------------------------------------------------------|
|--No-Harmony--|-------------------------------------------------------|
|--------------|-------------------------------------------------------|
|--------------|-------------------------------------------------------|

E||-16-13-12-16-13-12--19-19-19-19-20-20-20-20-22-22-22-22--|
B||---------------------------------------------------------|
G||---------------------------------------------------------|
D||---------------------------------------------------------|
A||---------------------------------------------------------|
E||---------------------------------------------------------|

E||-24-24-24-24------/12~--12h13-12~--13-12----12--------------|
B||-----------------------------------------15----15-13-15-13--|
G||------------------------------------------------------------|
D||------------------------------------------------------------|
A||------------------------------------------------------------|
E||------------------------------------------------------------|

E||----------------------------------------15-19p15----------|
B||-12-13-12----------------------------17----------17----17-|
G||----------14--9~--9h10-9~---------16----------------16----|
D||-------------------------------17-------------------------|
A||----------------------------19----------------------------|
E||----------------------------------------------------------|

E||-15----------------15-------------------------------------|
B||----19-17-15-17-19----19-17-15----------------------------|
G||-------------------------------17-16-14-17-16-14----------|
D||-------------------------------------------------17-16-14-|
A||----------------------------------------------------------|
E||----------------------------------------------------------|

    NH 
E||-7--WBL-------|
B||--------------|
G||--------------|
D||--------------|
A||--------------|
E||--------------|

solo rhythm
E||-------------------------|
B||-------------------------|
G||-------------------------|
D||-2~----3~----5~----7~----|
A||-2~----3~----5~----7~----|
E||-0~----1~----3~----5-----|

Bass and Drum part
  1 2 3 4   1 2 3 4   1 2 3 4   1 2
|---------|---------|---------|-----------------|
|---------|---------|---------|-----------------|
|---------|---------|---------|-----------------|
|---------|---------|---------|---------5----3--|
|---------|---------|---------|---------5----3--|
|---------|---------|---------|------3333-1111--|

Chorus Harmony
E||-----------------------------------|
B||-----------------------------------|
G||-----------------------------------|
D||------9---5h9-----9---5h9-----9----|
A||--7-7---7-----7-7---7-----7-7---7--|
E||-----------------------------------|

E||----------------------------------------|
B||----------------------------------------|
G||----------------------------------------|
D||-------9----7h9-------12p0-10p0-9p0-7~--|
A||-10-10---10-----10-10-------------------|
E||----------------------------------------|

Outro
E||--------------------------------------------|
B||--------------------------------------------|
G||--------------------------------------------|
D||--------------------------------------------|
A||-----7---5h8-----7---5h8-----7---5h8--------|
E||-0-0---0-----0-0---0-----0-0---0------------|

song in order:
intro
verse 1
verse 2
pre-chorus
intro
chorus
verse 1
verse 2
pre-chorus
chorus
intro variation
bridge
bridge variation
solo
bass and drum part
verse 1
verse 2
pre-chorus
chorus
chorus harmony
outro


~~~~~~~~~~
11.Shogun
~~~~~~~~~~

intro
guitar 1
E||-----------------------------------------------|
B||-----------------------------------------------|
G||o----------------------------------------------|
D||-----------------------------------------------|
A||o-9999-55555555-77-99-10101010-44444-5555-777--|
E||-----------------------------------------------|
B||-----------------------------------------------|

E||---------------------------------|
B||---------------------------------|
G||---------------------------------|
D||---------------------------------|
A||-9999-55555555-77-99-777-975555--|
E||---------------------------------|
B||---------------------------------|

guitar 2
E||------------------------------------------|
B||------------------------------------------|
G||o-----------------------------------------|
D||----------------------5555-88888----------|
A||o-9999-22222222-44-55-5555-88888-5555-777-|
E||--9999-22222222-44-55-3333-66666-5555-777-|
B||--7777-00000000-22-33------------3333-555-|

E||------------------------------------|
B||------------------------------------|
G||------------------------------------|
D||------------------------------------|
A||-9999-22222222-44-55-4444-22222222--|
E||-9999-22222222-44-55-4444-22222222--|
B||-7777-00000000-22-33-2222-00000000--|

both guitars
E||----------------|-------------------------------------------------|
B||----------------|-------------------------------------------------|
G||---------------o|-------------------------------------------------|
D||----7----7------|-------------------------------------------------|
A||----7----7-----o|-------------------------------------------------|
E||----5----5------|-----2-----------2-----------3-----------3-------|
B||-00---00--------|-0235--0-0-0-0235--0-0-0-0235--0-0-0-0235--0-0-0-|

verse 1
both guitars
E||------------------------------------------|-----------|-------|---------|
B||------------------------------------------|-----------|-------|---------|
G||------------------------------------------|-----------|-------|---------|
D||------------------------------------------|---------4-|-------|-------4-|
A||------------------------------------------|---5--54-4-|-------|-5--54-4-|
E||-----2-----------2-----------3------------|---5--54-2-|-------|-5--54-2-|
B||-0235--0-0-0-0235--0-0-0-0235--0-0-0-0235-|---3--32---|-/\/\--|-3--32---|

verse 2
guitar 1 plays this whilst guitar 2
continues to play verse 1
E||----------------------------------|
B||----------------------------------|
G||-4--6--7--9--11-6--9--7-76--------|
D||-X--X--X--X--X--X--X--X-XX--------|
A||-2--4--5--7--9--4--7--5-54--------|
E||----------------------------------|
B||----------------------------------|

verse 3
both guitars
E||---------------------------------------------------------------------|
B||---------------------------------------------------------------------|
G||o-12\11-11-11--12\11-11-11--12\11-11-11-11\9-9-9--11\9-9-9--11\9-9-9-|
D||---------------------------------------------------------------------|
A||o-10\9--9--9---10\9--9--9---10\9--9--9--9\-7-7-7--9\-7-7-7--9\-7-7-7-|
E||---------------------------------------------------------------------|
B||---------------------------------------------------------------------|

E||-------------------------------------|-------------|
B||-------------------------------------|-------------|
G||-444-----666---------777-----444-333-|------------o|
D||-----444-----444-444-----444---------|-------------|
A||-------------------------------------|------------o|
E||-------------------------------------|-------------|
B||-------------------------------------|-00000000----|

chorus
guitar 1
E||--------------------------------------------|
B||-333-222-------------777-555-33-------------|
G||---------44---------------------444-333333--|
D||------------55555555------------------------|
A||--------------------------------------------|
E||--------------------------------------------|
B||--------------------------------------------|

E||-----------------------------------------|
B||-333-222----88888888-777-555-33----------|
G||---------44---------------------444-3333-|
D||-----------------------------------------|
A||-----------------------------------------|
E||-----------------------------------------|
B||-----------------------------------------|

guitar 2
    Bm  G   D   F#Sus F#    Bm  G   D   F#Sus F#7
E||-2---3-------2-----2-----2---3-------2-----2----------|
B||-3---3---7---2-----2-----3---3-------2-----2----------|
G||-4---4---7---4-----3-----4---4-------4-----3----------|
D||-4---5---7---4-----4-----4---5---4---4-----2----------|
A||-2---5---5---4-----4-----2---5---5---4-----4----------|
E||-----3-------2-----2---------3---5---2-----2----------|
B||---------------------------------3--------------------|

verse 4
both guitars
E||------------------------------------------------------------------------|
B||------------------------------------------------------------------------|
G||------------------------------------------------------------------------|
D||--------------------------------------------------------4-4/7-7/5-5-----|
A||---------4-4/7-7/5-5---------4-4/7-7/5-5--9--9--------2-5-5/9-9/7-7-----|
E||-------2-5-5/9-9/7-7-------2-5-5/9-9/7-7-10-10--0000000-----------------|
B||-0000000-------------0000000--------------------------------------------|

E||--------------------------------|
B||--------------------------------|
G||--------------------------------|
D||--------5-----------------------|
A||--------5-------5--------4------|
E||-333333-3-------5--------4------|
B||-----------3333-3---2222-2------|

Acoustic section~~~~~
verse 1
E||------------------------0------------------------------------0----------|
B||----3---3-------3---3-----2------------3---3-------3---3---2---2--------|
G||--0---0---0---0---0---0-----0--------0---0---0---0---0---0--------------|
D||------------------------------0----------------------------------0------|
A||-2----------2-------------------1--2-----------2-------------------4----|
E||------------------------------------------------------------------------|
B||------------------------------------------------------------------------|

verse 2
E||------------------------------------------------------------------------|
B||-----3---3-------3---3-------2---2-------2---2-------3---3-------5---5--|
G||---0---0---0---0---0---0---0---0---0---0---0---0---0---0---0---0---0---0|
D||------------------------------------------------------------------------|
A||-2-----------2-----------1-----------1-----------2-----------4----------|
E||------------------------------------------------------------------------|
B||------------------------------------------------------------------------|

E||----------------------------|
B||-----2---2-------2---2------|
G||---0---0---0---0---0---0----|
D||----------------------------|
A||-1-----------1--------------|
E||----------------------------|
B||----------------------------|

verse 3
E||--------------------------------------------------|
B||-----3---3-------2---0-------2---3-------2---2----|
G||---0---0---0---0---0---0---0---0---0---0---0---0--|
D||--------------------------------------------------|
A||-2-----------2-----------1-----------1------------|
E||--------------------------------------------------|
B||--------------------------------------------------|

E||-----3---3-------0---0-----|-----2---3------------------|
B||---0---0---0---0---0---0---|-----------------2---2------|
G||---------------------------|---0---0---0---0---0---0----|
D||---------------------------|----------------------------|
A||-2-----------2-------------|-4-----------1--------------|
E||---------------------------|----------------------------|
B||---------------------------|----------------------------|

verse 4
E||-----3---3-------2---2-------0---0--------------------|
B||-----------------------------------------2---2h3------|
G||---0---0---0---0---0---0---0---0---0---0---0----------|
D||-0----------------------------------------------------|
A||-------------4-----------2-----------1----------------|
E||------------------------------------------------------|
B||------------------------------------------------------|

verse 5
E||----------------------------------------|
B||-------7----7h8p7----------7----7h8p7---|
G||-7---7------------7--7---7------------7-|
D||---7------7------------8------8---------|
A||----------------------------------------|
E||----------------------------------------|
B||----------------------------------------|

E||--------------------------------------------|
B||--------7----7h8p7---------8------7h8-------|
G||--7---7------------7-----9---9--------9-----|
D||----9------9----------10--------10-------10-|
A||--------------------------------------------|
E||--------------------------------------------|
B||--------------------------------------------|

verse 6
     A          Gm         A          Gm
E||-----------------------------------------------|
B||--7-777-7777-5-555-5555-7-777-7777-5-555-5555--|
G||o-7-777-7777-6-666-6666-7-777-7777-6-666-6666-o|
D||--7-777-7777-5-555-5555-7-777-7777-5-555-5555--|
A||o---------------------------------------------o|
E||-----------------------------------------------|
B||-----------------------------------------------|

Acoustic solo
E||---------------|-1st-ending--------|-2nd-ending-------------------|
B||---------------|-------------------|----------14--14b-15b-17b-11--|
G||---------------|-9BU(11)-9BU(11)-9-|---9--11--12------------------|
D||-7-8-9-12-12-9-|-------------------|-7----12--14------------------|
A||---------------|-------------------|------------------------------|
E||---------------|-------------------|------------------------------|
B||---------------|-------------------|------------------------------|

E||---/10-7----------------------------------------------|
B||---------10-7-----10-7------------9BR--------14b------|
G||--------------9-7------9-7--------9BR-----------------|
D||---------------------------9-7-9------7---9-----------|
A||----------------------------------------8-------------|
E||------------------------------------------------------|
B||------------------------------------------------------|

the acoustic section ends here and the heavy
begins again
verse 5
both guitars
E||---------------------------------------------|
B||---------------------------------------------|
G||o-------------------------------------------o|
D||---------------------------------------------|
A||o-5--5-5-5---8-8--7-4---5--5-5-5---8-8--7-4-o|
E||--5--5-5-5---8-8--7-4---5--5-5-5---8-8--7-4--|
B||--3--3-3-3---6-6--5-2---3--3-3-3---6-6--5-2--|

verse 6
guitar 1 plays this whilst guitar 2
continues to play verse 5
E||-----------------------------------------------------------------------|
B||-----------------------------------------------------------------------|
G||-4--6--7--9--6--7--9--10-9/10------------------------------------------|
D||------------------------------9--11-12--1112--9--12--11-14--12-12--5/8-|
A||-2--4--5--7--4--5--7--9--7/9-------------------------------------------|
E||------------------------------7--9--10--9/10--7--10--9--12--10-10--3/6-|
B||-----------------------------------------------------------------------|

verse 7
E||-----------------------------------------------------------------|
B||-----------------------------------------------------------------|
G||-----------------------------------------------------------------|
D||-9------9---9--11-----11--11-12------12---12--14------17---17----|
A||-----------------------------------------------------------------|
E||-7-2----7---7--9-2----9---9--10-2----10---10--12-2----15---15----|
B||---0--0---0------0--0---0-------0--0----0--------0--0----0-------|

solo rhythm
guitar 2
E||---------------------------------------------------------------|
B||---------------------------------------------------------------|
G||---------------------------------------------------------------|
D||---------------------------------------------------------------|
A||---------------------------------------------------------------|
E||------7-5h7-----9-7h9------------------------------------------|
B||-0--0-------0-0--------0-0-0--0-2-3-0-3-5-0-5-7-0-7-8-7-5-3----|

solo 1
CKB
E||------------15-----19-17-15----------------------------|
B||----------17--16------------19-17-15-------------------|
G||--------16------17-------------------18-16-14----------|
D||------17--------------------------------------17-16-14-|
A||-16h19-------------------------------------------------|
E||-------------------------------------------------------|
B||-------------------------------------------------------|

E||------------------------|----------------------------------------|
B||------------------------|----------------------------------------|
G||------------------------|-----------------------9-11-12-11-11~~~-|
D||------------------------|---------------9-11-12------------------|
A||-17-16-14---------------|--------7-9-10--------------------------|
E||----------17-14-12-12---|-7-9-10---------------------------------|
B||------------------------|----------------------------------------|

E||---------------------------------------------|
B||-12------------------------------------------|
G||----11-11-12-12-9-9-9------------------------|
D||----------------------12-11-12--11h12p11-9---|
A||---------------------------------------------|
E||---------------------------------------------|
B||---------------------------------------------|

E||---------------------------------|
B||-10-12-8-10-7-8---7--------------|
G||----------------9---7-9-7-6------|
D||----------------------------9----|
A||---------------------------------|
E||---------------------------------|
B||---------------------------------|

Do each little section twice (except the last one).
E||-9-7-5-7-9-7-9-7-5-7-9-7-9-7-5-7-|-10-9-7-9-10-9-10-9-7-9-10-9-10-9-7-9-|
B||---------------------------------|--------------------------------------|
G||---------------------------------|--------------------------------------|
D||---------------------------------|--------------------------------------|
A||---------------------------------|--------------------------------------|
E||---------------------------------|--------------------------------------|
B||---------------------------------|--------------------------------------|

E||-12-10-9-10-12-10-12-10-9-10-12-10-12-10-9-10-|
B||----------------------------------------------|
G||----------------------------------------------|
D||----------------------------------------------|
A||----------------------------------------------|
E||----------------------------------------------|
B||----------------------------------------------|

E||-14-12-10-12-14-12-10-12--15-14-12-14-15-14-12-14-|
B||--------------------------------------------------|
G||--------------------------------------------------|
D||--------------------------------------------------|
A||--------------------------------------------------|
E||--------------------------------------------------|
B||--------------------------------------------------|

E||-19-------------------19~~~------------|
B||----19-20-17-19-15-17------------------|
G||---------------------------------------|
D||---------------------------------------|
A||---------------------------------------|
E||---------------------------------------|
B||---------------------------------------|

verse 8
Do 1st section 3 times and then the others once
E||-------------------------------|----------------------------------------|
B||-------------------------------|----------------------------------------|
G||-------------------------------|----------------------------------------|
D||-------------------------------|----------------------------------------|
A||-------------------------------|----------------------------------------|
E||-------------------------------|----------------------------------------|
B||-0-2-3-0-3-5-0-5-7-0-7-8-7-5-3-|-0-5-7-0-7-8-0-8-10-0-10-12-10-8-7------|

E||---------------------------------------------|
B||---------------------------------------------|
G||---------------------------------------------|
D||---------------------------------------------|
A||---------------------------------------------|
E||---------------------------------------------|
B||-0-8-10-0-10-12-0-12-14-0-14-15-14-12-0------|

verse 9
E||---------------------------------------------------------------------|
B||---------------------------------------------------------------------|
G||-16--14--12---11--16---14---12---9------7--14--18-18BR-16--16--------|
D||-------------------------------------4---------------------19BU(21)--|
A||-14--12--10---9---14---12---10---7-----------------------------------|
E||---------------------------------------------------------------------|
B||---------------------------------------------------------------------|

solo 2
MKH guitar 1 plays the solo rhythm instead
E||-10--------12--------14--------15--------|
B||-13BU(15)--15BU(17)--17BU(19)--18BU(20)--|
G||-----------------------------------------|
D||-----------------------------------------|
A||-----------------------------------------|
E||-----------------------------------------|
B||-----------------------------------------|

E||--------------------------------------------------|
B||-15-12-11-12-15-12-15-12-11-12-15-12-15-12-11-12--|
G||--------------------------------------------------|
D||--------------------------------------------------|
A||--------------------------------------------------|
E||--------------------------------------------------|
B||--------------------------------------------------|

E||--------------------------------------------------|
B||-14-12-11-12-14-12-14-12-11-12-14-12-14-12-11-12--|
G||--------------------------------------------------|
D||--------------------------------------------------|
A||--------------------------------------------------|
E||--------------------------------------------------|
B||--------------------------------------------------|

E||-14--------15--------17--------19-------|
B||-17BU(19)--18BU(20)--20BU(22)--22BU(24)-|
G||----------------------------------------|
D||----------------------------------------|
A||----------------------------------------|
E||----------------------------------------|
B||----------------------------------------|

E||--22-19-18-19-22-19-22-19-18-19-22-19-22-19-18-19--|
B||---------------------------------------------------|
G||---------------------------------------------------|
D||---------------------------------------------------|
A||---------------------------------------------------|
E||---------------------------------------------------|
B||---------------------------------------------------|

E||-21-19-18-19-21-19-21-19-18-19-21-19-21-19-18-19--19-----------|
B||--------------------------------------------------22BU(24)-----|
G||---------------------------------------------------------------|
D||---------------------------------------------------------------|
A||---------------------------------------------------------------|
E||---------------------------------------------------------------|
B||---------------------------------------------------------------|

verse 10
play this riff then play it again but change
the 12 to a 14, to 15, to 17 and then to 15
on the E string
(it makes it easier to tab)
E||-----------------------------------------------|
B||-----------------------------------------------|
G||-----------------------------------------------|
D||-----------------------------------------------|
A||-----------------------------------------------|
E||-----------------------------------------------|
B||-12-0-12-0-12-0-12-0-12-0-12-0-12-0-12-12-0----|

verse 11
E||--------------------------3------------5-----3-----------|
B||-3------2-----------0-3-0---3------------3-----3---------|
G||---4------4---4---0-----------4------------4-----4--4--3-|
D||-----4------4---4---------------5----4--------------4--2-|
A||----------------------------------------------------5--4-|
E||---------------------------------------------------------|
B||---------------------------------------------------------|

E||-----------------------|
B||----------8--7---------|
G||--7--6----7--7---6-----|
D||--9----9--9--7---4-----|
A||--9--------------4-----|
E||-----------------------|
B||-----------------------|

song in order:
intro
verse 1
verse 2
verse 3
chorus
verse 1
verse 2
verse 3
chorus
verse 4
acoustic section~~~~~
verse 1
verse 2
verse 3
verse 4
verse 5
verse 6
acoustic solo
verse 3
verse 4
verse 5
back to heavy section~~~~~
verse 5
verse 6
verse 7
solo 1 CKB
verse 8
verse 7
verse 9
solo 2 MKH
verse 10
verse 11
chorus
intro


¬¬¬¬¬¬¬¬¬¬¬¬
bonus songs
¬¬¬¬¬¬¬¬¬¬¬¬

~~~~~~~~~~~~~~~~~~~~~~~~~~~~~~~~~
12.Poison The Knife Or The Noose
~~~~~~~~~~~~~~~~~~~~~~~~~~~~~~~~~

Intro
guitar 1
E||---------------------------------|-----------------------------|------|
B||---------------------------------|-----------------------------|------|
G||---------------------------------|-------------------------4---|------|
D||---9-7-5-4-5-4---7-------4---5---|---9-7-5-4-5-4---4-5-4-----7-|------|
A||-7-------------5---5-3-5---5---7-|-7-------------7-------7-----|-2~~~-|
E||---------------------------------|-----------------------------|-0~~~-|

Intro Harmony
guitar 2
E||---------------------------------|-----------------------------|------|
B||---------------------------------|-----------------------------|------|
G||---7-5-4---4-----5-----------4---|---7-5-4---4-------4-----7-5-|-9~~~-|
D||-5-------7---7-4---4---4-7-5---5-|-5-------7---7-4-7---7-4-----|------|
A||---------------------7-----------|-----------------------------|------|
E||---------------------------------|-----------------------------|------|

Verse
        PM--   PM------   PM--   PM  
E||---------------------------------------|
B||---------------------------------------|
G||---------------------------------------|
D||--2-------2----------2------2----3-0-3-|
A||--2-------2----------2------2----3-0-3-|
E||-----0000---00000000---0000---00-------|
      
      PM--   PM------  
E||------------------------------------------|
B||------------------------------------------|
G||------------------------------------------|
D||-2------2--------------------4---5--------|
A||-2------2----------3322------2-0-3--------|
E||---0000---00000000-----5320---------------|

E||----------------------|
B||-4h5p4----------------|
G||-------7-5-4----------|
D||------------7-5-4---5-|
A||----------------2-0-3-|
E||----------------------|

Pre Chorus
both guitars
E||---------------------------------------------|
B||---------------------------------------------|
G||---------------------------------------------|
D||-4------4--------------4------4--------------|
A||-2-2222-2-2222-2h3p2p0-2-2222-2-2222-2h3p2p0-|
E||---------------------------------------------|

E||--------------------------------------------|
B||--------------------------------------------|
G||--------------------------------------------|
D||-5------5--------------9------9-7-----------|
A||-3-3333-3-3333-3h5p3p2-7-7777-7-5-555555----|
E||--------------------------------------------|

Chorus (Heavy Wah)
guitar 1
E||-------------------------------------------------------|----------|
B||------------------------12-1212-1213-10-1012-8-810-----|----------|
G||-9999-911-12-1212101210--------------------------------|--9v~~----|
D||-------------------------------------------------------|----------|
A||-------------------------------------------------------|----------|
E||-------------------------------------------------------|----------|

guitar 2
E||-----------------|-1st-ending------|-2nd-ending------|
B||-----------------|-----------------|-----------------|
G||-----------------|-----------------|-----------------|
D||-2~~-4--5~~--7~~-|-----------------|-------------2~~-|
A||-2~~-4--5~~--7~~-|-------2-3-2-----|-5-----4-----2~~-|
E||-0~~-2--3~~--5~~-|-3-2-3-------3-2-|---7-7---5-5-0~~-|

Heavy riff
both guitars
      PM----                      PM----  
E||--------------------------------------------------------|
B||--------------------------------------------------------|
G||--------------------------------------------------------|
D||-9--------------------------10--------------------------|
A||-7--------9p7h9p7h10p7h10p7-8---------9p7h9p7h10p7h10p7-|
E||---000000----------------------000000-------------------|
                
      PM----
E||----------------------------|
B||----------------------------|
G||----------------------------|
D||-7--------------------------|
A||-5--------9p7h9p7h10p7h10p7-|
E||---000000-------------------|

    PM---     PM---
E||-------------------|
B||-------------------|
G||-------------------|
D||-------9-7---------|
A||-3-2-3-7-5-3-2-0---|
E||-------------------|

Heavy Bit End
    PM---     PM-----------------
E||----------------------------------------|
B||----------------------------------------|
G||----------------------------------------|
D||-------9-7------------------------------|
A||-3-2-3-7-5-3-2---5-3-2---2--------------|
E||---------------3-------3---3-2----------|

Solo 1
CKB guitar 1
E||----------------------------------------------------------|
B||------------------13-12-----------------------------------|
G||-/8--9--11--12~~--------14-12-11--------------------------|
D||---------------------------------14-12-10-----------------|
A||------------------------------------------14-12-10--------|
E||---------------------------------------------------14-12--|

there is a open E (0) inbetween all these notes
harmony:
E||-7-5-7-8-7-5-7-8-10-8-7-8-10-12-10-8-|

the next box has no harmony
E||-3-2-3-5-3-2-3-5-7-5-3-5-7-8-7-5-|-15-14-12-17-15-14-19-17-15-20-19-17-|
B||---------------------------------|-------------------------------------|
G||---------------------------------|-------------------------------------|
D||---------------------------------|-------------------------------------|
A||---------------------------------|-------------------------------------|
E||---------------------------------|-------------------------------------|

E||-22BU(24)~~~-|
B||-------------|
G||-------------|
D||-------------|
A||-------------|
E||-------------|

solo 2
MKH guitar 2
E||-19~~WBL-----------15h19p15-----|
B||-----------------17--------17---|
G||---------------16------------16-|
D||-------------17-----------------|
A||--------------------------------|
E||--------------------------------|

E||-------14h17p14-----------12h15p12-----------10h14p10---------|
B||-----15--------15-------13--------13-------12--------12-------|
G||---14------------14---12------------12---11------------11-----|
D||-16-----------------14-----------------12----------------12---|
A||--------------------------------------------------------------|
E||--------------------------------------------------------------|

E||----------------------------------------------------------------------|
B||-17151317151317151715131715131715-19171519171519171917151917151917----|
G||----------------------------------------------------------------------|
D||----------------------------------------------------------------------|
A||----------------------------------------------------------------------|
E||----------------------------------------------------------------------|

E||------------------1715141715141715-1917151917151917-2019172019172019-|
B||-2019172019172019----------------------------------------------------|
G||---------------------------------------------------------------------|
D||---------------------------------------------------------------------|
A||---------------------------------------------------------------------|
E||---------------------------------------------------------------------|

E||-22BU(24)~~\-|
B||-------------|
G||-------------|
D||-------------|
A||-------------|
E||-------------|

heavy riff part 2
guitar 1
E||---------------|
B||---------------|
G||---------------|
D||-9~---10~---7~-|
A||-7~----8~---5~-|
E||---------------|

    PM---     PM-----------------
E||----------------------------------------|
B||----------------------------------------|
G||----------------------------------------|
D||-------9-7------------------------------|
A||-3-2-3-7-5-3-2---5-3-2---2--------------|
E||---------------3-------3---3-2----------|

song in order:
intro
verse
pre-chorus
chorus
heavy riff
heavy riff 2
verse
pre-chorus
chorus
heavy riff


~~~~~~~~~~~~~~~~~~~
13.Upon The Shores
~~~~~~~~~~~~~~~~~~~

intro
E|-------------------------------------------------------------------------|
B|-------------------------------------------------------------------------|
G|-------------------------------------------------------------------------|
D|-0h2------0h2------0h2----2h4------4p2---5-4-2--0h2------0h2------0h2----|
A|-0h2------0h2------0h2----3~~-3333-3~~-3-3-3-3--0h2------0h2------0h2----|
E|-----0000-----0000-----00---------------------------0000-----0000-----00-|

E|------------------------|
B|------------------------|
G|------------------------|
D|-2h4------4p2-----------|
A|-3~~-3333-3~~-------5PH-|
E|--------------3-2-0-----|


verse
E|-------------------------------------------------------------------------|
B|-------------------------------------------------------------------------|
G|-------------------------------------------------------------------------|
D|-----------------------------------0h2--------545-9-7-----------------0h2|
A|-2~-----5-----------2--------------0h2--------323-7-5-----------------0h2|
E|-0~-3-2---2-3-2-5-3-0-000000000000-----000000---------00-000000000000----|

E|---------------------------|
B|---------------------------|
G|---------------------------|
D|---------------------------|
A|-----------5-----------2---|
E|000000-3-2---2-3-2-5-3-0---|

E|------------------------------------|
B|------------------------------------|
G|------------------------------------|
D|--------------0h2--------545-9-7----|
A|--------------0h2--------323-7-5----|
E|-000000000000-----000000------------|


pre chorus
E|-----------------------------------------------------------------------|
B|-----------------------------------------------------------------------|
G|--------------------------------------------------------------4--------|
D|-----4---2------4---2------4---2h4------5---4------5---4--4-5---5-4-5--|
A|-2-2---2----2-2---2----2-2---2------3-3---3----3-3---3-----------------|
E|-----------------------------------------------------------------------|

E|-----------------------------------------------------------------------|
B|-----------------------------------------------------------------------|
G|------------------------------------------------------------4-5-4---4--|
D|-----4---2------4---2------4---2h4------5---4------5---7--7-------7----|
A|-2-2---2----2-2---2----2-2---2------3-3---3----3-3---3-----------------|
E|-----------------------------------------------------------------------|

E|---------|
B|---------|
G|---------|
D|---------|
A|-0-2-----|
E|-----3-2-|
                     

chorus
guitar 1
E|------------------------------------------------------------------------|
B|-12-10------12-10----10-12--15-17-13~-1313-13h5p13-12-13~-12-10---------|
G|-------12~--------12--------------------------------------------12------|
D|------------------------------------------------------------------------|
A|------------------------------------------------------------------------|
E|------------------------------------------------------------------------|

E|-------------------------|
B|-------------------------|
G|-------------------------|
D|-------------------------|
A|-5-----5-----5-----5-----|
E|---3-2---3-2---3-2---3-2-|

guitar 2
E|------------------------------------|
B|------------------------------------|
G|------------------------------------|
D|-2~------------5~---7~--------------|
A|-2~------------3~---7~--------------|
E|-0~------------3~---5~--------------|

E|--------------------|-------------------------|
B|--------------------|-------------------------|
G|--------------------|-------------------------|
D|-2~------------5~---|-------------------------|
A|-2~------------3~---|-5-----5-----5-----5-----|
E|-0~------------3~---|---3-2---3-2---3-2---3-2-|


pre solo
E|-----------------------------------------------------------|
B|-----------------------------------------------------------|
G|-------------------------0---------------------------------|
D|-----------------------4----------------------------0------|
A|---4----4----4----4-----------4----4----4----4-------------|
E|-0-2--0-2--0-2--0-2--2------0-2--0-2--0-2--0-2--2-3--------|

E|-------------------------------------------------------------------------|
B|-------------------------------------------------------------------------|
G|-------------------------0-----------------------------------------------|
D|-----------------------4-------------------------------------------------|
A|---4----4----4----4-----------4----4----4----4--5-7-------4----4----4----|
E|-0-2--0-2--0-2--0-2--2------0-2--0-2--0-2--0-2--3-5-----0-2--0-2--0-2--0-|

E|-----------|
B|-----------|
G|------0----|
D|----4------|
A|4----------|
E|2--2-------|

E|----------------------------------|
B|----------------------------------|
G|----------------------------------|
D|---------------------------0------|
A|-----4----4----4----4-------------|
E|---0-2--0-2--0-2--0-2--2-3--------|

solo 1 CKB
E|-----------------------------------------------------------------|
B|--------------------------------------------------------17-16-13-|
G|-----------------------------------------------16-15-12----------|
D|--------------------------------------14-13-10-------------------|
A|-----------------------------15-14-12----------------------------|
E|--7~~~--7-9-10-14~--15-14-12-------------------------------------|

      TR--------------
E|-------------------------------------------------------|
B|---12---12-14-15-/19----20-19-17-19-17----17-----------|
G|--------------------------------------20----20-17-16~~-|
D|-------------------------------------------------------|
A|-------------------------------------------------------|
E|-------------------------------------------------------|

E|--20-19-17-20-19-17-------------------------------------|
B|--------------------20-19-17-20-19-17-------------------|
G|--------------------------------------19-17-16-19-17-16-|
D|--------------------------------------------------------|
A|--------------------------------------------------------|
E|--------------------------------------------------------|

E|-----------------------------------------------------------|
B|-----------------------------------------------------------|
G|-----------------------------------------------------------|
D|-19-17-16-19-17-16-----------------------------------------|
A|-------------------19-17-15-19-17-15-----------------------|
E|---------------------------------------15--14--12~--12\11~-|

each of these notes are
played with an open E (0) between them
E|-5-3-7-5-8-7-12-11-19-17-20-19-22-20-|-22BU(24)~-|
B|-------------------------------------|-----------|
G|-------------------------------------|-----------|
D|-------------------------------------|-----------|
A|-------------------------------------|-----------|
E|-------------------------------------|-----------|


solo 2 MKH 
(this solo is done with a wah wah pedal)
E|-----------------|-first-ending----|-second-ending-----------|
B|-7-0-0-0-7-0-0-0-|-7-0-8-0-7-0-0-0-|-8-7-5-------------------|
G|-----------------|-----------------|-------7-5-4-------------|
D|-----------------|-----------------|-------------7-5-4-------|
A|-----------------|-----------------|-------------------7-5-4-|
E|-----------------|-----------------|-------------------------|

E|-----------------------|----------------------------------------|
B|-----------------------|----------------------------------------|
G|--4-BU(5)---(5)-(5)~~~-|-4h5p4-2h4p2-0h2p0----------------------|
D|-----------------------|-------------------4h5p4-2h4p2----------|
A|-----------------------|-------------------------------4h5p4-2~-|
E|-----------------------|----------------------------------------|

     TR------------------------
E|------------------------------|-------------------------------------|
B|------------------------------|-------------------------------------|
G|---4--6--7--9--11--12--14--16-|-17-16-14----14-16-17-16-14----14-16-|
D|------------------------------|----------16----------------16-------|
A|------------------------------|-------------------------------------|
E|------------------------------|-------------------------------------|

                           TR-----------------------------------
E|-------------16-17-19~~-22-24-21-22-19-21-17-19-15-17-14-15-12----------|
B|----16-17-19---------------------------------------------------11BU(12)-|
G|-17---------------------------------------------------------------------|
D|------------------------------------------------------------------------|
A|------------------------------------------------------------------------|
E|------------------------------------------------------------------------|

E|-------------------12h14p12h14p12h14-14h15p14h15p14h15-|
B|-12h14p12h14p12h14-------------------------------------|
G|-------------------------------------------------------|
D|-------------------------------------------------------|
A|-------------------------------------------------------|
E|-------------------------------------------------------|

E|-15h17p15h17p15h17-17h19p17h19p17h19-|
B|-------------------------------------|
G|-------------------------------------|
D|-------------------------------------|
A|-------------------------------------|
E|-------------------------------------|

     TR--------------------
E|----------------------------------------------------|
B|--19-15-17-14-15-12-14-10-11BU(12)BR(11)---BU(12)~~-|
G|----------------------------------------------------|
D|----------------------------------------------------|
A|----------------------------------------------------|
E|----------------------------------------------------|

song in order:
intro/outro x 2
verse x 1
pre chorus x 2
chorus x 2
intro x 1
verse x 1
pre chorus x 2
chorus x 4
pre solo x 3
Solo 1 CKB
pre solo x 2
Solo 2 MKH (wah wah pedal)
pre chorus x 2
chorus x 4
intro/outro x 1


~~~~~~~~~~~~~~~~~~~~~~~~~~~~
14.My Dog My Truck My Woman
~~~~~~~~~~~~~~~~~~~~~~~~~~~~

Trivium/Dirty Dixies
this is
Paolo Gregoletto's, 
Corey Beaulieu's &
Travis Smith's
side project that was made during the recording of 'Shogun'

intro
E||-----------------|----------------------------------|
B||-----------------|----------------------------------|
G||-----------------|----------------------------------|
D||--2-0------------|------------------2--2-2-2-2-2-2--|
A||------4-2--------|--2--2-2-2-2-2-2--0--0-0-0-0-0-0--|
E||----------5-4-2--|--0--0-0-0-0-0-0------------------|

Verse Riff
E||-------------------------------------------------------------------|
B||-------------------------------------------------------------------|
G||-------------------------------------------------------------------|
D||------------------2--2-2-2-2-2-2-------------------2--2-2-2-2-2-2--|
A||--2--2-2-2-2-2-2--0--0-0-0-0-0-0---2--2-2-2-2-2-2--0--0-0-0-0-0-0--|
E||--0--0-0-0-0-0-0-------------------0--0-0-0-0-0-0------------------|

E||-------------------------------------------------------------------|
B||-------------------------------------------------------------------|
G||-------------------------------------------------------------------|
D||------------------2--2-2-2-2-2-2--4-4-4-4-4-4-4-4-4-4-4-4-4-4-4-4--|
A||--2--2-2-2-2-2-2--0--0-0-0-0-0-0--2-2-2-2-2-2-2-2-2-2-2-2-2-2-2-2--|
E||--0--0-0-0-0-0-0---------------------------------------------------|

Pre Chorus
E||-------------11---------------8--------------------------55555---|
B||--------3/12-------------3/10------------------------3/7---------|
G||-----------------------------------------------------------------|
D||--2--------------2----------------2------------------------------|
A||--0--2-----------0---2------------0--2--2-2-2-2-2-2--------------|
E||-----0---------------0---------------0--0-0-0-0-0-0--------------|

Chorus    
E||--2-2-2-2-2-2-2-2-2-2-2-2-2-2-2-2-----------------------------------|
B||--3-3-3-3-3-3-3-3-3-3-3-3-3-3-3-3--2-2-2-2-2-2-2-2-2-2-2-2-2-2-2-2--|
G||--2-2-2-2-2-2-2-2-2-2-2-2-2-2-2-2--2-2-2-2-2-2-2-2-2-2-2-2-2-2-2-2--|
D||-----------------------------------2-2-2-2-2-2-2-2-2-2-2-2-2-2-2-2--|
A||-----------------------------------0-0-0-0-0-0-0-0-0-0-0-0-0-0-0-0--|
E||--------------------------------------------------------------------|

Solo
E||-15p14p12----------14-14BU(15)(14)12----15p14p12----------------------|
B||----------15p14p12-------------------14----------15p14p12--9-9-7-5----|
G||----------------------------------------------------------------------|
D||----------------------------------------------------------------------|
A||----------------------------------------------------------------------|
E||----------------------------------------------------------------------|

E||-----------------------------------------------------------------------|
B||------------------------------------------------------------12~-121212-|
G||----9----9----10b(11)b(10)----9--------------------9~-11-13------------|
D||-11---11---11--------------11---11--11-10-9~-11-13---------------------|
A||-----------------------------------------------------------------------|
E||-----------------------------------------------------------------------|

E||-----------14b(15)14b(15)----14---------------|
B||--14-14-15----------------15----15-14-12-14~--|
G||----------------------------------------------|
D||----------------------------------------------|
A||----------------------------------------------|
E||----------------------------------------------|

On second chorus the D chord goes
E||--2-2-2-2-2-2-2-2-3-3-3-3-3-3-3-3--|
B||--3-3-3-3-3-3-3-3-3-3-3-3-3-3-3-3--|
G||--2-2-2-2-2-2-2-2-2-2-2-2-2-2-2-2--|
D||-----------------------------------|
A||-----------------------------------|
E||-----------------------------------|

Pre Chorus again
then
E||------55555--|
B||--3/7--------|
G||-------------|
D||-------------|
A||-------------|
E||-------------|

thats all guys, please rate....its took a bloody long time ;D
comments
print report bad tab
5 comments total. Showing first comments.
+1 reply
Lukige wrote on February 25 2010, 11:19 am

Well done mate, you can tell you put a lot of effort into this. It's just a damn shame you used some crap tabs like the one for Shogun and The Calamity

+1 reply
Soulmaggot wrote on February 25 2010, 04:15 pm

Awesome bro!! =) Good tabs =)

-1 reply
Chaz1987 wrote on February 25 2010, 05:46 pm

the taps in the like callisto to a star in heaven solo are right. but they pull off to the open instead of the 3. at least they did when i saw them in concert

I want to post or [tab]
guest
You may want to rate the tab now too:
select rating
Please do not post tabs as comments. Select "correction" instead!