Oops, an error
Loading. Please wait.

Vengeance Falls Tab

ver1
ver1

Album

Whole song

Interactive

More versions @911Tabs.com
10,008 views 27 this week
4 commentsread comments
1 2 3 4 5
excellent!
x 16
Autoscroll
+/-
esc
set tempo
stop
Contributor
Difficulty
Tuning
intermediate
C# G# C# F# A# D#
Hey! There's an official Ultimate Guitar app which is ideal
for learning songs when you're away from computer. Get the app
WARNING: You are trying to view
                                    content from Ultimate-Guitar.com
                                    in an unauthorized application,
                                    which is prohibited.

                                    Please use an official Ultimate
                                    Guitar Tabs application for iPhone,
                                    iPad or Android to access legitimate
                                    chords, guitar, bass, and drum tabs
                                    from Ultimate-Guitar.com database.

                                    Type "ultimate guitar tabs" in Apple
                                    App Store's or Android Market's
                                    search to find the application.
Tabbed by: Connor Ford

Band:  Trivium
Album: Vengeance Falls (2013)

Standard edition track listing:

01)     Brave This Storm
02)     Vengeance Falls
03)     Strife
04)     No Way To Heal
05)     To Believe
06)     At The End Of This War
07)     Through Blood And Dirt And Bone
08)     Villainy Thrives
09)     Incineration: The Broken World
10)     Wake (The End Is Nigh)

I will add the bonus tracks at a later date!

Album release date: 15/10/13

Tab publish date: 15/10/13

Efficient tabbing! :D



Tuning: Drop C# (C#, G#, C#, F#, A#, D#)
(Tune all strings down half a step then drop tune)



If you're fans of Trivium's early stuff, be sure to check out Shogun
and In Waves on my contributions!

Please rate, comment, correct, anything that will help :)



################################################################################
#This is Trivium's Vengeance Falls 2013-10-15                                  #
#                                                                              #
#I DO NOT OWN THIS, ALL RIGHTS BELONG TO TRIVIUM ALONG WITH ROADRUNNER RECORDS #
#                                                                              #
#Again, PLEASE RATE!!!                                                         #
################################################################################



Hammer on:        h
Pull off:         p
Slide up:         /
Slide down:       \
Bend up:          BU(?)
Tapped note:      T
Vibrato:          ~~~
Pinch Harmonic:   PH
Natural Harmonic: NH
Dive Bomb:        DB
After Muting:     M
Pick slide:       X\\\ ('\' indicated duration)

Guitar 1:        Matt Heafy
Guitar 2:        Corey Beaulieu
Guitar 3:        Corey Beaulieu (Additional harmonies)







##############################################################################################
##############################################################################################
#BRAVE THIS STORM#############################################################################
##############################################################################################
##############################################################################################





_________________________________________________________________________

Intro
Both guitars
|------|
|------|
|------|
|-X\\\-|
|-X\\\-|
|-X\\\-|

Guitar 1
|-----------------------------------------------------------------|
|-----------------------------------------------------------------|
|-----------------------------------------------------------------|
|-0-M-------------------------------------------------------------|
|-0-M-------------------------------------------------------------|
|-0-M-------------------------------------------------------------|
|
|Guitar 2
|-----------------------------------------------------------------|
|-----------------------------------------------------------------|
|-----------------------------------------------------------------|
|-----------------------------------------------------------------|
|-----------------------------------------------------------------|
|-0-0-0-0-0-0-0-0-0-0-0-0-0-0-0-0-0-0-0-0-0-0-0-0-0-0-0-0-0-0-0-0-|

Guitar 1
|-----------------------------------------------------------------|
|-----------------------------------------------------------------|
|-----------------------------------------------------------------|
|-----------------------------------------------------------------|
|-----------------------------------------------5h8p5p0-----------|
|-------------------------------------------------------5~~~~~~~~-|
|
|Guitar 2
|-----------------------------------------------------------------|
|-----------------------------------------------------------------|
|-----------------------------------------------------------------|
|-----------------------------------------------------------------|
|-----------------------------------------------5h8p5p0-----------|
|-0-0-0-0-0-0-0-0-0-0-0-0-0-0-0-0-0-0-0-0-0-0-0---------5~~~~~~~~-|

Both guitars
|-----------------------------------------------------------------|
|-----------------------------------------------------------------|
|-----------------------------------------------------------------|
|-----------------------------------------------------------------|
|-0---------------------------------------------------------------|
|-0---0-0-0-0-0-0-0-0-0-0-0-0-0-0-0-0-0-0-0-0-0-0-0-0-0-0-0-0-0-0-|

|-----------------------------------------------------------------|
|-----------------------------------------------------------------|
|-----------------------------------------------------------------|
|-----------------------------------------------------------------|
|-----------------------------------------------5h8p5p0-----------|
|-0-0-0-0-0-0-0-0-0-0-0-0-0-0-0-0-0-0-0-0-0-0-0---------5~~~~~~~~-|


_________________________________________________________________________


The drums then kick in and both guitars continue playing the riff below

Verse 1 (Chugging)
Both guitars
|-----------------------------------------------------------------|
|-----------------------------------------------------------------|
|-----------------------------------------------------------------|
|-----------------------------------------------------------------|
|-0---------------------------------------------------------------|
|-0---0-0-0-0-0-0-0-0-0-0-0-0-0-0-0-0-0-0-0-0-0-0-0-0-0-0-0-0-0-0-|

|-----------------------------------------------------------------|
|-----------------------------------------------------------------|
|-----------------------------------------------------------------|
|-----------------------------------------------------------------|
|-----------------------------------------------5h8p5p0-----------|
|-0-0-0-0-0-0-0-0-0-0-0-0-0-0-0-0-0-0-0-0-0-0-0---------5~~~~~~~~-|

|-----------------------------------------------------------------|
|-----------------------------------------------------------------|
|-----------------------------------------------------------------|
|-----------------------------------------------------------------|
|-0---------------------------------------------------------------|
|-0---0-0-0-0-0-0-0-0-0-0-0-0-0-0-0-0-0-0-0-0-0-0-0-0-0-0-0-0-0-0-|

Guitar 1
|-----------------------------------------------------------------|
|-----------------------------------------------------------------|
|-------------------------------------------------6----BU---(7)---|
|-----------------------------------------------------------------|
|-------------------------------------------------4----BU---(5)---|
|-0-0-0-0-0-0-0-0-0-0-0-0-0-0-0-0-0-0-0-0-0-0-0-0-----------------|
|
|Guitar 2
|-----------------------------------------------------------------|
|-----------------------------------------------------------------|
|-------------------------------------------------9----BU--(10)---|
|-----------------------------------------------------------------|
|-------------------------------------------------7----BU---(8)---|
|-0-0-0-0-0-0-0-0-0-0-0-0-0-0-0-0-0-0-0-0-0-0-0-0-----------------|


_________________________________________________________________________


Root Verse
Both guitars
|-------------------------------------------------|
|-------------------------------------------------|
|-------------------------------------------------|
|-------------------------------------------------|
|-------------------------------------------------|
|-0--0--0--2BU(3)--2BU(3)--0--0-0-0---0-0-0-0-0---|

|-------------------------------------------------|
|-------------------------------------------------|
|-------------------------------------------------|
|-------------------------------------------------|
|-------------------------------------0---2---3---|
|-0--0--0--2BU(3)--2BU(3)--0--0-0-0---0---2---3---|

|-------------------------------------------------|
|-------------------------------------------------|
|-------------------------------------------------|
|-------------------------------------------------|
|-------------------------------------------------|
|-3--3--3--5BU(7)--5BU(7)--3--3-3-3---3-3-3-3-3---|

|-------------------------------------------------|
|-------------------------------------------------|
|-------------------------------------------------|
|-------------------------------------------------|
|-------------------------------------6---5---3---|
|-3--3--3--5BU(7)--5BU(7)--3--3-3-3---6---5---3---|


_________________________________________________________________________


Main Verse
Both guitars
|------------------------------------------------------------------------|
|------------------------------------------------------------------------|
|------------------------------------------------------------------------|
|------------------------------------------------------------------------|
|---------------------------------------------------------------0--2--3--|
|-0--0--0--2BU(3)--000-0-0---2BU(3)--0--0--0--2BU(3)--000-0-0---0--2--3--|

|------------------------------------------------------------------------|
|------------------------------------------------------------------------|
|------------------------------------------------------------------------|
|------------------------------------------------------------------------|
|---------------------------------------------------------------6--5--3--|
|-3--3--3--5BU(7)--333-3-3---5BU(7)--3--3--3--5BU(7)--333-3-3---6--5--3--|

Guitar 1
|------------------------------------------------------------------------|
|------------------------------------------------------------------------|
|------------------------------------------------------------------------|
|------------------------------------------------------------------------|
|----------------------------333-555----------------------------0--2--3--|
|-0--0--0--2BU(3)--000-0-000---------0--0--0--2BU(3)--000-0-000-0--2--3--|
|
|Guitar 2
|------------------------------------------------------------------------|
|------------------------------------------------------------------------|
|----------------------------555-777-------------------------------------|
|------------------------------------------------------------------------|
|---------------------------------------------------------------0--2--3--|
|-0--0--0--2BU(3)--000-0-000---------0--0--0--2BU(3)--000-0-000-0--2--3--|

Guitar 1
|------------------------------------------------------------------------|
|------------------------------------------------------------------------|
|------------------------------------------------------------------------|
|------------------------------------------------------------------------|
|----------------------------666-888----------------------------6--5--3--|
|-3--3--3--5BU(7)--333-3-333---------3--3--3--5BU(7)--333-3-333-6--5--3--|
|
|Guitar 2
|------------------------------------------------------------------------|
|--------------------------------666-------------------------------------|
|----------------------------888-----------------------------------------|
|------------------------------------------------------------------------|
|---------------------------------------------------------------6--5--3--|
|-3--3--3--5BU(7)--333-3-333---------3--3--3--5BU(7)--333-3-333-6--5--3--|


_________________________________________________________________________


Pre Chorus
Guitar 1
|---------------------------------------------------------------------------|
|---------------------------------------------------------------------------|
|---------------------------------------------------------------------------|
|-0-------------------------------------------------------------------------|
|-0-------------------------------------------------------5h8p5p0-----------|
|-0---------------------------------------------------------------5~~~~~~~~-|
|
|Guitar 2
|---------------------------------------------------------------------------|
|---------------------------------------------------------------------------|
|---------------------------------------------------------------------------|
|---------------------------------------------------------------------------|
|-----5-----------4-----7-----8-----4-----5---------------5h8p5p0-----------|
|-0-0---0-0-8-0-0---0-0---0-0---0-0---0-0---0-0-0-0-0-0-0---------5~~~~~~~~-|

Both Guitars
|------------------------------------------------------------------|
|------------------------------------------------------------------|
|------------------------------------------------------------------|
|------------------------------------------------------------------|
|-----5-----------4-----7-----8-----4-----5------------------------|
|-0-0---0-0-8-0-0---0-0---0-0---0-0---0-0---0-0-0-000000000---0000-|


_________________________________________________________________________


Chorus
Guitar 1
|------------------------------------------|
|------------------------------------------|
|------------------------------------------|
|-0----------------------------------------|
|-0----------------------------------------|
|-0----------------------------------------|
|
|Guitar 2
|------------------------------------------|
|---------------------10------8------------|
|-7777-10-7777-9-7777----7777---7777-10~~~-|
|------------------------------------------|
|------------------------------------------|
|------------------------------------------|

Guitar 1
|-------------------------------------|
|-------------------------------------|
|-------------------------------------|
|-3-----------------------------------|
|-3-----------------------------------|
|-3-----------------------------------|
|
|Guitar 2
|-------------------------------------|
|------8------6------10---8---6---5h6-|
|-5555---5555---5555----5---5---5-----|
|-------------------------------------|
|-------------------------------------|
|-------------------------------------|

Guitar 1
|---------------------------------------|
|---------------------------------------|
|-2-------------------------------------|
|-2-------------------------------------|
|-0-------------------------------------|
|---------------------------------------|
|
|Guitar 2
|--------------------------------------|
|--------------------------------------|
|------9------9------7------7------7h9-|
|-7777---7777---7777---7777---7777-----|
|--------------------------------------|
|--------------------------------------|

Guitar 1
|----------------------------------------|
|----------------------------------------|
|---------------------10-9-7-------------|
|-5--------------------------10-8-7-8-10-|
|-5--------------------------------------|
|-5--------------------------------------|
|
|Guitar 2
|--------------------------------------|
|------10------8------10-8-6-----------|
|-0000----0000---0000--------9-7-6-7-9-|
|--------------------------------------|
|--------------------------------------|
|--------------------------------------|


_________________________________________________________________________


Solo 1 (CKB)
Guitar 1 (Rhythm)
|-------------------------------------------------|
|-------------------------------------------------|
|-------------------------------------------------|
|-------------------------------------------------|
|-------------------------------------------------|
|-0--0--0--2BU(3)--2BU(3)--0--0-0-0---0-0-0-0-0---|

|-------------------------------------------------|
|-------------------------------------------------|
|-------------------------------------------------|
|-------------------------------------------------|
|-------------------------------------0---2---3---|
|-0--0--0--2BU(3)--2BU(3)--0--0-0-0---0---2---3---|


|-------------------------------------------------|
|-------------------------------------------------|
|-------------------------------------------------|
|-------------------------------------------------|
|-------------------------------------------------|
|-3--3--3--5BU(7)--5BU(7)--3--3-3-3---3-3-3-3-3---|

|-------------------------------------------------|
|-------------------------------------------------|
|-------------------------------------------------|
|-------------------------------------------------|
|-------------------------------------6---5---3---|
|-3--3--3--5BU(7)--5BU(7)--3--3-3-3---6---5---3---|

Guitar 2 (Lead)
|-12p9--9-12p9--9-15p12--12-15p12--12-18p15--15-18p15--15-21p18--18-21p18--18-|
|-----11------11-------14--------14--------17--------17--------20--------20---|
|-----------------------------------------------------------------------------|
|-----------------------------------------------------------------------------|
|-----------------------------------------------------------------------------|
|-----------------------------------------------------------------------------|

(Fast pick tapping)
   T     T     T     T     T     T     T     T     T     T     T     T
|-22p21-22p21-22p21-22p21-22p18-22p18-22p18-22p18-22p17-22p17-22p17-22p17-|
|-------------------------------------------------------------------------|
|-------------------------------------------------------------------------|
|-------------------------------------------------------------------------|
|-------------------------------------------------------------------------|
|-------------------------------------------------------------------------|

   T     T     T     T     T     T     T     T     T     T     T     T
|-22p15-22p15-22p15-22p15-------------------------------------------------|
|-------------------------20p15-20p15-20p15-20p15-20p14-20p14-20p14-20p14-|
|-------------------------------------------------------------------------|
|-------------------------------------------------------------------------|
|-------------------------------------------------------------------------|
|-------------------------------------------------------------------------|

   T     T     T     T
|----------------------------------|
|-20p15-20p15-20p15-20p15\10~~~~~~-|
|----------------------------------|
|----------------------------------|
|----------------------------------|
|----------------------------------|

(Standard middle finger tapping)
   T      T      T      T      T       T       T       T
|-------------------------------------------------------------|
|-------------------------------------------------------------|
|-10p9p7-10p9p7-10p9p7-10p9p7-12p10p9-12p10p9-12p10p9-12p10p9-|
|-------------------------------------------------------------|
|-------------------------------------------------------------|
|-------------------------------------------------------------|

   T        T        T        T        T        T        T        T
|-------------------------------------------------------------------------|
|-------------------------------------------------------------------------|
|-14p12p10-14p12p10-14p12p10-14p12p10-15p14p12-15p14p12-15p14p12-15p14p12-|
|-------------------------------------------------------------------------|
|-------------------------------------------------------------------------|
|-------------------------------------------------------------------------|

                                                    NH
|-----------------------------------------------------------|
|-----------------------------------------------------------|
|-14-10--10-14-10--10-12-9--9-12-9--9-10p9p7--9p7p0-5DB-----|
|------12--------12-------11------11------------------------|
|-----------------------------------------------------------|
|-----------------------------------------------------------|


_________________________________________________________________________


Repeat Main Verse

Repeat Pre Chorus

Repeat Chorus

_________________________________________________________________________


Bridge
Guitar 1 (only)
|-----------------------------------------------------------------|
|-----------------------------------------------------------------|
|-----------------------------------------------------------------|
|-----------------------------------------------------------------|
|-------5-----8-------------------------7-----4-------------------|
|-000-0---0-0---0-000-0-0-000-000-000-0---0-0---0-000-0-0-0-0-2-3-|

Guitar 1 (only)
|---------------------------------------------------------|
|---------------------------------------------------------|
|---------------------------------------------------------|
|---------------------------------------------------------|
|-------5-----8-------------------------7-----4-----------|
|-000-0---0-0---0-000-0-0-000-000-000-0---0-0---0-000-0-0-|

Guitar 1
|------------------|
|------------------|
|------------------|
|------------------|
|-8p0h7h8h10-/-12~-|
|------------------|
|
|Guitar 2
|----------------|
|----------------|
|----------------|
|----------------|
|-5p0h4h5h7-/-8~-|
|----------------|

Guitar 1
|-----------------------------------------------------------------|
|-----------------------------------------------------------------|
|-----------------------------------------------------------------|
|-----------------------------------------------------------------|
|-------5-----8-------------------------7-----4-------------------|
|-000-0---0-0---0-000-0-0-000-000-000-0---0-0---0-000-0-0-0-0-2-3-|
|
|Guitar 2
|-----------------------------------------------------------------|
|-----------------------------------------------------------------|
|-----------------------------------------------------------------|
|-----------------------------------------------------------------|
|-------8-----12------------------------11----7-------------------|
|-000-0---0-0---0-000-0-0-000-000-000-0---0-0---0-000-0-0-0-0-2-3-|

Guitar 1
|-----------------------------------------------------------------------|
|-----------------------------------------------------------------------|
|-----------------------------------------------------------------------|
|-----------------------------------------------------------------------|
|-------5-----8-------------------------7-----4-----------5p0h4h5h7-/-8-|
|-000-0---0-0---0-000-0-0-000-000-000-0---0-0---0-000-0-0---------------|
|
|Guitar 2
|-------------------------------------------------------------------------|
|-------------------------------------------------------------------------|
|-------------------------------------------------------------------------|
|-------------------------------------------------------------------------|
|-------8-----12------------------------11----7-----------8p0h7h8h10-/-12-|
|-000-0---0-0---0-000-0-0-000-000-000-0---0-0---0-000-0-0-----------------|


_________________________________________________________________________


Solo 2 (MKH)
Guitar 2 (Rhythm)
||-------------------------------------------------||
|o-------------------------------------------------o|
||-------------------------------------------------|| x4
||-------------------------------------------------||
|o-------------------------------------------------o|
||-0--0--0--2BU(3)--2BU(3)--0--0-0-0---0-0-0-0-0---||

Guitar 1 (Lead)
|-----------------------------------------------------------------------------|
|-11-10--10-11-10-11-10--10-11-10-11-10--10-10-8--8-10-8-10-8--8-10-8-10-8--8-|
|------12--------------12--------------12-------10-----------10-----------10--|
|-----------------------------------------------------------------------------|
|-----------------------------------------------------------------------------|
|-----------------------------------------------------------------------------|

|---------------------------------------------------------------|
|-8-6---6-8-6-8-6---6-8-6-8-6---6-6-5---5-6-5-6-5---5-5h6-------|
|-----9-----------9-----------9-------7-----------7-------6~~~~-|
|---------------------------------------------------------------|
|---------------------------------------------------------------|
|---------------------------------------------------------------|

|-------------------------------------------|
|-11-10--10-11-10-11-10--10-11-10-11-10--10-|
|------12--------------12--------------12---|
|-------------------------------------------|
|-------------------------------------------|
|-------------------------------------------|

|-------------------------------------------|
|-15-14--14-15-14-15-14--14-15-14-15-14--14-|
|------15--------------15--------------15---|
|-------------------------------------------|
|-------------------------------------------|
|-------------------------------------------|

|-------------------------------------------|
|-17-15--15-17-15-17-15--15-17-15-17-15--15-|
|------18--------------18--------------18---|
|-------------------------------------------|
|-------------------------------------------|
|-------------------------------------------|

|----------------------------------------------------13-15-17-13-15-17-|
|-----------------------------------14-15-17-14-15-17------------------|
|------------------12-14-15-12-14-15-----------------------------------|
|-12-14-15-12-14-15----------------------------------------------------|
|----------------------------------------------------------------------|
|----------------------------------------------------------------------|

|-15BU(17)~~~~-|
|--------------|
|--------------|
|--------------|
|--------------|
|--------------|

_________________________________________________________________________


Chorus Variation
Both Guitars
|-----------------------------------------------------------------|
|-----------------------------------------------------------------|
|---------------------------------2-------------------------------|
|-0---------------3---------------2---------------5---------------|
|-0---------------3---------------0---------------5---------------|
|-0---------------3-------------------------------5---------------|

Guitar 1
|------------------------------------------|
|------------------------------------------|
|------------------------------------------|
|-0----------------------------------------|
|-0----------------------------------------|
|-0----------------------------------------|
|
|Guitar 2
|------------------------------------------|
|---------------------10------8------------|
|-7-7--10-7-7--9-7-7-----7-7----7-7--10~~~-|
|------------------------------------------|
|------------------------------------------|
|------------------------------------------|

Guitar 1
|-------------------------------------|
|-------------------------------------|
|-------------------------------------|
|-3-----------------------------------|
|-3-----------------------------------|
|-3-----------------------------------|
|
|Guitar 2
|-------------------------------------|
|------8------6------10---8---6---5h6-|
|-5-5----5-5----5-5-----5---5---5-----|
|-------------------------------------|
|-------------------------------------|
|-------------------------------------|

Guitar 1
|---------------------------------------|
|---------------------------------------|
|-2-------------------------------------|
|-2-------------------------------------|
|-0-------------------------------------|
|---------------------------------------|
|
|Guitar 2
|--------------------------------------|
|--------------------------------------|
|------9------9------7------7------7h9-|
|-7-7----7-7----7-7----7-7----7-7------|
|--------------------------------------|
|--------------------------------------|

Guitar 1
|----------------------------------------|
|----------------------------------------|
|---------------------10-9-7-------------|
|-5--------------------------10-8-7-8-10-|
|-5--------------------------------------|
|-5--------------------------------------|
|
|Guitar 2
|--------------------------------------|
|------10------8------10-8-6-----------|
|-0-0-----0-0----0-0---------9-7-6-7-9-|
|--------------------------------------|
|--------------------------------------|
|--------------------------------------|


_________________________________________________________________________


Repeat Chorus

Repeat Verse 1

_________________________________________________________________________






##############################################################################################
##############################################################################################
#VENGEANCE FALLS##############################################################################
##############################################################################################
##############################################################################################





________________________________________________________________________________



Intro
Guitar 1
||---------------------------------------------------------------------------||
|o---------------------------------------------------------------------------o|
||---------------------------------------------------------------------------||
||-0-0-0-0-10h12-0-0-0-0-10h12-0-0-0-0-10h12-0-0-0-0-10h12-0-0-0-0-10h12-0-0-||
|o---------------------------------------------------------------------------o|
||---------------------------------------------------------------------------||


________________________________________________________________________________


Build up
Both guitars
||---------------------------------------------------------------------------|
|o---------------------------------------------------------------------------|
||---------------------------------------------------------------------------|
||-0-0-0-0-10h12-0-0-0-0-10h12-0-0-0-0-10h12-0-0-0-0-10h12-0-0-0-0-10h12-0-0-|
|o---------------------------------------------------------------------------|
||---------------------------------------------------------------------------|

|-----------------------------------------------------------------|
|-----------------------------------------------------------------|
|-----------------------------------------------------------------|
|---------7p0---------7p0---------7p0---------7p0---------7p0-----|
|-----------------------------------------------------------------|
|-8-8-8-8-----8-8-8-8-----8-8-8-8-----8-8-8-8-----8-8-8-8-----8-8-|

|---------------------------------------------------------------------------------------|
|---------------------------------------------------------------------------------------|
|---------------------------------------------------------------------------------------|
|-------------8p0-------------8p0-------------8p0-------------8p0-------------8p0-------|
|---------------------------------------------------------------------------------------|
|-10-10-10-10-----10-10-10-10-----10-10-10-10-----10-10-10-10-----10-10-10-10-----10-10-|

|-----------------------------------------------------------------||
|-----------------------------------------------------------------o|
|-----------------------------------------------------------------||
|---------3p0---------3p0---------3p0---------3p0---------3p0-----||
|-----------------------------------------------------------------o|
|-5-5-5-5-----5-5-5-5-----5-5-5-5-----5-5-5-5-----5-5-5-5-----5-5-||

________________________________________________________________________________



Verse 1
Both guitars
||-----------------------------------------------------------------|
|o-----------------------------------------------------------------|
||-----------------------------------------------------------------|
||-------------------------------------------------3p0-------------|
|o-----------------------------------------------------3p0---------|
||-00M---00M---0-0-0-0-0-0-00M---00M---0-0-0-0-0-0---------3h5p3p0-|

|-----------------------------------------------------------------||
|-----------------------------------------------------------------o|
|-----------------------------------------------------------------||
|-------------------------------------------------6p0-3p0---------||
|---------------------------------------------------------3h5p3p0-o|
|-00M---00M---0-0-0-0-0-0-00M---00M---0-0-0-0-0-0-----------------||

Guitar 1
|-----------------------------------------------------------------|
|-----------------------------------------------------------------|
|-----------------------------------------------------------------|
|-----------------------------------------------------------------|
|-3---3---3---3---3---3---3---3---3---3---3---3---3-3-3-3-3-3-3-3-|
|-3---3---3---3---3---3---3---3---3---3---3---3-------------------|
|
|Guitar 2                                         NH-------------
|-----------------------------------------------------------------|
|-----------------------------------------------------------------|
|-----------------------------------------------------------------|
|-------------------------------------------------7-7-7-7-7-7-7-7-|
|-3---3---3---3---3---3---3---3---3---3---3---3-------------------|
|-3---3---3---3---3---3---3---3---3---3---3---3-------------------|


________________________________________________________________________________



Chorus
Guitar 1
|---------------------------------|---------------------------------|
|---------------------------------|---------------------------------|
|---------------------------------|---------------------------------|
|---------------------------------|---------------------------------|
|-0-0-0-0-0-0-0-0-0-0-0-0-0-0-0-0-|-3-3-3-3-3-3-3-3-3-3-3-3-3-3-3-3-|
|-0-0-0-0-0-0-0-0-0-0-0-0-0-0-0-0-|-3-3-3-3-3-3-3-3-3-3-3-3-3-3-3-3-|
|
|Guitar 2
|---------------------------------|---------------------------------|
|---------------------------------|---------------------------------|
|-10---\7----/14~~~~~~~~~~~~~~~~~-|-10---\7----/10~~~~~~~~~~~~~~~~~~|
|---------------------------------|---------------------------------|
|---------------------------------|---------------------------------|
|---------------------------------|---------------------------------|

Guitar 1
|---------------------------------|---------------------------------|
|---------------------------------|---------------------------------|
|---------------------------------|---------------------------------|
|-5-5-5-5-5-5-5-5-5-5-5-5-5-5-5-5-|---------------------------------|
|-3-3-3-3-3-3-3-3-3-3-3-3-3-3-3-3-|-5-5-5-5-5-5-5-5-5-5-5-5-5-5-5-5-|
|---------------------------------|-5-5-5-5-5-5-5-5-5-5-5-5-5-5-5-5-|
|
|Guitar 2
|---------------------------------|---------------------------------|
|---------------------------------|---------------------------------|
|-12--\10--\9~~~~~~~~~~~~~~~~~~~~~|-12--\10\7~~~~~~~~~~~~~~~~~~~~~~-|
|---------------------------------|---------------------------------|
|---------------------------------|---------------------------------|
|---------------------------------|---------------------------------|


________________________________________________________________________________


Repeat Verse 1

Repeat Chorus

________________________________________________________________________________


Breakdown
Guitar 2 (Phaser effect)
|-------------------------------------------------------------|
|-------------------------------------------------------------|
|-------------------------------------------------------------|
|-10p0--------14p0--10p0--------15p0-10p0--------14p0-10p0----|
|-------------------------------------------------------------|
|-------12p0--------------12p0-------------12p0------------7/-|

Guitar 1
|--------------------------------------------------------------|
|--------------------------------------------------------------|
|--------------------------------------------------------------|
|-------------------------------------------------14p0-10p0----|
|-0-0-0-0-M-----------0-0-0-0-M-------0-0-0-0-M----------------|
|-0-0-0-0-M-----------0-0-0-0-M-------0-0-0-0-M-------------/7-|
|
|Guitar 2
|--------------------------------------------------------------------|
|--------------------------------------------------------------------|
|--------------------------------------------------------------------|
|-10p0----------14p0---10p0----------15p0-10p0----------14p0-10p0----|
|--------------------------------------------------------------------|
|--------12p0-----------------12p0---------------12p0-------------7/-|

The third and fourth time this is played guitar 1
lets all the open C# to ring out

The fourth time at the end this is played:

Both guitars
|----------------------------------------|
|----------------------------------------|
|----------------------------------------|
|-14p0-10p0----15p0-10p0----17p0-10p0----|
|----------------------------------------|
|-----------7/-----------7/-----------7/-|

Guitar 1
|---------------------|
|---------------------|
|---------------------|
|-15p0-14p0-12p0-10p0-|
|---------------------|
|---------------------|
|
|Guitar 2
|---------------------|
|---------------------|
|---------------------|
|-19p0-17p0-15p0-14p0-|
|---------------------|
|---------------------|


________________________________________________________________________________


Solo (CKB)
Guitar 2
|-22PB~~-(20)(22)~~-20/22-------------------------------|
|-------------------------20BU(22)~~-(20)(22)~~-(20)p18-|
|-------------------------------------------------------|
|-------------------------------------------------------|
|-------------------------------------------------------|
|-------------------------------------------------------|

Guitar 2
|-------17----------------15-12-13----12----------|
|-13-15----13-15----13-------------15----13-15-11-|
|----------------15----14-------------------------|
|-------------------------------------------------|
|-------------------------------------------------|
|-------------------------------------------------|
|
|Guitar 3
|-------20----------------18-15-17----15----------|
|-17-18----17-18----17-------------18----17-18-15-|
|----------------19----17-------------------------|
|-------------------------------------------------|
|-------------------------------------------------|
|-------------------------------------------------|

Guitar 2
|----------13p12-------------------------|
|-17~~~~~~-------13----------------------|
|-------------------12\9h10h12-9~~~~~~~~-|
|----------------------------------------|
|----------------------------------------|
|----------------------------------------|
|
|Guitar 3
|----------------------------------------|
|-13~~~~~~-15p13-------------------------|
|----------------14----------------------|
|-------------------14\10h12h14-10~~~~~~-|
|----------------------------------------|
|----------------------------------------|

                 T        T        T        T  T        T  T
|---------12h15-20p15p12-------------------------------------------|
|-------13---------------------------------------------------------|
|-----12-----------------15p14p12-15p14p12-15-15p14p12-15-15p14p12-|
|---14-------------------------------------------------------------|
|-15---------------------------------------------------------------|
|------------------------------------------------------------------|

|-----------------|
|-15~~~~~~~~~~~~~-|
|-----------------|
|-12~~~~~~~~~~~~~-|
|-----------------|
|-----------------|

________________________________________________________________________________


Bridge (Also solo rhythm)
Both guitars
|-----------------------------------------------------------------|
|-----------------------------------------------------------------|
|-----------------------------------------------------------------|
|-------------------------------------3h7---3h7---3h7---3h7---3h7-|
|-----5h8---5h8---5h8---5h8---5h8---------------------------------|
|-0-0-----0-----0-----0-----0-----3-3-----3-----3-----3-----3-----|

|-----------------------------------------------------------------|
|-----------------------------------------------------------------|
|-----------------------------------------------------------------|
|-----2h5---2h5---2h5---2h5---2h5-----5h8---5h8---5h8---5h8---5h8-|
|-3-3-----3-----3-----3-----3-------------------------------------|
|---------------------------------5-5-----5-----5-----5-----5-----|

Guitar 1
|-----------------------------------------------------------------|
|-----------------------------------------------------------------|
|-2-0-------------3-2---------------------------------------------|
|-----3-2-0-----------5-3-2---------------------------------------|
|-----------4-1-0-----------5-4-----------------------------------|
|-------------------------------7~~~~~~~~~~~~~~~~~~~~~~~~~~~~~~~~-|
|
|Guitar 2
|-----------------------------------------|
|-----------------------------------------|
|-5-3-------------7-5---------------------|
|-----7-5-3-----------8-7-5---------------|
|-----------7-5-4-----------8-7-4~~~~~~~~-|
|-----------------------------------------|

Guitar 2
|-15BU(17)(15)-13-12-13-12h13p12-------|
|--------------------------------15-13-|
|--------------------------------------|
|--------------------------------------|
|--------------------------------------|
|--------------------------------------|


________________________________________________________________________________



Repeat Verse 1

The third and fourth time verse 1 is played
The strings are not muted

Finally play this
Both guitars
|-------------|
|-------------|
|-------------|
|-------------|
|-------------|
|-0-0---0-0---|


________________________________________________________________________________







##############################################################################################
##############################################################################################
#STRIFE#######################################################################################
##############################################################################################
##############################################################################################







_________________________________________________________________________



Intro
Guitar 1
||-----------------------------------------------------------------|
|o-----------------------------------------------------------------|
||-----------------------------------------------------------------|
||-0---------------------------0-----------------------------------|
|o-0---------------------------0-------5---3---5--/8-------7-------|
||-0---------------0---0-0-0---0-----------------------------------|
|
|Guitar 2
||-----------------------------------------------------------------|
|o-----------------------------------------------------------------|
||-------------------------------------7---5---7--/10------9-------|
||-0---------------------------0-----------------------------------|
|o-0---------------------------0-----------------------------------|
||-0---------------0---0-0-0---0-----------------------------------|

Guitar 1
|-----------------------------------------------------------------||
|-----------------------------------------------------------------o|
|-3---------------------------3-----------------------------------||
|-3---------------------------3-------------------3-2h3p2---------||
|-1---------------1---1-1-1---1-------5---3---5-----------5---3---o|
|-----------------------------------------------------------------||
|
|Guitar 2
|------------------------------------------------------------------||
|------------------------------------------------------------------o|
|-3---------------------------3-------7---5---7--10-9h10p9---------||
|-3---------------------------3------------------------------------||
|-1---------------1---1-1-1---1---------------------------12--10---o|
|------------------------------------------------------------------||


Guitar 2 then switches from an octave harmony to this below

Harmony (Guitar 2)
||-----------------------------------------------------------------|
|o-----------------------------------------------------------------|
||-----------------------------------------------------------------|
||-0---------------------------0-------3---2---3--/7-------5-------|
|o-0---------------------------0-----------------------------------|
||-0---------------0---0-0-0---0-----------------------------------|

|-----------------------------------------------------------------||
|-----------------------------------------------------------------o|
|-3---------------------------3-------------------2-0h2p0---------||
|-3---------------------------3-------3---2---3-----------3---2---||
|-1---------------1---1-1-1---1-----------------------------------o|
|-----------------------------------------------------------------||


_________________________________________________________________________



Build-up Verse
Guitar 1
|------------------------------------------------------------------------------|
|------------------------------------------------------------------------------|
|------------------------------------------------------------------------------|
|-0----------------------------------------------------------------------------|
|-0----------------------------------------------------------------------------|
|-0----------------------------------------------------------------------------|
|
|Guitar 2
|------------------------------------------------------------------------------|
|------------------------------------------------------------------------------|
|------------------------------------------------------------------------------|
|------------------------------------------------------------------------------|
|------------------------------------------------------------------------------|
|-0-0-12-0-12-10-0-0-0-0-12-0-12-10-0-0-0-0-12-0-12-10-0-0-14-10-0-0-15-10-0-0-|

Guitar 1
|------------------------------------------------------------------------------|
|------------------------------------------------------------------------------|
|------------------------------------------------------------------------------|
|-(0)--------------------------------------------------------------------------|
|-(0)--------------------------------------------------------------------------|
|-(0)--------------------------------------------------------------------------|
|
|Guitar 2
|------------------------------------------------------------------------------|
|------------------------------------------------------------------------------|
|------------------------------------------------------------------------------|
|------------------------------------------------------------------------------|
|------------------------------------------------------------------------------|
|-0-0-12-0-12-10-0-0-0-0-12-0-12-10-0-0-0-0-12-0-12-10-0-0-15-10-0-0-14-10-0-0-|

Both guitars
|------------------------------------------------------------------------------|
|------------------------------------------------------------------------------|
|------------------------------------------------------------------------------|
|------------------------------------------------------------------------------|
|------------------------------------------------------------------------------|
|-0-0-12-0-12-10-0-0-0-0-12-0-12-10-0-0-0-0-12-0-12-10-0-0-14-10-0-0-15-10-0-0-|

Guitar 1
|------------------------------------------------------------------------------|
|------------------------------------------------------------------------------|
|------------------------------------------------------------------------------|
|------------------------------------------------------------------------------|
|------------------------------------------------------------------------------|
|-0-0-12-0-12-10-0-0-0-0-12-0-12-10-0-0-0-0-12-0-12-10-0-0-15-10-0-0-14-10-0-0-|
|
|Guitar 2
|------------------------------------------------------------------------------|
|------------------------------------------------------------------------------|
|------------------------------------------------------------------------------|
|------------------------------------------------------------------------------|
|------------------------------------------------------------------------------|
|-0-0-15-0-15-14-0-0-0-0-15-0-15-14-0-0-0-0-15-0-15-14-0-0-19-14-0-0-17-14-0-0-|


_________________________________________________________________________



Main Verse
Both guitars
|------------------------------------------------------------------------------|
|------------------------------------------------------------------------------|
|------------------------------------------------------------------------------|
|------------------------------------------------------------------------------|
|------------------------------------------------------------------------------|
|-0-0-12-0-12-10-0-0-0-0-12-0-12-10-0-0-0-0-12-0-12-10-0-0-14-10-0-0-15-10-0-0-|

|------------------------------------------------------------------------------|
|------------------------------------------------------------------------------|
|------------------------------------------------------------------------------|
|------------------------------------------------------------------------------|
|------------------------------------------------------------------------------|
|-0-0-12-0-12-10-0-0-0-0-12-0-12-10-0-0-0-0-12-0-12-10-0-0-15-10-0-0-14-10-0-0-|

Guitar 2 then plays this harmony
|------------------------------------------------------------------------------|
|------------------------------------------------------------------------------|
|------------------------------------------------------------------------------|
|------------------------------------------------------------------------------|
|------------------------------------------------------------------------------|
|-0-0-15-0-15-14-0-0-0-0-15-0-15-14-0-0-0-0-15-0-15-14-0-0-17-14-0-0-19-14-0-0-|

|------------------------------------------------------------------------------|
|------------------------------------------------------------------------------|
|------------------------------------------------------------------------------|
|------------------------------------------------------------------------------|
|------------------------------------------------------------------------------|
|-0-0-15-0-15-14-0-0-0-0-15-0-15-14-0-0-0-0-15-0-15-14-0-0-19-14-0-0-17-14-0-0-|


_________________________________________________________________________



Verse 1
Both guitars
The 3 empty bars represent the vocal, bass and drum section
whilst both guitars are silent (Play 3 times)
||-----------------|-----------------|-----------------|-----------------||
|o-----------------|-----------------|-----------------|-----------------o|
||-----------------|-----------------|-----------------|-----------------||
||-----------------|-----------------|-----------------|-----------------||
|o-0---0---0-0-0-0-|-----------------|-----------------|-----------------o|
||-0---0---0-0-0-0-|-----------------|-----------------|-----------------||

Both guitars
|-----------------|-----------------|--------------------|---------------------|
|-----------------|-----------------|--------------------|---------------------|
|-----------------|-----------------|--------------------|---------------------|
|-----------------|-----------------|--------------------|---------------------|
|-0---0---0-0-0-0-|-----------------|--------------------|---------------------|
|-0---0---0-0-0-0-|-----------------|-0-0-12-0-12-10-0-0-|-14-10-0-0-15-10-0-0-|


________________________________________________________________________



Verse 2
Guitar 1
|-----------------------------------------------------------------|
|-----------------------------------------------------------------|
|-----------------------------------------------------------------|
|-----------------------------------------------------------------|
|-0---0---0-0-0-0-------------------------------------------------|
|-0---0---0-0-0-0-------------------------------------------------|
|
|Guitar 2
|------------------------------------------------------------------------------|
|------------------------------------------------------------------------------|
|------------------------------------------------------------------------------|
|------------------------------------------------------------------------------|
|------------------------------------------------------------------------------|
|-0-0-12-0-12-10-0-0-0-0-12-0-12-10-0-0-0-0-12-0-12-10-0-0-14-10-0-0-15-10-0-0-|

Guitar 1
|-----------------------------------------------------------------|
|-----------------------------------------------------------------|
|-----------------------------------------------------------------|
|-----------------------------------------------------------------|
|-0---0---0-0-0-0-------------------------------------------------|
|-0---0---0-0-0-0-------------------------------------------------|
|
|Guitar 2
|------------------------------------------------------------------------------|
|------------------------------------------------------------------------------|
|------------------------------------------------------------------------------|
|------------------------------------------------------------------------------|
|------------------------------------------------------------------------------|
|-0-0-12-0-12-10-0-0-0-0-12-0-12-10-0-0-0-0-12-0-12-10-0-0-15-10-0-0-14-10-0-0-|

Then repeat the main verse with guitar 2 playing the harmony


_________________________________________________________________________



Pre-chorus (Play twice)
Guitar 1
|-----------------|-----------------|-----------------|-----------------|
|-----------------|-----------------|-----------------|-----------------|
|-----------------|-3-------5-------|-----------------|-----------------|
|-0---------------|-3-------5-------|-0---------------|-3-------2-------|
|-0---------------|-1-------3-------|-0---------------|-3-------3-------|
|-0---------------|-----------------|-0---------------|-3-------2-------|
|
|Guitar 2
|------------------|-----------------|------------------|------------------|
|------------------|-----------------|------------------|------------------|
|-----9/10\9-------|-----5-----------|-----9/10\9-------|-----5-----7-10-9-|
|---7--------7---7-|---3-----3-5-3-2-|---7--------7---7-|---3-----5--------|
|-5------------5---|-1-----3---------|-5------------5---|-1-----3----------|
|------------------|-----------------|------------------|------------------|


_________________________________________________________________________



Chorus
Guitar 1
|---------------------------------|---------------------------------|
|---------------------------------|---------------------------------|
|-3-3-3-3-3-3-3-3-3-3-3-3-5-5-5-5-|-7-7-7-7-7-7-7-7-7-7-7-7-5-5-5-5-|
|-3-3-3-3-3-3-3-3-3-3-3-3-5-5-5-5-|-7-7-7-7-7-7-7-7-7-7-7-7-5-5-5-5-|
|-1-1-1-1-1-1-1-1-1-1-1-1-3-3-3-3-|-5-5-5-5-5-5-5-5-5-5-5-5-3-3-3-3-|
|---------------------------------|---------------------------------|
|
|Guitar 2
|---------------------------------|---------------------------------|
|---------------------------------|---------------------------------|
|-10---------------------12-------|-14---------------------17-------|
|---------------------------------|---------------------------------|
|--8---------------------10-------|-12---------------------15-------|
|---------------------------------|---------------------------------|

|---------------------------------|---------------------------------|
|---------------------------------|---------------------------------|
|-3-3-3-3-3-3-3-3-3-3-3-3-5-5-5-5-|-7-7-7-7-7-7-7-7-7-7-7-7-5-5-5-5-|
|-3-3-3-3-3-3-3-3-3-3-3-3-5-5-5-5-|-7-7-7-7-7-7-7-7-7-7-7-7-5-5-5-5-|
|-1-1-1-1-1-1-1-1-1-1-1-1-3-3-3-3-|-5-5-5-5-5-5-5-5-5-5-5-5-3-3-3-3-|
|---------------------------------|---------------------------------|
|
|Guitar 2
|---------------------------------|-----------------------------------------|
|---------------------------------|-----------------------------------------|
|-10---------------------12-------|-14--------------14-12-10----------------|
|---------------------------------|--------------------------14-12-10-12-14-|
|--8---------------------10-------|-12--------------------------------------|
|---------------------------------|-----------------------------------------|


_________________________________________________________________________


Repeat Verse 1

Repeat Verse 2

Repeat Pre-chorus

Repeat Chorus x2

Play the first two bars of the chorus
three times and then play the final two

_________________________________________________________________________


Bridge
Guitar 1
||---------------------------------|---------------------------------||
|o---------------------------------|---------------------------------o|
||-------------------------5---5---|-3-------------3-M---------------||
||-0-------------0-M-------5---5---|-3-------------3-M-------3---3---||
|o-0-------------0-M-------3---3---|-1-------1-1-1-1-M-------3---3---o|
||-0-------0-0-0-0-M---------------|-------------------------3---3---||
|
|Guitar 2
||---------------------------------|-----------------------------------||
|o---------------------------------|-----------------------------------o|
||---------------------------------|-----------------------------------||
||-----7---5-7-5-----7-5-7/10--8---|-----7---5-7-5-----7-5-7-10-8-7----||
|o-5-------------3-----------------|-5-------------3----------------10-o|
||---------------------------------|-----------------------------------||

The section above is played twice
Once the screaming starts, the muting of the open C# and A stop
and the note is left to linger


_________________________________________________________________________


Solo 1 & 2 Rhythm
Guitar 1 for solo 1 whilst guitar 2 does lead
Guitar 2 for solo 2 whilst guitar 1 does lead
|---------------------------------|---------------------------------|
|---------------------------------|---------------------------------|
|---------------------------------|---------------------------------|
|---------------------------------|---------------------------------|
|-----3---3-2-0-------2---2-3-2~--|-----3-------3-------3---3-2~----|
|-1-1---1-------0---0---0---------|-----5-------5-------5---5-3~----|
|---------------------------------|-0-00--000-00--000-00--00--------|

|---------------------------------|---------------------------------|
|---------------------------------|---------------------------------|
|---------------------------------|---------------------------------|
|---------------------------------|---------------------------------|
|-----3---3-2-0-------2---2-3-2~--|---------------------------------|
|-1-1---1-------0---0---0---------|---------------------------------|
|---------------------------------|-0-000-000-000-000-000-002-3-2-0-|

|---------------------------------|---------------------------------|
|---------------------------------|---------------------------------|
|---------------------------------|---------------------------------|
|---------------------------------|---------------------------------|
|-----3---3-2-0-------2---2-3-2~--|-----3-------3-------3---3-2~----|
|-1-1---1-------0---0---0---------|-----5-------5-------5---5-3~----|
|---------------------------------|-0-00--000-00--000-00--00--------|

|---------------------------------|---------------------------------|
|---------------------------------|---------------------------------|
|---------------------------------|---------------------------------|
|---------------------------------|---------------------------------|
|-----3---3-2-0-------2---2-3-2~--|-----3-------3-------3---3-2~----|
|-1-1---1-------0---0---0---------|-----5-------5-------5---5-3~----|
|---------------------------------|-0-00--000-00--000-00--00--------|


Solo 1 (CKB)
Guitar 2
|-10p6----------------------------------|
|------8-------------10p6---------------|
|--------7---------7------7-------------|
|----------8p-7h-8----------7---------7-|
|-----------------------------8p-7h-8---|
|---------------------------------------|
|
|Guitar 3(Harmony)
|-13p10----------------------------------|
|------11------------13p10---------------|
|--------10--------10-----10-------------|
|----------12p10h12---------10--------10-|
|-----------------------------12p10h12---|
|----------------------------------------|

Guitar 2 (only)
|-------------------------------------------|
|-------------------------------------------|
|-7-5---5-10-7----7-12-10----10-14-12-------|
|-----7--------10---------12----------15-12-|
|-------------------------------------------|
|-------------------------------------------|

Guitar 2
||-12-10----10-12-10-12-10----------10-||  |----------------|
|o-------13----------------13-10-13----o|  |-13BU(15)(13)~~-|
||-------------------------------------||x3|----------------|
||-------------------------------------||  |----------------|
|o-------------------------------------o|  |----------------|
||-------------------------------------||  |----------------|
|
|Guitar 3(Harmony)
||-15-13----13-15-13-15-13----------13-||  |----------------|
|o-------17----------------17-13-17----o|  |-17BU(18)(17)~~-|
||-------------------------------------||x3|----------------|
||-------------------------------------||  |----------------|
|o-------------------------------------o|  |----------------|
||-------------------------------------||  |----------------|

Guitar 2
|-------------------------------------------|
|--------------------------------15-15------|
|----------------------14-14----------14-14-|
|------------15-15----------15-15-----------|
|-13-13-17-17-----17-17---------------------|
|-------------------------------------------|
|
|Guitar 3(Harmony)
|-------------------------------------------|
|---------------------15-15-----18-18-15-15-|
|-----------14-14----------14-14------------|
|------15-15-----15-15----------------------|
|-17-17-------------------------------------|
|-------------------------------------------|

Guitar 2
|-------------------------------------------------|
|-17-17-18-18-17-17-13-13-15-15-------------------|
|-------------------------------14-14-12-12-14-14-|
|-------------------------------------------------|
|-------------------------------------------------|
|-------------------------------------------------|
|
|Guitar 3(Harmony)
|-15-15-17-17-15-15-12-12-13-13-------------------|
|-------------------------------13-13-11-11-13-13-|
|-------------------------------------------------|
|-------------------------------------------------|
|-------------------------------------------------|
|-------------------------------------------------|

Guitar 2
|-/13-----15h17p15-----13h15p13-----12-13-15-13-12----|
|--------------------------------------------------13-|
|-----------------------------------------------------|
|-----------------------------------------------------|
|-----------------------------------------------------|
|-----------------------------------------------------|
|
|Guitar 3(Harmony)
|-/17-----18h20p18-----17h18p17-----15-17-18-17-15----|
|--------------------------------------------------18-|
|-----------------------------------------------------|
|-----------------------------------------------------|
|-----------------------------------------------------|
|-----------------------------------------------------|


Solo 2 (MKH)
(With wah-wah pedal)
|-10-------10-----------10-12-12BU(13)-12-10------|
|-13BU(15)-13BU(15)~~~~----------------------13~~-|
|-------------------------------------------------|
|-------------------------------------------------|
|-------------------------------------------------|
|-------------------------------------------------|

|-----------------------------------------------------------------|
|-15~~~~-15h18p15\13~~~~-13h15p13\10~~~~-10h13p10-----------------|
|-------------------------------------------------12~~------10h12-|
|------------------------------------------------------10h12------|
|-----------------------------------------------------------------|
|-----------------------------------------------------------------|

|-10-------10-----------10-12-12BU(13)-12-10------|
|-13BU(15)-13BU(15)~~~~----------------------13~~-|
|-------------------------------------------------|
|-------------------------------------------------|
|-------------------------------------------------|
|-------------------------------------------------|

  Tr---------------------------------------------------------------
|-------------------------10-13-15-------------------------10-13-15-|
|-10-13-15-------10-13-15----------10-13-15-------10-13-15----------|
|-------------------------------------------------------------------|
|-------------------------------------------------------------------|
|-------------------------------------------------------------------|
|-------------------------------------------------------------------|

  Tr------------------------------------
|-17-----15-----17---20-----17-----20---20BU(22)~~~~~~-|
|------------------------------------------------------|
|------------------------------------------------------|
|------------------------------------------------------|
|------------------------------------------------------|
|------------------------------------------------------|


_________________________________________________________________________


Repeat Chorus x2
Ending on

Guitar 1
|-----------------|-------------------|
|-----------------|-------------------|
|-----------------|-------------------|
|-0---------------|-(0)---------------|
|-0---------------|-(0)---------------|
|-0---------------|-(0)---------------|
|
|Guitar 2
|-----------------|-------------------|
|-----------------|-------------------|
|-7---------------|-(7)---------------|
|-7---------------|-(7)---------------|
|-5---------------|-(5)---------------|
|-----------------|-------------------|


_________________________________________________________________________








##############################################################################################
##############################################################################################
#NO WAY TO HEAL###############################################################################
##############################################################################################
##############################################################################################







_________________________________________________________________________



Intro
Guitar 1
||-----------------------------------------------------------------------------|
|o-----------------------------------------------------------------------------|
||-10-----9-----7---12-----10-----9---10-----9-----7---------14-------14-------|
||----0-0---0-0---0----0-0----0-0---0----0-0---0-0---0-10-12----10-12----10-12-|
|o-----------------------------------------------------------------------------|
||-----------------------------------------------------------------------------|
|
|Guitar 2
||----------------------------------------------------------------------------------|
|o----------------------------------------------------------------------------------|
||-14-----12-----10---15-----14-----12---14-----12-----10---------17-------17-------|
||----0-0----0-0----0----0-0----0-0----0----0-0----0-0----0-14-15----14-15----14-15-|
|o----------------------------------------------------------------------------------|
||----------------------------------------------------------------------------------|

Guitar 1
|-----------------------------------------------------------------------------||
|-----------------------------------------------------------------------------o|
|-10-----9-----7---12-----10-----9---10-----9-----9h10p9----------------------||
|----0-0---0-0---0----0-0----0-0---0----0-0---0-0--------10~~~~~~~~~~~~~~~~~~-||
|-----------------------------------------------------------------------------o|
|-----------------------------------------------------------------------------||
|
|Guitar 2
|----------------------------------------------------------------------------------||
|----------------------------------------------------------------------------------o|
|-14-----12-----10---15-----14-----12---14-----12-----12h14p12---------------------||
|----0-0----0-0----0----0-0----0-0----0----0-0----0-0----------14~~~~~~~~~~~~~~~~~-||
|----------------------------------------------------------------------------------o|
|----------------------------------------------------------------------------------||


_________________________________________________________________________



Verse 1
Both guitars
|---------------------------------------------------------------------|
|---------------------------------------------------------------------|
|---------------------------------------------------------------------|
|---------------------------------------------------------------------|
|---------------------------------------------------------------------|
|-0h12h15-12~~~~-0-0-0-0-0-0-0-0-0-0-0h8h12-8~~~~-0-0-0h5h8-5~~~~-0-0-|

|---------------------------------------------------------------------|
|---------------------------------------------------------------------|
|---------------------------------------------------------------------|
|---------------------------------------------------------------------|
|----------------0-0---0----------------------------------------------|
|-0h12h15-12~~~~-0-0---0---0-0-0-0-0-0h8h12-8~~~~-0-0-0h5h8-5~~~~-0-0-|

Guitar 1
|------------------------------------------------------------------------|
|------------------------------------------------------------------------|
|------------------------------------------------------------------------|
|------------------------------------------------------------------------|
|------------------------------------------------------------------------|
|-0h15h19-15~~~~-0-0-0-0-0-0-0-0-0-0-0h12h15-12~~~~-0-0-0h8h12-8~~~~-0-0-|
|
|Guitar 2
|---------------------------------------------------------------------|
|---------------------------------------------------------------------|
|---------------------------------------------------------------------|
|-0h12h15-12~~~~---------------------0h8h12-8~~~~-----0h5h8-5~~~~-----|
|---------------------------------------------------------------------|
|----------------0-0-0-0-0-0-0-0-0-0--------------0-0-------------0-0-|

Guitar 1
|------------------------------------------------------------------------|
|------------------------------------------------------------------------|
|------------------------------------------------------------------------|
|------------------------------------------------------------------------|
|----------------0-0---0-------------------------------------------------|
|-0h15h19-15~~~~-0-0---0---0-0-0-0-0-0h12h15-12~~~~-0-0-0h8h12-8~~~~-0-0-|
|
|Guitar 2
|---------------------------------------------------------------------|
|---------------------------------------------------------------------|
|---------------------------------------------------------------------|
|-0h12h15-12~~~~---------------------0h8h12-8~~~~-----0h5h8-5~~~~-----|
|----------------0-0---0----------------------------------------------|
|----------------0-0---0---0-0-0-0-0--------------0-0-------------0-0-|


_________________________________________________________________________



Verse 2
Both guitars
|---------------------------------|-------------------------------------|
|---------------------------------|-------------------------------------|
|---------------------------------|-------------------------------------|
|---------------------------------|-------------------------------------|
|---------------------------------|-------------------------------------|
|-5-5-555-555-7-5-8-5-5-7-5-8-5-5-|-8-8-888-888-10-8-12-8-8-10-8-12-8-8-|

Guitar 1
||----------------------------------------||
|o----------------------------------------o|
||----------------------------------------||
||----------------------------------------||
|o----------------------------------------o|
||-12-10-0-10-0-10-12-0-12-0-12-0-7h8p7~~-||
|
|Guitar 2
||----------------------------------------||
|o----------------------------------------o|
||----------------------------------------||
||-12-10-0-10-0-10-12-0-12-0-12-0-7h8p7~~-||
|o----------------------------------------o|
||----------------------------------------||

Both guitars
|---------------------------------|-------------------------------------|
|---------------------------------|-------------------------------------|
|---------------------------------|-------------------------------------|
|---------------------------------|-------------------------------------|
|---------------------------------|-------------------------------------|
|-5-5-555-555-7-5-8-5-5-7-5-8-5-5-|-8-8-888-888-10-8-12-8-8-10-8-12-8-8-|


_________________________________________________________________________



Pre-chorus
Guitar 2
||----------------------------------------||
|o----------------------------------------o|
||----------------------------------------||
||-12-10-0-10-0-10-12-0-12-0-12-0-7-8-7-0-||
|o----------------------------------------o|
||----------------------------------------||

Guitar 1
||-----------------------------------------------------------------||
|o-----------------------------------------------------------------o|
||-----------------------------------------------------------------||
||-0---------------3---------------5---------------8-------7-------||
|o-0---------------3---------------5---------------8-------7-------o|
||-0---------------3---------------5---------------8-------7-------||


________________________________________________________________________



Chorus
Guitar 1
|---------------------------------|---------------------------------|
|---------------------------------|---------------------------------|
|---------------------------------|-----------------5---------------|
|-8---------------5---------------|-0---------------5---------------|
|-8---------------5---------------|-0---------------3---------------|
|-8---------------5---------------|-0-------------------------------|

Guitar 1
|---------------------------------|---------------------------------|
|---------------------------------|---------------------------------|
|---------------------------------|-----------------5---------------|
|-5---------------8---------------|-0---------------5---------------|
|-5---------------8---------------|-0---------------3---------------|
|-5---------------8---------------|-0-------------------------------|

|Guitar 2
||----------------------------------------------------------------------------------|
|o----------------------------------------------------------------------------------|
||-14-----12-----10---15-----14-----12---14-----12-----10---------17-------17-------|
||----0-0----0-0----0----0-0----0-0----0----0-0----0-0----0-14-15----14-15----14-15-|
|o----------------------------------------------------------------------------------|
||----------------------------------------------------------------------------------|

Guitar 2
|-----------------------------------------------------------------------------||
|-----------------------------------------------------------------------------o|
|-14-----12-----10---15-----14-----12---14-----12-----9h10p9------------------||
|----0-0----0-0----0----0-0----0-0----0----0-0----0-0--------10~~~~~~~~~~~~~~-||
|-----------------------------------------------------------------------------o|
|-----------------------------------------------------------------------------||


_________________________________________________________________________


Repeat Verse 1

Repeat Verse 2

Repeat Pre-Verse

Repeat Chorus


_________________________________________________________________________


Bridge
Guitar 1
|-----------------------------------------------------------------|
|-----------------------------------------------------------------|
|-----------------------------------------------------------------|
|-----------------------------------------------------------------|
|-0-0---0-M---0-0-0-0---0-M---0-0-0-0---0-M---0-0-0-0---0-M-------|
|-0-0---0-M---0-0-0-0---0-M---0-0-0-0---0-M---0-0-0-0---0-M---0000|
|
|Guitar 2
|-----------------------------------------------------------------|
|-----------------------------------------------------------------|
|-----------------------------------------------------------------|
|-----------------------------------------------------------------|
|-0-0---0-M---0-0-0-0---0-M---0-0-0-0---0-M---0-0-0-0---0-M---x\\-|
|-0-0---0-M---0-0-0-0---0-M---0-0-0-0---0-M---0-0-0-0---0-M---x\\-|

Guitar 1
|-----------------------------------------------------------------|
|-----------------------------------------------------------------|
|-----------------------------------------------------------------|
|-----------------------------------------------------------------|
|-0-0---0---------0-0---0---------0-0---0---------0-0---0---------|
|-0-0---0-----00000-0---0-----00000-0---0-----00000-0---0-----000-|
|
|Guitar 2
|-----------------------------------------------------------------|
|-----------------------------------------------------------------|
|-----------------------------------------------------------------|
|-----------------------------------------------------------------|
|-0-0---0-----x\\-0-0---0-----x\\-0-0---0-----x\\-0-0---0---------|
|-0-0---0-----x\\-0-0---0-----x\\-0-0---0-----x\\-0-0---0-----000-|

_________________________________________________________________________


Solo 1(CKB)
Guitar 1 (Rhythm)
||-------------------------------------|
|o-------------------------------------|
||-------------------------------------|
||-------------------------------------|
|o-------------------------------------|
||-10-12-0-0-0-0-0-0-12-10-0-0-0-0-0-0-|

|-------------------------------------||
|-------------------------------------o|
|-------------------------------------||
|-------------------------------------||
|-------------------------------------o|
|-3p0-0-15p12-0-0-0-3p0-0-0-0-15p12-0-||

Guitar 2 (Lead)
  Tr---
|-22---22-20-17----------------------------------------------------|
|--------------22-20-18-20-18-17-18-17-15--------------------------|
|----------------------------------------17-15-14-17-15-14---------|
|---------------------------------------------------------17-15-14-|
|------------------------------------------------------------------|
|------------------------------------------------------------------|

|---------13h16h17p16p13------------------------|
|-------15--------------15----------------------|
|-----14------------------14---14---13---12~~~~-|
|---15----------------------15------------------|
|-17--------------------------------------------|
|-----------------------------------------------|

|---------------------------------------|
|---------------------------------------|
|-/10-12---14~~~~~~~-----10---12~~~~~~~-|
|--------------------/12----------------|
|---------------------------------------|
|---------------------------------------|

|------------------------------------|
|------------------------------------|
|----10p9----9p7---7p5---5-7PH~~~~~~-|
|-12------10-----8-----7-------------|
|------------------------------------|
|------------------------------------|

|-------------------------------------------|
|-------------------------------------------|
|-7-7-7-9-9-9-10-10-10-12-12-12-14-14-14-14-|
|-------------------------------------------|
|-5-5-5-7-7-7--8--8--8-10-10-10-12-12-12-12-|
|-------------------------------------------|

|--------------------------------------------|
|-------------------6---6-10-6-9-8-6---------|
|-------5---5-7-5-7---7--------------7-7~~~~-|
|-7-5-7---7----------------------------------|
|--------------------------------------------|
|--------------------------------------------|

  ___T___ ___T___ ___T__
|---------------------------------------------------------------------|
|------------------------------------------15-17-18-18-17-15----------|
|---12-14-15-14-12--12-14-15-14-12-14-15-17------------------17-15-14-|
|-15--------------15--------------------------------------------------|
|---------------------------------------------------------------------|
|---------------------------------------------------------------------|

Guitar 2
|---12-13-15-13-12--12-13-15-13-12-|    |---------|
|-15--------------15---------------|    |-(15)~~~-|
|----------------------------------| x3 |---------|
|----------------------------------|    |---------|
|----------------------------------|    |---------|
|----------------------------------|    |---------|
|
|Guitar 3
|---15-17-18-17-15--15-17-18-17-15-|    |---------|
|-18--------------18---------------|    |-(18)~~~-|
|----------------------------------| x3 |---------|
|----------------------------------|    |---------|
|----------------------------------|    |---------|
|----------------------------------|    |---------|



_________________________________________________________________________


Solo 2(MKH)
Guitar 2
|-----------------------------------------------------------------|
|-----------------------------------------------------------------|
|-----------------------------------------------------------------|
|-8-------------------------------5-------------------------------|
|-8-------------------------------5-------------------------------|
|-8-------------------------------5-------------------------------|
|
|Guitar 1
|---------------------------------------------------------------------------------|
|------------------11-13-----11---------------------------------------------------|
|-/14~~~~~~~~~~-14------------------14---14~~~~~~~~~~-14h15p14p12---10---9---12---|
|---------------------------------------------------------------------------------|
|---------------------------------------------------------------------------------|
|---------------------------------------------------------------------------------|
|
|Guitar 3
|---------------------------------------------------------------------------------|
|---------------------------------------------------------------------------------|
|-/10~~~~~~~~~~-10-12-14-----12-----10---10~~~~~~~~~~-10h12p10p9------------------|
|------------------------------------------------------------------12---10---14---|
|---------------------------------------------------------------------------------|
|---------------------------------------------------------------------------------|

Guitar 2
|-----------------------------------------------------------------|
|-----------------------------------------------------------------|
|---------------------------------5-------------------------------|
|-0-------------------------------5-------------------------------|
|-0-------------------------------3-------------------------------|
|-0---------------------------------------------------------------|
|
|Guitar 1
|----------------------------------12----BU----(13)-(12)~~~~~~~~~~~~~-|
|---------------------------------------------------------------------|
|-10~~~~~~~~~~~~~~~~~~~~~~~~~~~~~~------------------------------------|
|---------------------------------------------------------------------|
|---------------------------------------------------------------------|
|---------------------------------------------------------------------|
|
|Guitar 3
|---------------------------------------------------------------------|
|----------------------------------13----BU----(15)-(13)~~~~~~~~~~~~~-|
|-12~~~~~~~~~~~~~~~~~~~~~~~~~~~~~~------------------------------------|
|---------------------------------------------------------------------|
|---------------------------------------------------------------------|
|---------------------------------------------------------------------|

Guitar 2
|-----------------------------------------------------------------|
|-----------------------------------------------------------------|
|-----------------------------------------------------------------|
|-5-------------------------------8-------------------------------|
|-5-------------------------------8-------------------------------|
|-5-------------------------------8-------------------------------|
|
|Guitar 1
|---------------------------------------------------------------------------------|
|------------------11-13-----11---------------------------------------------------|
|-/14~~~~~~~~~~-14------------------14---14~~~~~~~~~~-14h15p14p12---10---9--------|
|----------------------------------------------------------------------------10---|
|---------------------------------------------------------------------------------|
|---------------------------------------------------------------------------------|
|
|Guitar 3
|---------------------------------------------------------------------------------|
|---------------------------------------------------------------------------------|
|-/10~~~~~~~~~~-10-12-14-----12-----10---10~~~~~~~~~~-10h12p10p9------------------|
|------------------------------------------------------------------12---10---7----|
|---------------------------------------------------------------------------------|
|---------------------------------------------------------------------------------|


Guitar 2
|-----------------------------------------------------------------|
|-----------------------------------------------------------------|
|---------------------------------5-------------------------------|
|-0-------------------------------5-------------------------------|
|-0-------------------------------3-------------------------------|
|-0---------------------------------------------------------------|
|
|Guitar 1
|----------------------------------------------------------------------------------15-17-18-|
|-----------------------------------------------------------------15-17-18-15-17-18---------|
|------------------7-9-10--------12-14-15--------14-15-17-14-15-17--------------------------|
|------5-7-8-7-8-10------12-14-15--------14-15-17-------------------------------------------|
|-5-7-8-------------------------------------------------------------------------------------|
|-------------------------------------------------------------------------------------------|

Guitar 1
|-20-----17-----20---20BU(22)~~~~-|
|---------------------------------|
|---------------------------------|
|---------------------------------|
|---------------------------------|
|---------------------------------|
|
|Guitar 3
|---------------------------------|
|-13-----10-----13---13BU(15)~~~~-|
|---------------------------------|
|---------------------------------|
|---------------------------------|
|---------------------------------|


_________________________________________________________________________


Repeat Pre-chorus

Repeat Chorus twice
on the second time the chorus is played, guitar 3
plays the harmony of the lead

Guitar 3
|-----------------------------------------------------------------------------|
|-----------------------------------------------------------------------------|
|-10-----9-----7---12-----10-----9---10-----9-----7---------14-------14-------|
|----0-0---0-0---0----0-0----0-0---0----0-0---0-0---0-10-12----10-12----10-12-|
|-----------------------------------------------------------------------------|
|-----------------------------------------------------------------------------|

|------------------------------------------------------------------------------|
|------------------------------------------------------------------------------|
|-10-----9-----7---12-----10-----9---10-----9-----12h14p12---------------------|
|----0-0---0-0---0----0-0----0-0---0----0-0---0-0----------14~~~~~~~~~~~~~~~~~-|
|------------------------------------------------------------------------------|
|------------------------------------------------------------------------------|

_________________________________________________________________________


Outro
Both guitars
|---------------------------------|
|---------------------------------|
|---------------------------------|
|---------------------------------|
|-0-0---0-M---0-0-0-0---0-M---0-0-|
|-0-0---0-M---0-0-0-0---0-M---0-0-|

_________________________________________________________________________











##############################################################################################
##############################################################################################
#TO BELIEVE###################################################################################
##############################################################################################
##############################################################################################








________________________________________________________________________________



Intro/Chorus
Guitar 2
||----------------------------------||
|o----------------------------------o|
||----------------------------------||
||-8-7-0-10-7-0-8-7-0-7-5-0-8-0-5-4-||
|o----------------------------------o|
||----------------------------------||
|
|Guitar 3
||--------------------------------------------||
|o--------------------------------------------o|
||--------------------------------------------||
||-20-19-0-22-19-0-20-19-0-19-17-0-20-0-17-16-||
|o--------------------------------------------o|
||--------------------------------------------||

Guitar 1
|-----------------|-----------------|-----------------|-----------------|
|-----------------|-----------------|-----------------|-----------------|
|-----------------|-3---------------|-5---------------|-----------------|
|-0---------------|-3---------------|-5---------------|-5---------------|
|-0---------------|-1---------------|-3---------------|-5---------------|
|-0---------------|-----------------|-----------------|-5---------------|


________________________________________________________________________________


Build up
Both guitars
|---------------------------------|---------------------------------|
|---------------------------------|---------------------------------|
|---------------------------------|---------------------------------|
|---------------------------------|---------------------------------|
|-------------0---0-------0-------|-------------0---3-------0-------|
|-0-0-0-------0---0-------0-------|-0-0-0-------0---3-------0-------|

|---------------------------------|---------------------------------|
|---------------------------------|---------------------------------|
|---------------------------------|---------------------------------|
|---------------------------------|---------------------------------|
|-------------0---7-------0-------|---------8---5----------10---7---|
|-0-0-0-------0---7-------0-------|-8---5----------11---7-----------|


________________________________________________________________________________



Verse 1
Both guitars
||-----------------------------------------------------------------||
|o-----------------------------------------------------------------o|
||-----------------------------------------------------------------||
||-----------------------------------------------------------------||
|o-------0-0-0-3-0-------0-0-3-5---------0-0-5-7-------8-5----10-7-o|
||-000---0-0-0-3-0-000---0-0-3-5---000---0-0-5-7---8-5----11-7-----||

________________________________________________________________________________


Verse 2
Both guitars
|-----------------------------------------------------------------|
|-----------------------------------------------------------------|
|---------5---------------3---------------2-----------------------|
|-----------8-7-5-----------7-5-3-----------5-3-2-----------------|
|-----------------------------------------------------8-5----10-7-|
|-000---0---------000---0---------000---0---------8-5----11-7-----|

|-----------------------------------------------------------------|
|-----------------------------------------------------------------|
|---------5---------------3---------------2-----------------------|
|-----------8-7-5-----------7-5-3-----------5-3-2-5-3-2---3-2-----|
|-------------------------------------------------------5-----5-4-|
|-000---0---------000---0---------000---0-------------------------|


________________________________________________________________________________


Pre-chorus
Guitar 1
|-----------------------------------------------------------------|
|-----------------------------------------------------------------|
|-----------------------------------------------------------------|
|-----------------------------------------------------------------|
|-----------------------------------------------------------------|
|-0-0M--0M--0M--0-0-0M—0M---0M--0-2-2M-—2M--2M--2-2-2M--2M--2M--2-|

Guitar 1
|-----------------------------------------------------------------|
|-----------------------------------------------------------------|
|-----------------------------------------------------------------|
|-----------------------------------------------------------------|
|-----------------------------------------------------8-5----10-7-|
|-8-8M--8M--8M--8-8-8M—8M---8M--8-7-7M-—7M--7M--7-8-5----11-7-----|

Guitar 2
  Tr----------------------------------------------------------------------
|--------------------------------------------------------------------------|
|--------------------------------------------------------------------------|
|-------7---------------10--9--7-5----7--12--10--9--------9--15--14--12-10-|
|-7-----------7-8-7----------------8---------------12-11-------------------|
|----5-----5---------5-----------------------------------------------------|
|--------------------------------------------------------------------------|


________________________________________________________________________________


Repeat Intro/Chorus

Repeat Build up

Repeat Verse 1

Repeat Verse 2

Repeat Pre-chorus

Repeat Intro/chorus

________________________________________________________________________________


Bridge
Guitar 1
|------------------------------------------------------------------|
|-------6-----------5---------3------------------------------------|
|-2-----------2-----------2-5--------------2-----------------------|
|---0-0---0-0---0-0---0-0--------0-0-5-0-0---0-0-3-0-0-5-0-0-2-3---|
|----------------------------------------------------------------3-|
|------------------------------------------------------------------|
|
|Guitar 2
|------------------------------------------------------------------|
|------------------------------------------------------------------|
|------------------------------------------------------------------|
|-0-M--------------------------------------------------------------|
|-0-M-----------------------3-5------------------------------------|
|-0-M---------------------7----------------------------------------|


Guitar 1
|------------------------------------------------------------------|
|-------6-----------5---------3------------------------------------|
|-2-----------2-----------2-5--------------2-----------------------|
|---0-0---0-0---0-0---0-0--------0-0-5-0-0---0-0-3-0-0-5-0-0-2-3~~-|
|------------------------------------------------------------------|
|------------------------------------------------------------------|
|
|Guitar 2
|------------------------------------------------------------------|
|------------------------------------------------------------------|
|------------------------------------------------------------------|
|-0-M--------------------------------------------------------------|
|-0-M-----------------------3-5------------------------------------|
|-0-M---------------------7----------------------------------------|



________________________________________________________________________________


Solo (CKB)
Guitar 1 (Rhythm)
|------------------------------------------------------------------|
|-------6-----------5---------3------------------------------------|
|-2-----------2-----------2-5--------------2-----------------------|
|---0-0---0-0---0-0---0-0--------0-0-5-0-0---0-0-3-0-0-5-0-0-2-3---|
|----------------------------------------------------------------3-|
|------------------------------------------------------------------|

|------------------------------------------------------------------|
|-------6-----------5---------3------------------------------------|
|-2-----------2-----------2-5--------------2-----------------------|
|---0-0---0-0---0-0---0-0--------0-0-5-0-0---0-0-3-0-0-5-0-0-2-3~~-|
|------------------------------------------------------------------|
|------------------------------------------------------------------|

Guitar 2
|------13~~~-------12~~~-------|
|/10~~-------10~~~-------10-13-|
|------------------------------|
|------------------------------|
|------------------------------|
|------------------------------|
|
|Guitar 3
|------------------------------|
|------10~~~~-------8~~~~------|
|----------------------------7-|
|/7~~~--------7~~~~-------10---|
|------------------------------|
|------------------------------|


Guitar 2
|-13tr17----13-----------------------------------------|
|--------15----15--------------------------------------|
|-----------------14-10tr14----10-10\9-----------------|
|---------------------------12-------------------------|
|---------------------------------------10---10/12~~~~-|
|------------------------------------------------------|
|
|Guitar 3
|-17tr20----17-----------------------------------------|
|--------18----18--------------------------------------|
|-----------------17-14tr17----14-14\12----------------|
|---------------------------15----------14---14/15-~~~-|
|------------------------------------------------------|
|------------------------------------------------------|

Guitar 2
|  T        T  T        T  T        T        T        T        T
|----------------------------------------------------------------------|
|----------------------------------------------------------------------|
|-14p12p10-14-14p12p10-14-14p12p10-14p12p10-14p12p10-14p12p10-14p12p10-|
|----------------------------------------------------------------------|
|----------------------------------------------------------------------|
|----------------------------------------------------------------------|
|
|Guitar 3
|  T        T  T        T  T        T        T        T        T
|----------------------------------------------------------------------|
|-18p17p15-18-18p17p15-18-18p17p15-18p17p15-18p17p15-18p17p15-18p17p15-|
|----------------------------------------------------------------------|
|----------------------------------------------------------------------|
|----------------------------------------------------------------------|
|----------------------------------------------------------------------|

Guitar 2
|--------------------------10-12-13-12h13p12-------|
|---------------------10-13------------------13/15-|
|----------------10-12-----------------------------|
|-----------10-12----------------------------------|
|------10-12---------------------------------------|
|-12-15--------------------------------------------|
|
|Guitar 3
|--------------------------13-15-17-15h17p15-------|
|---------------------15-17------------------17/18-|
|----------------14-17-----------------------------|
|-----------15-17----------------------------------|
|------15-17---------------------------------------|
|-12-15--------------------------------------------|

Guitar 2
  Tr-------------------------------
|-10-----12-----13-----17---15-17---|
|-----------------------------------|
|-----------------------------------|
|-----------------------------------|
|-----------------------------------|
|-----------------------------------|
|
|Guitar 3
  Tr-------------------------------
|-13-----15-----17-----20---18-20---|
|-----------------------------------|
|-----------------------------------|
|-----------------------------------|
|-----------------------------------|
|-----------------------------------|

Guitar 2
|-17h22p17----------|
|----------18----18-|
|-------------19----| x6
|-------------------|
|-------------------|
|-------------------|

Guitar 2
|-20BU(22)(20)(22)~~~~-|
|----------------------|
|----------------------|
|----------------------|
|----------------------|
|----------------------|
|
|Guitar 3
|----------------------|
|-20BU(22)(20)(22)~~~~-|
|----------------------|
|----------------------|
|----------------------|
|----------------------|


________________________________________________________________________________


Repeat Pre-chorus

Repeat Intro/Chorus

Repeat Pre-chorus

________________________________________________________________________________










##############################################################################################
##############################################################################################
#AT THE END OF THIS WAR#######################################################################
##############################################################################################
##############################################################################################








________________________________________________________________________________



Intro
Guitar 1 (Acoustic)
||-----------------------------------------------------------------|
|o---3-----3-----3-----3-----3-------3-----3-----3-----3-----3-----|
||-----2-----2-----2-----2-----2-------2-----2-----2-----2-----2---|
||-0-----0-----0-----0-----0-----0-0-----0-----0-----0-----0-----0-|
|o-----------------------------------------------------------------|
||-----------------------------------------------------------------|

|-----------1-----------------------------------------------------||
|-------3-----3-------------3---------------1-------1-----1-----1-o|
|---3-----3-----3-------3-----3---------2-----2-------0-----0-----||
|-----3-------------5-----5-----5---3-----3-----3-----------------||
|-1-------------------5---------------3-----------3-----3-----3---o|
|-----------------5---------------3-------------------------------||

|-------------------------0---1-----------------------------------|
|---3-----3-----3-----3---------3---3-----3-----3-----3-----3-----|
|-----2-----2-----2-----2---2---------2-----2-----2-----2-----2---|
|-0-----0-----0-----0-----0-----0-0-----0-----0-----0-----0-----0-|
|-----------------------------------------------------------------|
|-----------------------------------------------------------------|

|-----------1-----------------------------------------0-----------|
|-------3-----3-------------3---------------1-------1-------------|
|---3-----3-----3-------3-----3---------2-----2-------------------|
|-----3-------------5-----5-----5---3-----3-----3-----------------|
|-1-------------------5---------------3-----------3---------------|
|-----------------5---------------3-------------------------------|

Distorted guitars
|----------------|
|----------------|
|----------------|
|-0--------------|
|-0-Volume Swell-|
|-0--------------|


________________________________________________________________________________


Pre-verse
Guitar 1
|-----------------------------------------------------------------|
|-----------------------------------------------------------------|
|-----------------------------------------------------------------|
|-----------------------------------------------------------------|
|-5-------4h5---------------------5-------4h5-----8---7---5h7p5p4-|
|---0-000-----0-000-0-000-0-000-0---0-000-----0-0---0---0---------|
|
|Guitar 2
|-----------------------------------------------------------------|
|-----------------------------------------------------------------|
|-----------------------------------------------------------------|
|-0-M-------------------------------------------------------------|
|-0-M-------------------------------------------------------------|
|-0-M-------------------------------------------------------------|

Guitar 1
|-----------------------------------------------------------------|
|-----------------------------------------------------------------|
|-----------------------------------------------------------------|
|-----------------------------------------------------------------|
|-5-------4h5---------------------5-------4h5-----8---7---5h7p5p4-|
|---0-000-----0-000-0-000-0-000-0---0-000-----0-0---0---0---------|
|
|Guitar 2
|-----------------------------------------------------------------|
|-----------------------------------------------------------------|
|-----------------------------------------------------------------|
|-0-M-----0-M-----0-M-----0-M-----0-M-----0-M-----0-M-------------|
|-0-M-----0-M-----0-M-----0-M-----0-M-----0-M-----0-M-------------|
|-0-M-----0-M-----0-M-----0-M-----0-M-----0-M-----0-M-------------|


________________________________________________________________________________


Verse 1
Both guitars
||-----------------------------------------------------------------||
|o-----------------------------------------------------------------o|
||-----------------------------------------------------------------||
||-----------------------------------------------------------------||
|o-5-------4h5---------------------5-------4h5-----8---7---5h7p5p4-o|
||---0-000-----0-000-0-000-0-000-0---0-000-----0-0---0---0---------||

||------------------------------------------------------------------||
|o------------------------------------------------------------------o|
||------------------------------------------------------------------||
||------------------------------------------------------------------||
|o------------------------------------------------------------------o|
||-7-0-000-5h7-0-000-0-000-0-000-0-7-0-000-5h7-0-0-10-0-8-0-7h8p7p5-||


________________________________________________________________________________


Verse 2
Both guitars
|-----------------------------------------------------------------------|
|-----------------------------------------------------------------------|
|---------9-------10-----9----------------------------------10-----10---|
|-7----------------------------7/10-8-------12-------12---------------8-|
|---5-555---5-555----555---555------------------------------------------|
|-------------------------------------8-888----8-888----888----888------|

|-------------------------------------------------------------------|
|-------------------------------------------------------------------|
|---------9-------10-----9------------------------------------------|
|-7----------------------------7/10-8-----8-----8---7-----5-----5---|
|---5-555---5-555----555---555--------5-----5-----5---3-----3-----3-|
|---------------------------------------5-----5---------3-----2-----|

________________________________________________________________________________


Chorus
Both guitars
||----------------------------------||
|o----------------------------------o|
||-----5-----10-----9-----5-------5-||
||---7-----7------7-----7---7---7---||
|o-5-----5------5-----5-------5-----o|
||----------------------------------||

|-----------------------------------------------------------------|
|-------------------------------------------------5-----5-----5---|
|-----------------------------------------------------------------|
|-------------------------------------7-----7---------------------|
|-----5-----5-----8-----8-----8---------------3-3---3-3---3-3---3-|
|-8-8---8-8---5-5---5-5---5-5---5-3-3---3-3-----------------------|


________________________________________________________________________________


Repeat Verse 1 after both guitars play this:
|--------|
|--------|
|--------|
|--------|
|-12\----|
|-12\----|

Repeat Verse 2

Repeat Chorus


________________________________________________________________________________


Solo (CKB)
Guitar 2
|-----------------------------------|
|-----------------------------------|
|----/7~~~~-------10~~~~-9~~~~------|
|-----------7~~~~--------------10~~-|
|-----------------------------------|
|-----------------------------------|
|
|Guitar 3
|-----------------------------------|
|-----------------10~~~~-8~~~~------|
|------------------------------9~~~-|
|-----------------------------------|
|-----------------------------------|
|-----------------------------------|


Guitar 2
|-----------------------------------|
|-----------------------------------|
|----/7~~~~-------7---9---10---12---|
|-----------7~~~~-------------------|
|-----------------------------------|
|-----------------------------------|
|
|Guitar 3
|-----------------------------------|
|-----------------6---8---10---11---|
|-----------------------------------|
|-----------------------------------|
|-----------------------------------|
|-----------------------------------|

Guitar 2
|-13p10------10-13p10------10-13p10-----10p6---6-10p6---6-10p6---|
|------11--11--------11--11--------11-------8-8------8-8------8--|
|--------10------------10------------10------7--------7--------7-|
|----------------------------------------------------------------|
|----------------------------------------------------------------|
|----------------------------------------------------------------|

|-20p17------17-20p17------17-20p17-----15p12--12-----------------------|
|------18--18--------18--18--------18-----------------------------------|
|--------17------------17------------17------17—17p12-17p12--12---------|
|----------------------------------------------------------14—14\10-10~-|
|-----------------------------------------------------------------------|
|-----------------------------------------------------------------------|


Guitar 2
|-----------------------------------|
|-----------------------------------|
|----/7~~~~-------10~~~~-9~~~~------|
|-----------7~~~~--------------10~~-|
|-----------------------------------|
|-----------------------------------|
|
|Guitar 3
|-----------------------------------|
|-----------------10~~~~-8~~~~------|
|------------------------------9~~~-|
|-----------------------------------|
|-----------------------------------|
|-----------------------------------|


Guitar 2
|-----------------------------------|
|-----------------------------------|
|----/7~~~~-------7---9---10---12---|
|-----------7~~~~-------------------|
|-----------------------------------|
|-----------------------------------|
|
|Guitar 3
|-----------------------------------|
|-----------------6---8---10---11---|
|-----------------------------------|
|-----------------------------------|
|-----------------------------------|
|-----------------------------------|

Guitar 2
|-15p10------10-15p10------10-15p10-----17p13------13-17p13------17p13-----|
|------13--13--------13--13--------13--------15--15--------15--15-----15---|
|--------14--------------------------14--------17------------17---------17-|
|--------------------------------------------------------------------------|
|--------------------------------------------------------------------------|
|--------------------------------------------------------------------------|

|-22p17------17-22p17------17-22p17------17-22p17------17-22p17------17-|
|------20--20--------20--20--------20--20--------20--20--------20--20---|
|--------22------------22------------22------------22------------22-----|
|-----------------------------------------------------------------------|
|-----------------------------------------------------------------------|
|-----------------------------------------------------------------------|

Guitar 2
|-20BU(22)~~~~-20BU(22)\--|
|-------------------------|
|-------------------------|
|-------------------------|
|-------------------------|
|-------------------------|
|
|Guitar 3
|-24BU(25)~~~~-24BU(25)\--|
|-------------------------|
|-------------------------|
|-------------------------|
|-------------------------|
|-------------------------|


________________________________________________________________________________


Pre-Breakdown
Guitar 1
|----------------------------------------------------------------------|
|----------------------------------------------------------------------|
|----------------------------------------------------------------------|
|----------------------------------------------------------------------|
|----------------------------------------------------------------------|
|-0-0-0-0-----000-0-0-0-0-----000-0-0-0-0-----000-2BU(3)(2)---5BU(7)---|
|
|Guitar 2
|----------------------------------------------------------------------|
|----------------------------------------------------------------------|
|----------------------------------------------------------------------|
|----------------------------------------------------------------------|
|-------------------------------------------------4BU(5)(4)---7BU(8)---|
|----------------------------------------------------------------------|

Guitar 1
|----------------------------------------------------------------------|
|----------------------------------------------------------------------|
|----------------------------------------------------------------------|
|----------------------------------------------------------------------|
|----------------------------------------------------------------------|
|-0-0-0-0-----000-0-0-0-0-----000-0-0-0-0-----000-5BU(7)(5)---2BU(3)---|
|
|Guitar 2
|----------------------------------------------------------------------|
|----------------------------------------------------------------------|
|----------------------------------------------------------------------|
|----------------------------------------------------------------------|
|-------------------------------------------------7BU(8)(7)---4BU(5)---|
|----------------------------------------------------------------------|



________________________________________________________________________________


Breakdown       
Both guitars
|-----------------------------------------------------------------|
|-----------------------------------------------------------------|
|-----------------------------------------------------------------|
|-----------------------------------------------------------------|
|-------------------------------------------------4-4-4-4-7-7-7-7-|
|-0-0-0-0-----000-0-0-0-0-----000-0-0-0-0-----000-2-2-2-2-5-5-5-5-|

Guitar 1
|-----------------------------------------------------------------|
|-----------------------------------------------------------------|
|-----------------------------------------------------------------|
|-----------------------------------------------------------------|
|-------------------------------------------------7BU(8)(7)-4-4-4-|
|-0-0-0-0-----000-0-0-0-0-----000-0-0-0-0-----000-----------2-2-2-|
|
|Guitar 2
|-----------------------------------------------------------------|
|-----------------------------------------------------------------|
|-----------------------------------------------------------------|
|-----------------------------------------------------------------|
|-----------------------------------------------------------4-4-4-|
|-------------------------------------------------5BU(7)(5)-2-2-2-|

Both guitars
|-----------------------------------------------------------------|
|-----------------------------------------------------------------|
|-----------------------------------------------------------------|
|-----------------------------------------------------------------|
|-------------------------------------------------4-4-4-4-7-7-7-7-|
|-0-0-0-0-----000-0-0-0-0-----000-0-0-0-0-----000-2-2-2-2-5-5-5-5-|

Guitar 1
|----------------------------------------------------------------------|
|----------------------------------------------------------------------|
|----------------------------------------------------------------------|
|----------------------------------------------------------------------|
|----------------------------------------------------------------------|
|-0-0-0-0-----000-0-0-0-0-----000-0-0-0-0-----000-5BU(7)(5)---2BU(3)---|
|
|Guitar 2
|----------------------------------------------------------------------|
|----------------------------------------------------------------------|
|----------------------------------------------------------------------|
|----------------------------------------------------------------------|
|-------------------------------------------------7BU(8)(7)---4BU(5)---|
|-0-0-0-0-----000-0-0-0-0-----000-0-0-0-0-----000----------------------|

________________________________________________________________________________


Repeat Chorus

________________________________________________________________________________


Finish on:
Both guitars
|-----------------|
|-----------------|
|-----------------|
|-0---------------|
|-0---------------|
|-0---------------|

________________________________________________________________________________









##############################################################################################
##############################################################################################
#THROUGH BLOOD AND DIRT AND BONE##############################################################
##############################################################################################
##############################################################################################








________________________________________________________________________________



Intro
Guitar 1
||--------------------------------------------------------------------------||
|o--------------------------------------------------------------------------o|
||--------------------------------------------------------------------------||
||-0------------------------------------------------------------------------||
|o-0------------------------------------------------------------------------o|
||-0------------------------------------------------------------------------||
|
|Guitar 2
||--------------------------------------------------------------------------||
|o-------10-----------11---8-----------10----------------10----13/15--------o|
||-7------------7-------------------------10p9--------------10-------12-----||
||---0-0----0-0---0-0----0---0-0-0-0-0---------0-0-0-0-0----------------0-0-||
|o--------------------------------------------------------------------------o|
||--------------------------------------------------------------------------||

Guitar 1
||--------------------------------------------------------------------------||
|o-------10-----------11---8-----------10----------------10----13/15--------o|
||-7------------7-------------------------10p9--------------10-------12-----||
||---0-0----0-0---0-0----0---0-0-0-0-0---------0-0-0-0-0----------------0-0-||
|o--------------------------------------------------------------------------o|
||--------------------------------------------------------------------------||
|
|Guitar 2
||-----------------------------------------------------------------||
|o-----------------------------------------------------------------o|
||-----------------------------------------------------------------||
||-----------------------------------------------------------------||
|o-----------------------------------------------------------------o|
||-0-0-0-0-0-0-0-0-2-2-2-2-2-2-2-2-3-3-3-3-3-3-3-3-5-5-5-5-5-5-5-5-||


________________________________________________________________________________


Main Verse
Both guitars
|---------------------------------------------------------------------|
|---------------------------------------------------------------------|
|---------------------------------------------------------------------|
|-------7-----------8----5-----------7---------------7---10/12--------|
|-5-----------5------------------------8-7\5-----------8-------10-----|
|---0-0---0-0---0-0---0----0-000-0-0---------000-0-0--------------0-0-|

Guitar 1
|---------------------------------------------------------------------|
|---------------------------------------------------------------------|
|---------------------------------------------------------------------|
|-------7-----------8----5-----------7---------------7---10/12--------|
|-5-----------5------------------------8-7\5-----------8-------10-----|
|---0-0---0-0---0-0---0----0-000-0-0---------000-0-0--------------0-0-|
|
|Guitar 2
|----------------------------------------------------------------------------|
|----------------------------------------------------------------------------|
|----------------------------------------------------------------------------|
|-------10-----------12----8-----------10-----------------10----14/15--------|
|-8------------8--------------------------12-10\8------------12-------13-----|
|---0-0----0-0---0-0----0----0-000-0-0------------000-0-0----------------0-0-|


________________________________________________________________________________


Verse 1
Both guitars
|-------------------------------------------------|
|-------------------------------------------------|
|-------------------------------------------------|
|-0-0-0-0-M---0-0-0-0-M---0-0-0-0-M---0-----------|
|-0-0-0-0-M---0-0-0-0-M---0-0-0-0-M---0---0-0-0-0-|
|-0-0-0-0-M-0-0-0-0-0-M-0-0-0-0-0-M-0-0---0-0-0-0-|

|-------------------------------------------------|
|-------------------------------------------------|
|-------------------------------------------------|
|-0-0-0-0-M---0-0-0-0-M---0-0-0-0-M---------------|
|-0-0-0-0-M---0-0-0-0-M---0-0-0-0-M---------------|
|-0-0-0-0-M-0-0-0-0-0-M-0-0-0-0-0-M-0-0-0-2-2-3-3-|

|-------------------------------------------------|
|-------------------------------------------------|
|-------------------------------------------------|
|-8-8-8-8-M---8-8-8-8-M---8-8-8-8-M---8-8---------|
|-8-8-8-8-M---8-8-8-8-M---8-8-8-8-M---8-8-8-8-8-8-|
|-8-8-8-8-M-8-8-8-8-8-M-8-8-8-8-8-M-8-8-8-8-8-8-8-|

Guitar 1
|-------------------------------------------------|
|-------------------------------------------------|
|-------------------------------------------------|
|-7-7-7-7-M---7-7-7-7-M---11-11-11-11-M-----------|
|-7-7-7-7-M---7-7-7-7-M---12-12-12-12-M-----------|
|-7-7-7-7-M-7-7-7-7-7-M-7-11-11-11-11-M---/11~~~~-|
|
|Guitar 2
|-------------------------------------------------|
|-------------------------------------------------|
|-------------------------------------------------|
|-7-7-7-7-M---7-7-7-7-M---11-11-11-11-M---7PH~~~~-|
|-7-7-7-7-M---7-7-7-7-M---12-12-12-12-M-----------|
|-7-7-7-7-M-7-7-7-7-7-M-7-11-11-11-11-M-----------|


________________________________________________________________________________


Verse 2
Both guitars
||---------------------------------------------------------------------||
|o---------------------------------------------------------------------o|
||---------------------------------------------------------------------||
||-------7-----------8----5-----------7---------------7---10/12--------||
|o-5-----------5------------------------8-7-------------8-------10-----o|
||---0-0---0-0---0-0---0----0-0-0-0-0-------0-0-0-0-0--------------0-0-||


________________________________________________________________________________


Chorus
Guitar 1
|-----------------------------------------------------------------|
|-----------------------------------------------------------------|
|-----------------------------------------------------------------|
|-0-0-0-0-0-0-0-0-0-0-0-0-0-0-0-0-0-0-0-0-0-0-0-0-0-0-0-0-0-0-0-0-|
|-0-0-0-0-0-0-0-0-0-0-0-0-0-0-0-0-0-0-0-0-0-0-0-0-0-0-0-0-0-0-0-0-|
|-0-0-0-0-0-0-0-0-0-0-0-0-0-0-0-0-0-0-0-0-0-0-0-0-0-0-0-0-0-0-0-0-|
|
|Guitar 2
||------------------------------------||
|o------------------------------------o|
||---7-9---7-10---7-9---7-10---7-10-9-||
||-7-----7------7-----7------7--------||
|o------------------------------------o|
||------------------------------------||

Guitar 1
|-------------------------------------------------------------------------|
|-------------------------------------------------------------------------|
|-------------------------------------------------------------------------|
|-8-8-8-8-8-8-8-8-8-8-8-8-8-8-8-8-10-10-10-10-10-10-10-10-7-7-7-7-7-7-7-7-|
|-8-8-8-8-8-8-8-8-8-8-8-8-8-8-8-8-10-10-10-10-10-10-10-10-7-7-7-7-7-7-7-7-|
|-8-8-8-8-8-8-8-8-8-8-8-8-8-8-8-8-10-10-10-10-10-10-10-10-7-7-7-7-7-7-7-7-|
|
|Guitar 2
|-------------------------------------------------------------------------|
|-------------------------------------------------------------------------|
|---7-9---7-10---7-9---7-10---7-10-9----9-10-9-10-12-10-9---6-7-6-7-9-7-6-|
|-8-----8------8-----8------8--------10-------------------7---------------|
|-------------------------------------------------------------------------|
|-------------------------------------------------------------------------|


________________________________________________________________________________


Repeat Verse 1

Repeat Verse 2

Repeat Chorus

________________________________________________________________________________


Bridge
Guitar 1
|-----------------------------------------------------------------|
|-----------------------------------------------------------------|
|-------------------------------------------------6-6-6-6-6-6-6-6-|
|-5-5-5-5-5-5-5-5-5-5-5-5-5-5-5-5-7-7-7-7-7-7-7-7-7-7-7-7-7-7-7-7-|
|-5-5-5-5-5-5-5-5-5-5-5-5-5-5-5-5-7-7-7-7-7-7-7-7-4-4-4-4-4-4-4-4-|
|-5-5-5-5-5-5-5-5-5-5-5-5-5-5-5-5-7-7-7-7-7-7-7-7-----------------|
|
|Guitar 2
|------------------------------------------------------------------------|
|----------------------------------------------------------8------8------|
|-7---7---7---7---7---7---9---9---10---10---10---10------9---9------9----|
|---5---5---5---5---5---5---5---5----7----7----7----7-11-------11-----11-|
|------------------------------------------------------------------------|
|------------------------------------------------------------------------|


________________________________________________________________________________


Breakdown
Both guitars
||-----------------------------------------------------------------||
|o-----------------------------------------------------------------o|
||-----------------------------------------------------------------||
||-----------------------------------------------------------------||
|o-000000000-------444-444-----0-2-555555555-------7-7-7-7-2-2-2-2-o|
||-000000000-------222-222-----0-2-333333333-------5-5-5-5-2-2-2-2-||

________________________________________________________________________________


Solo 1 (MKH)
Guitar 2 (Rhythm)

The rhythm played is Verse 1

Guitar 1 (Lead)
|---------------------------------------------------|
|---------------------------------------------------|
|-/12~~~~~~~~~-10~~~~~~~~~~-9~~~~~~~~~~-7~~~~~~~~~~-|
|---------------------------------------------------|
|---------------------------------------------------|
|---------------------------------------------------|

|--------------------------------------------------------------------|
|---------------------------------------13BU(15)~~~---------10-11-13-|
|-/12~~~-14~~~-10~~~-12~~~~-9~~~-10~~~~-------------9-10-12----------|
|--------------------------------------------------------------------|
|--------------------------------------------------------------------|
|--------------------------------------------------------------------|

|-----------------------------------------------------------------|
|-/18~~~~~~~~~~-17~~----------11-13-15-/20~~~~~~~~~~-18~~~~~~~~~~-|
|--------------------10-12-14-------------------------------------|
|-----------------------------------------------------------------|
|-----------------------------------------------------------------|
|-----------------------------------------------------------------|

|-18-17h18p17--17------17-15h17p15--15------15-13h15p13--13-----|
|------------18--18-15------------17--17-14------------15--15---|
|------------------------------------------------------------14-|
|---------------------------------------------------------------|
|---------------------------------------------------------------|
|---------------------------------------------------------------|

|-17BU(18)~~~~~~~~~~~~~~~~-|
|--------------------------|
|--------------------------|
|--------------------------|
|--------------------------|
|--------------------------|


________________________________________________________________________________



Solo 2 (CKB)
Guitar 1 (Rhythm)

The rhythm played is Verse 2

Guitar 2 (Lead)
|---------------------------------------------------------------|
|-20BU(22)---20BU(22)---20BU(22)---22BU(23)(22)p20-20BU(22)~~~~-|
|---------------------------------------------------------------|
|---------------------------------------------------------------|
|---------------------------------------------------------------|
|---------------------------------------------------------------|

|-22p17----17-----------------------------------|
|-------18----18\15-----------------------------|
|-------------------14-------------9-10-9-------|
|----------------------15-12-11-12--------12-11-|
|-----------------------------------------------|
|-----------------------------------------------|

|-------------------------------------------------|
|------------10---------11h13p11-10-11-10---------|
|-10-9-10-12----12-10-9-------------------12-10-9-|
|-------------------------------------------------|
|-------------------------------------------------|
|-------------------------------------------------|

Guitar 2
|-----------------------------|
|-----------------------------|
|-/10~~-12-9~~~-/9~~-10-7~~~~-|
|-----------------------------|
|-----------------------------|
|-----------------------------|
|
|Guitar 3
|-----------------------------|
|-----------------------------|
|-/14~~-15-12~~-/12~~-14-10~~-|
|-----------------------------|
|-----------------------------|
|-----------------------------|

Guitar 2
|-------------------------------------------------|
|----------------------------------13-15-13----13-|
|-------------------------12-14-15----------15----|
|----------------12-14-15-------------------------|
|-15-13-12-13-15----------------------------------|
|-------------------------------------------------|
|
|Guitar 3
|----------------------------------12-13-12----12-|
|-------------------------11-13-15----------15----|
|----------------10-12-14-------------------------|
|-14-12-10-12-14----------------------------------|
|-------------------------------------------------|
|-------------------------------------------------|

Guitar 2
|-13-12-10-12-15-13-12-13-17\-|
|-----------------------------|
|-----------------------------|
|-----------------------------|
|-----------------------------|
|-----------------------------|
|
|Guitar 3
|-17-15-13-15-18-17-15-17-22\-|
|-----------------------------|
|-----------------------------|
|-----------------------------|
|-----------------------------|
|-----------------------------|


________________________________________________________________________________


Repeat Chorus

Repeat Bridge

________________________________________________________________________________


Outro
Both guitars
||-----------------------------------------------------------------||
|o-----------------------------------------------------------------o|
||-----------------------------------------------------------------||
||-----------------------------------------------------------------||
|o-000000000-------000-000-----0-0-000000000-------0-0-0-0-0-0-0-0-o|
||-000000000-------000-000-----0-0-000000000-------0-0-0-0-0-0-0-0-||

________________________________________________________________________________









##############################################################################################
##############################################################################################
#VILLAINY THRIVES#############################################################################
##############################################################################################
##############################################################################################








________________________________________________________________________________


Intro
Guitar 1
|-----------------------------------------------------------------|
|-----------------------------------------------------------------|
|-----------------------------------------------------------------|
|-----3---2---0-------5-----5---5-----7---5---3-------8-------5---|
|---0---0---0---0---4-----4---------3---3---3---3---8---8---4---4-|
|-0---------------2-----2-----2---3---------------8-------2-------|

|-------------------------------------------------------------------------|
|-------------------------------------------------------------------------|
|-------------------------------------------------------------------------|
|-----3---2---0-------5-----5---5-----7---5---3-------12-------5-BU-(7)~~-|
|---0---0---0---0---4-----4---------3---3---3---3---8----8---7------------|
|-0---------------2-----2-----2---3---------------8--------7--------------|

Both guitars
|---------|
|---------|
|---------|
|---------|
|---------|
|-12\-----|


________________________________________________________________________________


Pre-verse
Guitar 1
||-----------------------------------------------------------------||
|o-----------------------------------------------------------------o|
||-----------------------------------------------------------------||
||-----------------------------------------------------------------||
|o-------------------------------------------------------------1-M-o|
||-0-M---0-M---0-0-0-0-M---0-M---0-M---0-0-0-0-M---3-3-3-3-2-3-----||
|
|Guitar 2
||-----------------------------------------------------------------||
|o-----------------------------------------------------------------o|
||-----------------------------------------------------------------||
||-----------------------------------------------------------------||
|o-------------------------------------------------------------1-M-o|
||-------------------------------------------------3-3-3-3-2-3-----||


________________________________________________________________________________


Verse 1 part 1
Both guitars
||-----------------------------------------------------------------||
|o-----------------------------------------------------------------o|
||-----------------------------------------------------------------|| x4
||-----------------------------------------------------------------||
|o-------------------------------------------------------------1-M-o|
||-0-M---0-M---0-0-0-0-M---0-M---0-M---0-0-0-0-M---3-3-3-3-2-3-----||

________________________________________________________________________________


Verse 1 part 2
Guitar 1
|-----------------------------------------------------------------|
|-----------------------------------------------------------------|
|-----------------------------------------------------------------|
|-0---------------------------------------------------------------|
|-0---------------------------------------------------------------|
|-0---------------------------------------------------------------|
|
|Guitar 2
||-----------------------------------------------------------------||
|o-----------------------------------------------------------------o|
||-----------------------------------------------------------------||
||-----------------------------------------------------------------||
|o-------------------------------------------------------------1-M-o|
||-0-M---0-M---0-0-0-0-M---0-M---0-M---0-0-0-0-M---3-3-3-3-2-3-----||

Both guitars
||-----------------------------------------------------------------||
|o-----------------------------------------------------------------o|
||-----------------------------------------------------------------||
||-----------------------------------------------------------------||
|o-------------------------------------------------------------1-M-o|
||-0-M---0-M---0-0-0-0-M---0-M---0-M---0-0-0-0-M---3-3-3-3-2-3-----||



________________________________________________________________________________


Verse 2
Both guitars
||-----------------------------------------------------------------|
|o-----------------------------------------------------------------|
||-----------------------------------------------------------------|
||-----------------------------------------------------------------|
|o-----------------------------------------------------------------|
||-2-2-2-2-2-2-2-2-2-2-2-2-2-2-2-2-3-3-3-3-3-3-3-3-3-3-3-3-3-3-3-3-|

|-----------------------------------------------------------------|
|-----------------------------------------------------------------|
|-----------------------------------------------------------------|
|-----------------------------------------------------------------|
|-----------------------------------------------------------------|
|-5-5-5-5-5-5-5-5-5-5-5-5-5-5-5-5-0-0-0-0-0-0-0-0-0-0-0-0-0-0-0-0-|

|-----------------------------------------------------------------|
|-----------------------------------------------------------------|
|-----------------------------------------------------------------|
|-----------------------------------------------------------------|
|-----------------------------------------------------------------|
|-2-2-2-2-2-2-2-2-2-2-2-2-2-2-2-2-3-3-3-3-3-3-3-3-3-3-3-3-3-3-3-3-|

|-----------------------------------------------------------------||
|-----------------------------------------------------------------o|
|-----------------------------------------------------------------||
|-----------------------------------------------------------------||
|-----------------------------------------------------------------o|
|-5-5-5-5-5-5-5-5-5-5-5-5-5-5-5-5-8-7-5-8-7-5-8-7-5-8-7-5-8-7-5-7-||


________________________________________________________________________________


Chorus
Guitar 1
|-----------------|-----------------|-----------------|-----------------|
|-----------------|-----------------|-----------------|-----------------|
|-----------------|-----------------|-----------------|-----------------|
|-5---------------|-0---------------|-8---------------|-3------7--------|
|-5---------------|-0---------------|-8---------------|-3------7--------|
|-5---------------|-0---------------|-8---------------|-3------7--------|
|
|Guitar 2
|-----------------|-----------------|-----------------|-----------------|
|-8---------------|-15--------------|-11--------------|-6-----10--------|
|-----------------|-----------------|-----------------|-----------------|
|-5---------------|-12--------------|--8--------------|-3------7--------|
|-----------------|-----------------|-----------------|-----------------|
|-----------------|-----------------|-----------------|-----------------|
________________________________________________________________________________


Verse 3 part 1
Guitar 1
|-----------------------------------------------------------------|
|-----------------------------------------------------------------|
|-----------------------------------------------------------------|
|-----------------------------------------------------------------|
|-------------------------------------------------------------1-M-|
|-0-M---0-M---0-0-0-0-M---0-M---0-M---0-0-0-0-M---3-3-3-3-2-3-----|
|
|Guitar 2
|-----------------------------------------------------------------|
|-----------------------------------------------------------------|
|-----------------------------------------------------------------|
|-----------------------------------------------------------------|
|-------------------------------------------------------------1-M-|
|-------------------------------------------------3-3-3-3-2-3-----|

Both guitars
|-----------------------------------------------------------------|
|-----------------------------------------------------------------|
|-----------------------------------------------------------------|
|-----------------------------------------------------------------|
|-------------------------------------------------------------1-M-|
|-0-M---0-M---0-0-0-0-M---0-M---0-M---0-0-0-0-M---3-3-3-3-2-3-----|


Both guitars
||-----------------------------------------------------------------||
|o-----------------------------------------------------------------o|
||-----------------------------------------------------------------||
||-----------------------------------------------------------------||
|o-------------------------------------------------------------4-M-o|
||-3-M---3-M---3-3-3-3-M---3-M---3-M---3-3-3-3-M---6-6-6-6-5-6-----||



________________________________________________________________________________


Verse 3 part 2
Guitar 1
|-----------------------------------------------------------------|
|-----------------------------------------------------------------|
|-----------------------------------------------------------------|
|-0---------------------------------------------------------------|
|-0---------------------------------------------------------------|
|-0---------------------------------------------------------------|
|
|Guitar 2
||-----------------------------------------------------------------||
|o-----------------------------------------------------------------o|
||-----------------------------------------------------------------||
||-----------------------------------------------------------------||
|o-------------------------------------------------------------1-M-o|
||-0-M---0-M---0-0-0-0-M---0-M---0-M---0-0-0-0-M---3-3-3-3-2-3-----||

Both guitars
||-----------------------------------------------------------------||
|o-----------------------------------------------------------------o|
||-----------------------------------------------------------------||
||-----------------------------------------------------------------||
|o-------------------------------------------------------------1-M-o|
||-0-M---0-M---0-0-0-0-M---0-M---0-M---0-0-0-0-M---3-3-3-3-2-3-----||

Guitar 1
|-----------------------------------------------------------------|
|-----------------------------------------------------------------|
|-----------------------------------------------------------------|
|-3---------------------------------------------------------------|
|-3---------------------------------------------------------------|
|-3---------------------------------------------------------------|
|
|Guitar 2
||-----------------------------------------------------------------||
|o-----------------------------------------------------------------o|
||-----------------------------------------------------------------||
||-----------------------------------------------------------------||
|o-------------------------------------------------------------4-M-o|
||-3-M---3-M---3-3-3-3-M---3-M---3-M---3-3-3-3-M---6-6-6-6-5-6-----||

Both guitars
||-----------------------------------------------------------------||
|o-----------------------------------------------------------------o|
||-----------------------------------------------------------------||
||-----------------------------------------------------------------||
|o-------------------------------------------------------------1-M-o|
||-0-M---0-M---0-0-0-0-M---0-M---0-M---0-0-0-0-M---3-3-3-3-2-3-----||


________________________________________________________________________________


Repeat Verse 2

Repeat Chorus

________________________________________________________________________________


Pre-Breakdown
Guitar 1
|---------------------------------------------------------------|
|---------------------------------------------------------------|
|---------------------------------------------------------------|
|---------------------------------------------------------------|
|-5-------3-------5-4-5---------------8-7-8-----1-1-1-1-4-4-4-4-|
|-----0---3---0-----------0---0---0-----------0-----------------|

Guitar 1
|---------------------------------------------------------------|
|---------------------------------------------------------------|
|---------------------------------------------------------------|
|---------------------------------------------------------------|
|-5-------3-------5-4-5---------------8-7-8-----1-1-1-1-0-0-0-0-|
|-----0---3---0-----------0---0---0-----------0-----------------|
|
|Guitar 2
|---------------------------------------------------------------|
|---------------------------------------------------------------|
|---------------------------------------------------------------|
|---------------------------------------------------------------|
|-------------------------------------8-7-8---------------------|
|---------------------------------------------------------------|

________________________________________________________________________________


Breakdown part 1
Guitar 1
|---------------------------------------------------------------|
|---------------------------------------------------------------|
|---------------------------------------------------------------|
|---------------------------------------------------------------|
|-5-------3-------5-4-5---------------8-7-8-----1-1-1-1-4-4-4-4-|
|-----0---3---0-----------0---0---0-----------0-----------------|

Guitar 1
|---------------------------------------------------------------|
|---------------------------------------------------------------|
|---------------------------------------------------------------|
|---------------------------------------------------------------|
|-5-------3-------5-4-5---------------8-7-8-----1-1-1-1-0-0-0-0-|
|-----0---3---0-----------0---0---0-----------0-----------------|

Guitar 1
|---------------------------------------------------------------|
|---------------------------------------------------------------|
|---------------------------------------------------------------|
|---------------------------------------------------------------|
|-5-5-5-----------5-4-5---------------8-7-8-----1-1-1-1-4-4-4-4-|
|---------3-3-3-----------0---0---0-----------0-----------------|

Guitar 1
|---------------------------------------------------------------|
|---------------------------------------------------------------|
|---------------------------------------------------------------|
|---------------------------------------------------------------|
|-5-5-5-----------5-4-5---------------8-7-8-----1-1-1-1-0-0-0-0-|
|---------3-3-3-----------0---0---0-----------0-----------------|

________________________________________________________________________________


Breakdown part 2
Guitar 1
||---------------------------------------------------------------||
|o---------------------------------------------------------------o|
||---------------------------------------------------------------||
||---------------------------------------------------------------||
|o-----------------3-2-3---0---0---0---7-5-7---0---0-------------o|
||-7-7-7---5-5-5---3-2-3---0---0---0---7-5-7---0---0---3-2-3~~~~-||
|
|Guitar 2
||---------------------------------------------------------------||
|o---------------------------------------------------------------o|
||---------------------------------------------------------------||
||---------------------------------------------------------------||
|o-----------------3-2-3---0---0---0---7-5-7---0---0---8-7-8~~~~-o|
||-7-7-7---5-5-5---3-2-3---0---0---0---7-5-7---0---0-------------||

Guitar 1
|---------------------------------------------------------------|
|---------------------------------------------------------------|
|---------------------------------------------------------------|
|---------------------------------------------------------------|
|---------------------------------------------------------------|
|-7-7-7---5-5-5---3-2-3~~~~~~~~~~~~---7-5-7~~~~~~~~---3-2-3~~~~-|
|
|Guitar 2
|---------------------------------------------------------------|
|---------------------------------------------------------------|
|---------------------------------------------------------------|
|---------------------------------------------------------------|
|-----------------------------------------------------8-7-8~~~~-|
|-7-7-7---5-5-5---3-2-3~~~~~~~~~~~~---7-5-7~~~~~~~~-------------|


________________________________________________________________________________


Solo 1 (CKB)
Guitar 1 (Rhythm)

Verse 2 is the rhythm played behind this solo

Guitar 2 (Lead)
|--------------------------------------------------|
|-/15h17~~~~-17~~~~-17~~-17~~-18p17p15~~-17~~-18~~-|
|--------------------------------------------------|
|--------------------------------------------------|
|--------------------------------------------------|
|--------------------------------------------------|

|-/17~~-16h17p16----16-------------------------------|
|----------------18----18-17-18-17-15h17p15-13-15-13-|
|----------------------------------------------------|
|----------------------------------------------------|
|----------------------------------------------------|
|----------------------------------------------------|

|----------------------------------------------|
|----13----------------------------------------|
|-16----16-14-16-14-13-14-13----13-------------|
|----------------------------15----15-14-15-12-|
|----------------------------------------------|
|----------------------------------------------|

Guitar 2
|--------------------------------------|
|-/15~~~~-13~~~~-12~~------------------|
|---------------------14~~~~~~~~~~~~~~-|
|--------------------------------------|
|--------------------------------------|
|--------------------------------------|
|
|Guitar 3
|--------------------------------------|
|-/12~~~~-10~~~~~-8~~------------------|
|---------------------10~~~~~~~~~~~~~~-|
|--------------------------------------|
|--------------------------------------|
|--------------------------------------|

Guitar 2
|----------------------------------------17~~-16~~-|
|-/15~~~~-13-15-17~~~~-15-17-18--17--18------------|
|--------------------------------------------------|
|--------------------------------------------------|
|--------------------------------------------------|
|--------------------------------------------------|
|
|Guitar 3
|--------------------------------------------------|
|-/12~~~~-10-12-13~~~~-12-13-15--13--15--18~~-17~~-|
|--------------------------------------------------|
|--------------------------------------------------|
|--------------------------------------------------|
|--------------------------------------------------|

Guitar 2
|---------------------------------------------|
|-18-17-15---17-15-13---15-13-12---13-12-10---|
|---------------------------------------------|
|---------------------------------------------|
|---------------------------------------------|
|---------------------------------------------|

|-------------------------------------------------|
|-12-13-12-10-12-10----10-------------------------|
|-------------------14----14-13-14-13-10-13-10----|
|----------------------------------------------12-|
|-------------------------------------------------|
|-------------------------------------------------|

________________________________________________________________________________


Solo 2 (MKH)
Guitar 2 (Rhythm)

Verse 2 is the rhythm played behind this solo
In single power chord form

Guitar 1 (Lead)
|-12~~~~~~~~~~----------------12-13-|
|-15BU(17)~~~~-15BU(17)~~~~~~-------|
|-----------------------------------|
|-----------------------------------|
|-----------------------------------|
|-----------------------------------|

|-16-13-12----13-12-------12----------------------|
|----------15-------15-13----15-13-12-15-13-12----|
|----------------------------------------------14-|
|-------------------------------------------------|
|-------------------------------------------------|
|-------------------------------------------------|

|-------------------------------------------------------12-13-16-12-13-16-|
|-------------------------------------12-13-15-12-13-15-------------------|
|-------------------10-13-14-10-13-14-------------------------------------|
|-10-12-14-10-12-14-------------------------------------------------------|
|-------------------------------------------------------------------------|
|-------------------------------------------------------------------------|

|-17-16-17-19-19BU(20)(19)-17-16-|
|--------------------------------|
|--------------------------------|
|--------------------------------|
|--------------------------------|
|--------------------------------|

|---------------------------------------13-0-0-12-0-0-13-0-0-16-0-0-13-0-12-0-|
|-12-0-0-10-0-0-12-0-0-13-0-0-12-0-10-0---------------------------------------|
|-----------------------------------------------------------------------------|
|-----------------------------------------------------------------------------|
|-----------------------------------------------------------------------------|
|-----------------------------------------------------------------------------|

|-17-0-16-0-13-0-12-0-16-0-13-0-12-0-10-0-|
|-----------------------------------------|
|-----------------------------------------|
|-----------------------------------------|
|-----------------------------------------|
|-----------------------------------------|

Guitar 1
  Tr-----------------
|-20---19---17--------|-20BU(22)~~~~~~~~~-|
|----------------18---|-------------------|
|---------------------|-------------------|
|---------------------|-------------------|
|---------------------|-------------------|
|---------------------|-------------------|
|
|Guitar 3
  Tr-----------------
|-17---16---13--------|-------------------|
|---------------------|-17BU(18)~~~~~~~~~-|
|---------------------|-------------------|
|---------------------|-------------------|
|---------------------|-------------------|
|---------------------|-------------------|


________________________________________________________________________________


Repeat Pre-verse

Repeat Chorus

________________________________________________________________________________


Outro
Both guitars
||-------------------------------------------------||
|o-------------------------------------------------o|
||-------------------------------------------------||
||-------------------------------------------------||
|o-------------------------------------------------o|
||-0-M---0-M---0-0-0-0-M---0-M---0-M---0-0-0-0-M---||

________________________________________________________________________________











##############################################################################################
##############################################################################################
#INCINERATION: THE BROKEN WORLD###############################################################
##############################################################################################
##############################################################################################








________________________________________________________________________________


Intro
Both guitars
|--------|
|--------|
|--------|
|--------|
|-12\----|
|-12\----|

Guitar 1
|-----------------------------------------------------------------|
|-----------------------------------------------------------------|
|-----------------------------------------------------------------|
|---------------4~~~~-----------4~~~~-----------4~~~~-5-4---4-----|
|---------3-5-6-----------3-5-6-----------3-5-6-----------6---5-6-|
|-0---0---------------0---------------0---------------------------|
|
|Guitar 2
|-----------------------------------------------------------------|
|-----------------------------------------------------------------|
|-----------------------------------------------------------------|
|-0---------------------------------------------------------------|
|-0---------------------------------------------------------------|
|-0---------------------------------------------------------------|

Guitar 1
|-----------------------------------------------------------------|
|-----------------------------------------------------------------|
|-----------------------------------------------------------------|
|---------------4~~~~-----------4~~~~-----------4~~~~-7-5-4-5---4-|
|---------3-5-6-----------3-5-6-----------3-5-6---------------6---|
|-0---0---------------0---------------0---------------------------|
|
|Guitar 2
|-----------------------------------------------------------------|
|-----------------------------------------------------------------|
|-----------------------------------------------------------------|
|-----------------------------------------------------7-5-4-5---4-|
|-------------------------------------------------------------6---|
|-0-M-0-M---------------------------------------------------------|



________________________________________________________________________________


Main Verse
Both guitars
|-----------------------------------------------------------------|
|-----------------------------------------------------------------|
|-----------------------------------------------------------------|
|---------------4~~~~-----------4~~~~-----------4~~~~-5-4---4-----|
|---------3-5-6-----------3-5-6-----------3-5-6-----------6---5-6-|
|-0---0---------------0---------------0---------------------------|

|-----------------------------------------------------------------|
|-----------------------------------------------------------------|
|-----------------------------------------------------------------|
|---------------4~~~~-----------4~~~~-----------4~~~~-7-5-4-5---4-|
|---------3-5-6-----------3-5-6-----------3-5-6---------------6---|
|-0---0---------------0---------------0---------------------------|


________________________________________________________________________________


Verse 1 part 1
Guitar 1
|-----------------------------------------------------------------|
|-----------------------------------------------------------------|
|-----------------------------------------------------------------|
|-0---------------------------------------------------------------|
|-0---------------------------------------------------------------|
|-0---------------------------------------------------------------|
|
|Guitar 2
||--------------------||-1st-ending-----------|-2nd-ending--------------|
|o--------------------o|----------------------|-------------------------|
||--------------------||---------11h12p11--11-|-11h12p11--11------------|
||-12-0-0-10-0-0-12-0-||-0-13-0-0--------13---|---------13--12-13-10-12-|
|o--------------------o|----------------------|-------------------------|
||--------------------||----------------------|-------------------------|

Guitar 1
|-----------------------------------------------------------------|
|-----------------------------------------------------------------|
|-----------------------------------------------------------------|
|-5---------------------------------------------------------------|
|-5---------------------------------------------------------------|
|-5---------------------------------------------------------------|
|
|Guitar 2
||--------------------||-1st-ending-----------|-2nd-ending--------------|
|o--------------------o|---------11h13p11--11-|-11h13p11--11------------|
||-12-0-0-11-0-0-12-0-||-0-14-0-0--------14---|---------14--12-14-11-12-|
||--------------------||----------------------|-------------------------|
|o--------------------o|----------------------|-------------------------|
||--------------------||----------------------|-------------------------|

Guitar 1
|-----------------------------------------------------------------|
|-----------------------------------------------------------------|
|-----------------------------------------------------------------|
|-0---------------------------------------------------------------|
|-0---------------------------------------------------------------|
|-0---------------------------------------------------------------|
|
|Guitar 2
||--------------------||-1st-ending-----------|-2nd-ending--------------|
|o--------------------o|----------------------|-------------------------|
||--------------------||---------11h12p11--11-|-11h12p11--11------------|
||-12-0-0-10-0-0-12-0-||-0-13-0-0--------13---|---------13--12-13-10-12-|
|o--------------------o|----------------------|-------------------------|
||--------------------||----------------------|-------------------------|

Guitar 1
  Tr------------------------------
|------------------------------------------------------------------|
|------------------------------------------------------------------|
|------------------------------------------------------------------|
|----------------------------------1-----------0-------------------|
|----------------------------------1-----------0-------------------|
|-10-------------------------------1-----------0-------------------|
|
|Guitar 2
  Tr------------------------------
|------------------------------------------------------------------|
|------------------------------------------------------------------|
|------------------------------------------------------------------|
|-13-----------12-----------10-----8-----------7-------------------|
|------------------------------------------------------------------|
|------------------------------------------------------------------|


________________________________________________________________________________

Verse 1 part 2
Guitar 1
|-----------------------------------------------------------------|
|-----------------------------------------------------------------|
|-----------------------------------------------------------------|
|-----------------------------------------------------------------|
|-----------------------------------------------------------------|
|-0-0-0-0-0-0-0-0-0-0-0-0-0-0-0-0-0-0-0-0-0-0-0-0-0-0-0-0-0-0-0-0-|
|
|Guitar 2
||--------------------||-1st-ending-----------|-2nd-ending--------------|
|o--------------------o|----------------------|-------------------------|
||--------------------||---------11h12p11--11-|-11h12p11--11------------|
||-12-0-0-10-0-0-12-0-||-0-13-0-0--------13---|---------13--12-13-10-12-|
|o--------------------o|----------------------|-------------------------|
||--------------------||----------------------|-------------------------|

Guitar 1
|-----------------------------------------------------------------|
|-----------------------------------------------------------------|
|-----------------------------------------------------------------|
|-----------------------------------------------------------------|
|-----------------------------------------------------------------|
|-5-5-5-5-5-5-5-5-5-5-5-5-5-5-5-5-5-5-5-5-5-5-5-5-5-5-5-5-5-5-5-5-|
|
|Guitar 2
||--------------------||-1st-ending-----------|-2nd-ending--------------|
|o--------------------o|---------11h13p11--11-|-11h13p11--11------------|
||-12-0-0-11-0-0-12-0-||-0-14-0-0--------14---|---------14--12-14-11-12-|
||--------------------||----------------------|-------------------------|
|o--------------------o|----------------------|-------------------------|
||--------------------||----------------------|-------------------------|

Guitar 1
|-----------------------------------------------------------------|
|-----------------------------------------------------------------|
|-----------------------------------------------------------------|
|-----------------------------------------------------------------|
|-----------------------------------------------------------------|
|-0-0-0-0-0-0-0-0-0-0-0-0-0-0-0-0-0-0-0-0-0-0-0-0-0-0-0-0-0-0-0-0-|
|
|Guitar 2
||--------------------||-1st-ending-----------|-2nd-ending--------------|
|o--------------------o|----------------------|-------------------------|
||--------------------||---------11h12p11--11-|-11h12p11--11------------|
||-12-0-0-10-0-0-12-0-||-0-13-0-0--------13---|---------13--12-13-10-12-|
|o--------------------o|----------------------|-------------------------|
||--------------------||----------------------|-------------------------|

Guitar 1
  Tr------------------------------
|------------------------------------------------------------------|
|------------------------------------------------------------------|
|------------------------------------------------------------------|
|----------------------------------1-----------0-------------------|
|----------------------------------1-----------0-------------------|
|-10-------------------------------1-----------0-------------------|
|
|Guitar 2
  Tr------------------------------
|------------------------------------------------------------------|
|------------------------------------------------------------------|
|------------------------------------------------------------------|
|-13-----------12-----------10-----8-----------7-------------------|
|------------------------------------------------------------------|
|------------------------------------------------------------------|

________________________________________________________________________________


Verse 2
Both guitars
|-----------------------------------|
|-----------------------------------|
|-------------------------------3PH-|
|-----7---5/7---8---7---------------|
|-0---5---3/5---6---5---------------|
|-0-0---0-----0---0---0-0-0-1-4-----|

Guitar 1
|---------------------------------|
|---------------------------------|
|---------------------------------|
|-----7---5/7---8---7-------------|
|-0---5---3/5---6---5-------------|
|-0-0---0-----0---0---0-0-1-1-1-0-|
|
|Guitar 2
|-------------------------------------|
|-------------------------------------|
|-------------------------12-12-12-11-|
|-----7---5/7---8---7-----------------|
|-0---5---3/5---6---5-----10-10-10--9-|
|-0-0---0-----0---0---0-0-------------|

Both guitars
|-----------------------------------|
|-----------------------------------|
|-------------------------------3PH-|
|-----7---5/7---8---7---------------|
|-0---5---3/5---6---5---------------|
|-0-0---0-----0---0---0-0-0-1-4-----|

Both guitars
|---------------------------------|
|---------------------------------|
|---------------------------------|
|---------------------------------|
|-0-5-4-0-1-4-0-7-5-0-7-8-0-5PH~~-|
|-0-5-4-0-1-4-0-7-5-0-7-8-0-------|
________________________________________________________________________________


Repeat Verse 1 part 1

Repeat Verse 1 part 2

Repeat Verse 2

________________________________________________________________________________


Chorus
Guitar 1
|-----------------------------------------------------------------|
|-----------------------------------------------------------------|
|-----------------------------------------------------------------|
|-1-1-1-1-1-1-1-1-1-1-1-1-1-1-1-1-3-3-3-3-3-3-3-3-3-3-3-3-3-3-3-3-|
|-1-1-1-1-1-1-1-1-1-1-1-1-1-1-1-1-3-3-3-3-3-3-3-3-3-3-3-3-3-3-3-3-|
|-1-1-1-1-1-1-1-1-1-1-1-1-1-1-1-1-3-3-3-3-3-3-3-3-3-3-3-3-3-3-3-3-|
|
|Guitar 2
|---------------------------------------------------------------------|
|---------------------------------------------------------------------|
|-12-------------15------19------17-----------------------------------|
|----------------------------------------------13-12-13-12-10---------|
|-10-------------13------17------15--------------------------13-12-13-|
|---------------------------------------------------------------------|

Both guitars
|-----------------------------------------------------------------|
|-----------------------------------------------------------------|
|-----------------------------------------------------------------|
|-----------------------------------------------------------------|
|-5-3-5-----5-3-5-----5-3-5-----8-5-3-5-----5-3-5-----5-3-5-0-0-0-|
|-5-3-5-5-5-5-3-5-5-5-5-3-5-8-8-8-5-3-5-5-5-5-3-5-5-5-5-3-5-0-0-0-|

Guitar 1
|-----------------------------------------------------------------|
|-----------------------------------------------------------------|
|-----------------------------------------------------------------|
|-1-1-1-1-1-1-1-1-1-1-1-1-1-1-1-1-3-3-3-3-3-3-3-3-3-3-3-3-3-3-3-3-|
|-1-1-1-1-1-1-1-1-1-1-1-1-1-1-1-1-3-3-3-3-3-3-3-3-3-3-3-3-3-3-3-3-|
|-1-1-1-1-1-1-1-1-1-1-1-1-1-1-1-1-3-3-3-3-3-3-3-3-3-3-3-3-3-3-3-3-|
|
|Guitar 2
|-----------------------------------------------------------------|
|-----------------------------------------------------------------|
|-12-------------15------19------17--------------20------19--17---|
|-----------------------------------------------------------------|
|-10-------------13------17------15--------------18------17--15---|
|-----------------------------------------------------------------|

________________________________________________________________________________


Pre Breakdown
Guitar 1
|---------------------------------|
|---------------------------------|
|---------------------------------|
|-0-------------------------------|
|-0-------------------------------|
|-0-------------------------------|
|
|Guitar 2
|-----------------------------------------------------|
|-----------------------------------------------------|
|-----------------------------------------------------|
|------------------------------------12-11-12~~~~~~~~-|
|---5-4-5-----8-7-8-----12-10-12----------------------|
|-0---------0---------0------------0------------------|

Guitar 1
|-----------------------------------------------------------|
|-----------------------------------------------------------|
|-----------------------------------------------------------|
|--------------------------12-11-12-----15-14-15-BU(17)(15)-|
|---8-7-8-----12-10-12--------------------------------------|
|-0---------0------------0------------0---------------------|
|
|Guitar 2
|--------------------------------------------------------|
|--------------------------------------------------------|
|--------------------------------------------------------|
|------------------------------------12-11-12-BU(14)(12)-|
|---5-4-5-----8-7-8-----13-12-13-------------------------|
|-0---------0---------0------------0---------------------|


________________________________________________________________________________


Breakdown
Guitar 1
|----------------------------------------------|
|----------------------------------------------|
|----------------------------------------------|
|---------------------------10h12p10-8---------|
|---8-7-8---10---12-10-12--------------12-10-8-|
|-0-------0----0----------0--------------------|
|
|Guitar 2
|-------------------------------------|
|-------------------------------------|
|-------------------------------------|
|-----------------------7h8p7-5-------|
|---5-4-5---7---8-7-8-----------8-7-5-|
|-0-------0---0-------0---------------|

Guitar 1
|---------------------------------------------------|
|---------------------------------------------------|
|---------------------------------------------------|
|-----------------------7-5-3-------8-7-5-----------|
|---8-7-8---5---7-8-7---------7-5-4-------8-7-5-7-8-|
|-0-------0---0-------0-----------------------------|
|
|Guitar 2
|---------------------------------------------------|
|---------------------------------------------------|
|---------------------------------------------------|
|-----------------------3-2-0-------5-3-2-----------|
|---5-4-5---1---4-5-4---------4-1-0-------5-4-1-4-5-|
|-0-------0---0-------0-----------------------------|


________________________________________________________________________________


Solo 1 (MKH)
Guitar 1 (Lead)
|----------------------------|
|----------------------------|
|-12BU(13)~~~~-(12)-10~~~~~~-|
|----------------------------|
|----------------------------|
|----------------------------|

|--------------------------------------------------------------------------|
|---------11--------------11-13-14-14---13---11--------13---11-------------|
|-10-12-13--13-12-10-12-13------------------------13-------------13---12---|
|--------------------------------------------------------------------------|
|--------------------------------------------------------------------------|
|--------------------------------------------------------------------------|

|----------------------------|
|----------------------------|
|-15BU(16)~~~~-(15)-13~~~~~~-|
|----------------------------|
|----------------------------|
|----------------------------|

|--------------------------------------------------------------------------|
|---------14--------------14-16-17-17---16---14--------16---14-------------|
|-13-15-16--16-15-13-15-16------------------------16-------------16---15---|
|--------------------------------------------------------------------------|
|--------------------------------------------------------------------------|
|--------------------------------------------------------------------------|

|------------------|
|------------------|
|-17BU(19)~~~~~~~~-|
|------------------|
|------------------|
|------------------|

Guitar 2 (Rhythm)
|-----------------------------------------------------------------|
|-----------------------------------------------------------------|
|-----------------------------------------------------------------|
|-----------------------------------------------------------------|
|-----------------------------------------------------------------|
|-3-3-3-3-3-3-3-3-3-3-3-3-3-3-3-3-3-3-3-3-3-3-3-3-3-3-3-3-3-3-3-3-|

|-----------------------------------------------------------------|
|-----------------------------------------------------------------|
|-----------------------------------------------------------------|
|-----------------------------------------------------------------|
|-----------------------------------------------------------------|
|-6-6-6-6-6-6-6-6-6-6-6-6-6-6-6-6-6-6-6-6-6-6-6-6-6-6-6-6-6-6-6-6-|

________________________________________________________________________________


Repeat Breakdown

________________________________________________________________________________


Solo 2 (CKB)
Guitar 2 (Lead)
|---------------------------------------------------------------------|
|---------------------------------------------------------------------|
|---------------------------------10--10---10-12-13-12-10-12-13-12~~~-|
|--------------------10-------10----10--10----------------------------|
|-/8~~~~~~-10-8-10-11--11-8-11--11------------------------------------|
|---------------------------------------------------------------------|

|------------------------------------------15-16-18-18-16-15----------|
|---------14--------------14-16-17-14-16-17------------------17-16-14-|
|-13-15-16--16-15-13-15-16--------------------------------------------|
|---------------------------------------------------------------------|
|---------------------------------------------------------------------|
|---------------------------------------------------------------------|

                  T       T                         T       T
|--------9h12h15-18p15p12-----------------12h15h18-21p18p15---------|
|-------------------------------------------------------------------|
|-9h12h15----------------18p15p12-12h15h18-----------------21p18p15-|
|-------------------------------------------------------------------|
|-------------------------------------------------------------------|
|-------------------------------------------------------------------|

|-----------|
|-----------|
|-3NH-DB\\\-|
|-----------|
|-----------|
|-----------|

Guitar 1 (Rhythm)
|-----------------------------------------------------------------|
|-----------------------------------------------------------------|
|-----------------------------------------------------------------|
|-----------------------------------------------------------------|
|-----------------------------------------------------------------|
|-3-3-3-3-3-3-3-3-3-3-3-3-3-3-3-3-3-3-3-3-3-3-3-3-3-3-3-3-3-3-3-3-|

|-----------------------------------------------------------------|
|-----------------------------------------------------------------|
|-----------------------------------------------------------------|
|-----------------------------------------------------------------|
|-----------------------------------------------------------------|
|-6-6-6-6-6-6-6-6-6-6-6-6-6-6-6-6-6-6-6-6-6-6-6-6-6-6-6-6-6-6-6-6-|


________________________________________________________________________________


Repeat Breakdown

________________________________________________________________________________


Bass solo (PFG)
Bass guitar (Wah-wah pedal)
|-------------------------------------|
|---------12----12-11---------7-------|
|-0----------12-----------------------|
|-------------------------------------|
|-------------------------------------|

|---------------------------------6-----|
|-7-6-7~~~~~~~~~~~~-7BU(8)(7)-5-8---8~~-|
|---------------------------------------|
|---------------------------------------|
|---------------------------------------|

|-------------------------------------|
|-7-6-7---12----12-11---------7-------|
|------------12-----------------------|
|-------------------------------------|
|-------------------------------------|

|-------------------9/10-9-10-13---------|
|-7-6-7~~~~~~~~~~~~--------------15-14~~-|
|----------------------------------------|
|----------------------------------------|
|----------------------------------------|

|-------------------------------13-14-16-14-|
|-14-12-14-------------14-12-14-------------|
|-------------------------------------------|
|-------------------------------------------|
|-------------------------------------------|

|-------------------------------13---14---16-|
|-15-14-15-------------15-14-15--------------|
|--------------------------------------------|
|--------------------------------------------|
|--------------------------------------------|

              T        T        T        T        T        T
|-13-10-13---14p13p11-14p13p11-14p13p11-14p13p11-16p13p11-16p13p11-|
|------------------------------------------------------------------|
|------------------------------------------------------------------|
|------------------------------------------------------------------|
|------------------------------------------------------------------|

   T        T        T        T        T        T
|-16p13p11-16p13p11-17p13p11-17p13p11-17p13p11-17p13p11-|
|-------------------------------------------------------|
|-------------------------------------------------------|
|-------------------------------------------------------|
|-------------------------------------------------------|

   T        T        T        T        T        T        T        T
|-16p14p13-16p14p13-16p14p13-16p14p13-16p14p13-16p14p13-16p14p13-16p14p13-|
|-------------------------------------------------------------------------|
|-------------------------------------------------------------------------|
|-------------------------------------------------------------------------|
|-------------------------------------------------------------------------|

   T        T        T        T        T        T        T        T
|-17p14p13-17p14p13-17p14p13-17p14p13-19p17p14-19p17p14-19p17p14-19p17p14-|
|-------------------------------------------------------------------------|
|-------------------------------------------------------------------------|
|-------------------------------------------------------------------------|
|-------------------------------------------------------------------------|

   T
|-21~~~~~~~~~~~~~-|
|-----------------|
|-----------------|
|-----------------|
|-----------------|


Both guitars (Rhythm)
|---------------------------------|------------------------------------|
|---------------------------------|------------------------------------|
|---------------------------------|------------------------------------|
|---------------------------------|------------------------------------|
|-7-6-7-----7-6-7-----7-6-7-8-8-8-|-7-6-7-----7-6-7-----7-6-7-11-8-----|
|-7-6-7-7-7-7-6-7-7-7-7-6-7-8-8-8-|-7-6-7-7-7-7-6-7-7-7-7-6-7-11-8-----|

|---------------------------------|---------------------------------|
|---------------------------------|---------------------------------|
|---------------------------------|---------------------------------|
|---------------------------------|---------------------------------|
|-7-6-7-----7-6-7-----7-6-7-8-8-8-|-7-6-7-----7-6-7-----7-6-7-3-2-0-|
|-7-6-7-7-7-7-6-7-7-7-7-6-7-8-8-8-|-7-6-7-7-7-7-6-7-7-7-7-6-7-3-2-0-|

|---------------------------------|---------------------------------|
|---------------------------------|---------------------------------|
|---------------------------------|---------------------------------|
|---------------------------------|---------------------------------|
|-2-0-2-----2-0-2-----0---2-0-2---|-3-2-3-----3-2-3-----2---3-2-3---|
|-2-0-2-2-2-2-0-2-2-2-0-0-2-0-2-2-|-3-2-3-3-3-3-2-3-3-3-2-2-3-2-3-3-|

|---------------------------------|---------------------------------|
|---------------------------------|---------------------------------|
|---------------------------------|---------------------------------|
|---------------------------------|---------------------------------|
|-6-3-6-----6-3-6-----3---6-3-6---|-7-6-7-----7-6-7---------7-7-7-7-|
|-6-3-6-6-6-6-3-6-6-6-3-3-6-3-6-6-|-7-6-7-7-7-7-6-7-7-7-7-7-7-7-7-7-|

________________________________________________________________________________


Bridge
Guitar 1
|-------------0-0-0-0-0-0-0-0-0-0-------------0-0-0-0-0-0-0-0-0-0-|
|-1-1-1-0-0-0-1-1-1-1-1-1-1-1-1-1-1-1-1-0-0-0-1-1-1-1-1-1-1-1-1-1-|
|-2-2-2-2-2-2-2-2-2-2-2-2-2-2-2-2-2-2-2-2-2-2-2-2-2-2-2-2-2-2-2-2-|
|-2-2-2-2-2-2-2-2-2-2-2-2-2-2-2-2-2-2-2-2-2-2-2-2-2-2-2-2-2-2-2-2-|
|-0-0-0-0-0-0-0-0-0-0-0-0-0-0-0-0-0-0-0-0-0-0-0-0-0-0-0-0-0-0-0-0-|
|-----------------------------------------------------------------|
|
|Guitar 2
|-------------0-0---------0-------------------0-0---------0-------|
|-1-1-1-0-0-0-1-1---0-------1-----1-1-1-0-0-0-1-1---0-------1-----|
|-2-2-2-2-2-2-2-2-----2-------2---2-2-2-2-2-2-2-2-----2-------2---|
|-2-2-2-2-2-2-2-2-------2-------2-2-2-2-2-2-2-2-2-------2-------2-|
|-0-0-0-0-0-0-0-0-0---------------0-0-0-0-0-0-0-0-0---------------|
|-----------------------------------------------------------------|

Guitar 1
|-1-1-1-0-0-0-1-1-1-1-1-1-1-1-1-1-|
|-3-3-3-3-3-3-3-3-3-3-3-3-3-3-3-3-|
|-2-2-2-2-2-2-2-2-2-2-2-2-2-2-2-2-|
|-0-0-0-0-0-0-0-0-0-0-0-0-0-0-0-0-|
|-0-0-0-0-0-0-0-0-0-0-0-0-0-0-0-0-|
|-0-0-0-0-0-0-0-0-0-0-0-0-0-0-0-0-|
|
|Guitar 2
|---------------------------------|
|---------------------------------|
|---------------------------------|
|-3-3-3-2-2-2-3-3-3-3-3-3-3-3-3-3-|
|-0-0-0-0-0-0-0-0-0-0-0-0-0-0-0-0-|
|-0-0-0-0-0-0-0-0-0-0-0-0-0-0-0-0-|

Guitar 1
|---------------------------------|
|---------------------------------|
|---------------------------------|
|---------------------------------|
|-7~~~~-5~~-3-2~~~~~~~~~~~~~~~~~~-|
|---------------------------------|
|
|Guitar 2
|---------------------------------|
|---------------------------------|
|---------------------------------|
|---------------------------------|
|---------------------------------|
|-10~~~-9~~-7-6~~~~~~~~~~~~~~~~~~-|

________________________________________________________________________________


Repeat Intro

Repeat Main Verse

________________________________________________________________________________


Chorus Variation
Guitar 1
|-----------------------------------------------------------------|
|-----------------------------------------------------------------|
|-----------------------------------------------------------------|
|-1-1-1-1-1-1-1-1-1-1-1-1-1-1-1-1-3-3-3-3-3-3-3-3-3-3-3-3-3-3-3-3-|
|-1-1-1-1-1-1-1-1-1-1-1-1-1-1-1-1-3-3-3-3-3-3-3-3-3-3-3-3-3-3-3-3-|
|-1-1-1-1-1-1-1-1-1-1-1-1-1-1-1-1-3-3-3-3-3-3-3-3-3-3-3-3-3-3-3-3-|
|
|Guitar 2
|---------------------------------------------------------------------|
|---------------------------------------------------------------------|
|-12-------------15------19------17-----------------------------------|
|----------------------------------------------13-12-13-12-10---------|
|-10-------------13------17------15--------------------------13-12-13-|
|---------------------------------------------------------------------|

Both guitars
|-----------------------------------------------------------------|
|-----------------------------------------------------------------|
|-----------------------------------------------------------------|
|-----------------------------------------------------------------|
|-5-3-5-----5-3-5-----5-3-5-----8-5-3-5-----5-3-5-----5-3-5-0-0-0-|
|-5-3-5-5-5-5-3-5-5-5-5-3-5-8-8-8-5-3-5-5-5-5-3-5-5-5-5-3-5-0-0-0-|

Guitar 1
|-----------------------------------------------------------------|
|-----------------------------------------------------------------|
|-----------------------------------------------------------------|
|-1-1-1-1-1-1-1-1-1-1-1-1-1-1-1-1-3-3-3-3-3-3-3-3-3-3-3-3-3-3-3-3-|
|-1-1-1-1-1-1-1-1-1-1-1-1-1-1-1-1-3-3-3-3-3-3-3-3-3-3-3-3-3-3-3-3-|
|-1-1-1-1-1-1-1-1-1-1-1-1-1-1-1-1-3-3-3-3-3-3-3-3-3-3-3-3-3-3-3-3-|
|
|Guitar 2
|-----------------------------------------------------------------|
|-----------------------------------------------------------------|
|-12-------------15------19------17--------------20------19--17---|
|-----------------------------------------------------------------|
|-10-------------13------17------15--------------18------17--15---|
|-----------------------------------------------------------------|

Both guitars
|-----------------------------------------------------------------|
|-----------------------------------------------------------------|
|-----------------------------------------------------------------|
|-----------------------------------------------------------------|
|-5-3-5-----5-3-5-----5-3-5-----8-5-3-5-----5-3-5-----5-3-5-0-0-0-|
|-5-3-5-5-5-5-3-5-5-5-5-3-5-8-8-8-5-3-5-5-5-5-3-5-5-5-5-3-5-0-0-0-|


________________________________________________________________________________


Outro
Both guitars
|-----------------|
|-----------------|
|-7---------------|
|-5---------------|
|-5---------------|
|-5---------------|

________________________________________________________________________________











##############################################################################################
##############################################################################################
#WAKE (THE END IS NIGH)#######################################################################
##############################################################################################
##############################################################################################









________________________________________________________________________________


Melodic Verse 1
Guitar 1 (Clean)
||----------------------------------|
|o----------------------------------|
||---------15--------------10-------|
||---12--12--12--12--12--12--12--12-|
|o----------------------------------|
||-13--13------13--10--10------10---|

|----------------------------------||
|----------------------------------o|
|---------10-----------------------||
|---8---8----8---8---8---8---0---0-||
|----------------------------------o|
|-5---5--------5---5---5---7---8---||

________________________________________________________________________________


Melodic Verse 2
Guitar 1 (Acoustic)
|-----------------------------------------------------------------|
|-----------------------------------------------------------------|
|-2-----2-----2-----2-----0---2---3-----3-----3-----3-----2---3---|
|---0-----0-----0-----0-----0---0---0-----0-----0-----0-----0---0-|
|-----------------------------------------------------------------|
|-----0-----0-----0-----0-------------0-----0-----0-----0---------|

|---------------------------------------------------------------------|
|---------------------------------------------------------------------|
|-5-----5-----5-----5-----5-7-5h7p5---0-----0-----0-----0-----0-------|
|---0-----0-----0-----0-------------8---4-----4-----4-----4-----4---4-|
|---------------------------------------------------------------------|
|-----0-----0-----0-----0-----------------0-----0-----0-----0-----0---|

Guitar 2 (Lead distortion)
||--------------------------------|-------------------------------------||
|o-7~~~~~-8\7\5/7-8~~~~~-10\8\7/8-|-10~~~~~-8-10-10BU(11)—(10)-8-7~~~~~-o|
||--------------------------------|-------------------------------------||
||--------------------------------|-------------------------------------||
|o--------------------------------|-------------------------------------o|
||--------------------------------|-------------------------------------||


________________________________________________________________________________


Repeat Melodic Verse 1

________________________________________________________________________________


Verse 1 part 1
Both guitars
|--------|
|--------|
|--------|
|--------|
|-12\----|
|-12\----|

||---------------------------------||
|o---------------------------------o|
||---------------------------------|| x4
||-0-----------0-------------------||
|o-0-----------0---0-M-------------o|
||-0-------0-0-0---0-M-00--0000----||


Verse 1 part 2/chorus

Guitar 1 repeats the open chords while guitar 2 plays:

Guitar 2
|--------------------------------------------------------||
|o-------------------------------------------------------o|
||-12-----11-----8-----15-----12-----11-----8-----11-----||
||-------------------------------------------------------||
|o-10------9-----6-----13-----10------9-----6------9-----o|
||-------------------------------------------------------||


________________________________________________________________________________


Break
Both guitars
|-----------------------------------------------------------------|
|-----------------------------------------------------------------|
|-----------------------------------------------------------------|
|-0---------------------------------------------------------------|
|-0---------------------------------------------------------------|
|-0---------------------------------------------------------------|


________________________________________________________________________________


Verse 2
Both guitars
||-----------------------------------------------------------------|
|o-----------------------------------------------------------------|
||-----------------------------------------------------------------|
||-----------------------------------------------------------------|
|o-------------------------------------------------5p0---7p0---8p0-|
||-0-0-0-0-0-0-0-0-0-0-0-0-0-0-0-0-0-0-0-0-0-0-0-0-----0-----0-----|

|------------------------------------------------------------------||
|------------------------------------------------------------------o|
|------------------------------------------------------------------||
|------------------------------------------------------------------||
|-------------------------------------------------7p0---8p0---10p0-o|
|-0-0-0-0-0-0-0-0-0-0-0-0-0-0-0-0-0-0-0-0-0-0-0-0-----0-----0------||


________________________________________________________________________________


Verse 3
Guitar 1
|-----------------------------------------------------------------|
|-----------------------------------------------------------------|
|-----------------------------------------------------------------|
|-----------------------------------------------------------------|
|-------------------------------------------------5p0---7p0---8p0-|
|-0-0-0-0-----0-0-0-0-----0-0-0-0-----0-0-0-0---------0-----0-----|
|
|Guitar 2 (Each set of notes represents two strums)
|-------------------------------------------------|
|-10-10-10-10-10-10-10-10-10-10-10-10-10-10-10-10-|
|-11-11-11-11-11-11-11-11-11-11-11-11-11-11-11-11-|
|-------------------------------------------------|
|-------------------------------------------------|
|-------------------------------------------------|

Guitar 1
|------------------------------------------------------------------|
|------------------------------------------------------------------|
|------------------------------------------------------------------|
|------------------------------------------------------------------|
|-------------------------------------------------7p0---8p0---10p0-|
|-0-0-0-0-----0-0-0-0-----0-0-0-0-----0-0-0-0---------0-----0------|
|
|Guitar 2
|-------------------------------------------------|
|-11-11-11-11-11-11-11-11-11-11-11-11-11-11-11-11-|
|-11-11-11-11-11-11-11-11-11-11-11-11-11-11-11-11-|
|-------------------------------------------------|
|-------------------------------------------------|
|-------------------------------------------------|

Guitar 1
|-----------------------------------------------------------------|
|-----------------------------------------------------------------|
|-----------------------------------------------------------------|
|-----------------------------------------------------------------|
|-------------------------------------------------5p0---7p0---8p0-|
|-0-0-0-0-----0-0-0-0-----0-0-0-0-----0-0-0-0---------0-----0-----|
|
|Guitar 2
|-------------------------------------------------|
|-13-13-13-13-13-13-13-13-13-13-13-13-13-13-13-13-|
|-11-11-11-11-11-11-11-11-11-11-11-11-11-11-11-11-|
|-------------------------------------------------|
|-------------------------------------------------|
|-------------------------------------------------|

Guitar 1
|------------------------------------------------------------------|
|------------------------------------------------------------------|
|------------------------------------------------------------------|
|------------------------------------------------------------------|
|-------------------------------------------------7p0---8p0---10p0-|
|-0-0-0-0-----0-0-0-0-----0-0-0-0-----0-0-0-0---------0-----0------|
|
|Guitar 2
|------------------------------------------------------------------|
|------------------------------------------------------------------|
|------------------------------------------------------------------|
|------------------------------------------------------------------|
|-------------------------------------------------7p0---8p0---10p0-|
|-0-0-0-0-----0-0-0-0-----0-0-0-0-----0-0-0-0---------0-----0------|


________________________________________________________________________________


Repeat Verse 1 part 2/chorus

Repeat Break

Repeat Verse 2

Repeat Verse 3 after guitar 1 plays the same rhythm and 
Guitar 2 plays an extension of the lead:

Guitar 2 each note is repeatedly
Strummed through each bar
|-------|-------|-------|-------|
|-10----|-11----|-13----|-7-----|
|-11----|-11----|-11----|-7-----|
|-------|-------|-------|-------|
|-------|-------|-------|-------|
|-------|-------|-------|-------|


________________________________________________________________________________


Repeat Break

________________________________________________________________________________
Bridge
Guitar 1
||-----------------------------------------------------------------||
|o-----------------------------------------------------------------o|
||-----------------------------------------------------------------||
||-5---------------3---------------0---------------1---------------||
|o-5---------------3---------------0---------------1---------------o|
||-5---------------3---------------0---------------1---------------||

Guitar 2
||------------------------------------||
|o------------------------------------o|
||------------------------------------||
||-0h5h8-0h5h8-0h8h12-0h7h10-0h7h8h10-||
|o------------------------------------o|
||------------------------------------||


________________________________________________________________________________


Pre-solo verse
Guitar 1
|------------------------------------|
|------------------------------------|
|------------------------------------| x4
|-0h5h8-0h5h8-0h8h12-0h7h10-0h7h8h10-|
|------------------------------------|
|------------------------------------|
|
|Guitar 2
|------------------------------------|
|------------------------------------|
|------------------------------------| x4
|-0h5h8-0h5h8-0h8h12-0h7h10-0h7h8h10-|
|------------------------------------|
|------------------------------------|


________________________________________________________________________________


Solo 1 (CKB)
Guitar 1 (Rhythm)
||-----------------------------------------------------------------|
|o-----------------------------------------------------------------|
||-----------------------------------------------------------------|
||-----------------------------------------------------------------|
|o---------------------------------3-3-3-3-3-3-3-3-3-3-3-3-3-3-3-3-|
||-1-1-1-1-1-1-1-1-1-1-1-1-1-1-1-1---------------------------------|

|-----------------------------------------------------------------||
|-----------------------------------------------------------------o|
|-----------------------------------------------------------------||
|-----------------------------------------------------------------||
|-----------------------------------------------------------------o|
|-5-5-5-5-5-5-5-5-5-5-5-5-5-5-5-5-5-5-5-5-5-5-5-5-5-5-5-5-5-5-5-5-||

Guitar 2 (Lead)
|------------------------------------------------|
|--------------------8-----10-----11-----10-8-10-|
|----------------------8-7----8-7----8-7---------|
|-/5~~~~~~~~~~-8-5-7-----------------------------|
|------------------------------------------------|
|------------------------------------------------|

|---------------11-10h11p10------10-18-17h18p17-----------|
|-11-10------10------------11--11--------------18-20-18---|
|------10--10----------------12------------------------19-|
|--------12-----------------------------------------------|
|---------------------------------------------------------|
|---------------------------------------------------------|

Guitar 2
|----------------------------13-15-17-|
|----------13-15-16-13-15-16----------|
|-12-14-15----------------------------|
|-------------------------------------|
|-------------------------------------|
|-------------------------------------|
|
|Guitar 3
|----------------------------17-18-20-|
|----------16-18-20-16-18-20----------|
|-15-17-19----------------------------|
|-------------------------------------|
|-------------------------------------|
|-------------------------------------|

Guitar 2
||-18-15----15-------17-15----15-------||
|o-------16----16-18-------16----16----o|
||----------------------------------15-||
||-------------------------------------||
|o-------------------------------------o|
||-------------------------------------||
|
|Guitar 3
||-22-18----16-------18-16----16-------||
|o-------20----20-22-------18----18----o|
||----------------------------------17-||
||-------------------------------------||
|o-------------------------------------o|
||-------------------------------------||

Guitar 2
|---------13-15-17-17-15-13-------------------------------------------|
|-13-15-16-----------------16-15-13-16-15-13--------------------------|
|-------------------------------------------15-14-12-15-14-12---------|
|------------------------------------------------------------15-13-12-|
|---------------------------------------------------------------------|
|---------------------------------------------------------------------|

Guitar 2
|----------------------------|
|-/13-11-10------------------|
|-----------12-10----12PH~~~-|
|-----------------12---------|
|----------------------------|
|----------------------------|
|
|Guitar 3
|----------------------------|
|-/16-15-13------------------|
|-----------15-14----15PH~~~-|
|-----------------15---------|
|----------------------------|
|----------------------------|



________________________________________________________________________________


Final Verse
Guitar 2
||-----------------------------------------------------------------|
|o-----------------------------------------------------------------|
||-----------------------------------------------------------------|
||-----------------------------------------------------------------|
|o---------------------------------3-3-3-3-3-3-3-3-3-3-3-3-3-3-3-3-|
||-1-1-1-1-1-1-1-1-1-1-1-1-1-1-1-1---------------------------------|

|-----------------------------------------------------------------||
|-----------------------------------------------------------------o|
|-----------------------------------------------------------------||
|-----------------------------------------------------------------||
|-----------------------------------------------------------------o|
|-5-5-5-5-5-5-5-5-5-5-5-5-5-5-5-5-5-5-5-5-5-5-5-5-5-5-5-5-5-5-5-5-||

Guitar 1 (wah-wah pedal)
|------------------------------------------------------------------|
|------------------------------------------------------------------|
|------------------------------------------------------------------|
|-/5~~~~~~~~~~-7~~-8~~~~~~-7~~~~~~-/5~~~~~~~~~~~~~~~~~~~~~~~~~~~~~-|
|------------------------------------------------------------------|
|------------------------------------------------------------------|

|------------------------------------------------------------------|
|-/8~~~~~~~~~-10~~-10/11~~-13~~~~~-13BU(15)~~~~~~~~~~~~~~~~~~~~~~~-|
|------------------------------------------------------------------|
|------------------------------------------------------------------|
|------------------------------------------------------------------|
|------------------------------------------------------------------|

|------------------------------------------------------------------|
|-/8~~~~~~~~~-10~~-10/11~~-10~~~~~-/8~~~~~~------------------------|
|--------------------------------------------------7~~~~~~-5~~~~~~-|
|---------------------------------------------/5~~-----------------|
|------------------------------------------------------------------|
|------------------------------------------------------------------|

|------------------------------------------------------------------|
|-/8~~~~~~~~~-10~~-10/11~~-10~~~~~-13BU(15)~~~~~~-16BU(18)—(16)~~~-|
|------------------------------------------------------------------|
|------------------------------------------------------------------|
|------------------------------------------------------------------|
|------------------------------------------------------------------|

________________________________________________________________________________


Outro solo (MKH)
Guitar 2 (Rhythm)
||-----------------------------------------------------------------|
|o-----------------------------------------------------------------|
||-----------------------------------------------------------------|
||-----------------------------------------------------------------|
|o---------------------------------3-3-3-3-3-3-3-3-3-3-3-3-3-3-3-3-|
||-1-1-1-1-1-1-1-1-1-1-1-1-1-1-1-1---------------------------------|

|-----------------------------------------------------------------||
|-----------------------------------------------------------------o|
|-----------------------------------------------------------------||
|-----------------------------------------------------------------||
|-----------------------------------------------------------------o|
|-5-5-5-5-5-5-5-5-5-5-5-5-5-5-5-5-5-5-5-5-5-5-5-5-5-5-5-5-5-5-5-5-||

Guitar 1 (Lead)
|----------------------------------------------------------------------|
|----------------------------------------------------11-13-15-11-13-15-|
|-----------------------------------10-12-14-10-12-14------------------|
|------------------10-12-13-10-12-13-----------------------------------|
|-10-12-13-10-12-13----------------------------------------------------|
|----------------------------------------------------------------------|

|----------------------------------------------------------------------|
|----------------------------------------------------13-15-16-13-15-16-|
|-----------------------------------12-14-15-12-14-15------------------|
|------------------12-13-15-12-13-15-----------------------------------|
|-12-13-15-12-13-15----------------------------------------------------|
|----------------------------------------------------------------------|

|----------------------------------------------------------------------|
|----------------------------------------------------15-16-18-15-16-18-|
|-----------------------------------14-15-17-14-15-17------------------|
|------------------13-15-17-13-15-17-----------------------------------|
|-13-15-17-13-15-17----------------------------------------------------|
|----------------------------------------------------------------------|

|-13/15~~~~~~-13~~~~~~-| |---------15---------------------|
|----------------------| |-----------18p15----------------|
|----------------------| |-17BU(19)-------17BU(19)--------| x3
|----------------------| |--------------------------------|
|----------------------| |--------------------------------|
|----------------------| |--------------------------------|

|------------------15-17-17BU(18)~~~~~~---20BU(22)---(20)~~~~-|
|-18BU(20)~~~~------------------------------------------------|
|-------------------------------------------------------------|
|-------------------------------------------------------------|
|-------------------------------------------------------------|
|-------------------------------------------------------------|



__________________________________________________________________________________________



That’s all guys, please rate :)
comments
print report bad tab
4 comments total. Showing first comments.
+2 reply
Macau wrote on October 19 2013, 05:11 pm

wow what an amazing job, if this was in guitarpro format you'd be a god

+2 reply
morstavan wrote on October 20 2013, 10:48 am

Very nice job !

+2 reply
Sevves wrote on October 25 2013, 12:21 am

Wow. Good job man! I've only learned a few of these but they're perfect and I'm gonna give you the benefit of the doubt the rest of em are right too. 5*

I want to post or [tab]
guest
You may want to rate the tab now too:
select rating
Please do not post tabs as comments. Select "correction" instead!