Oops, an error
Loading. Please wait.

Het Komt Nooit Meer Goed Tab

524 views 1 this week
no commentswrite comment
1 2 3 4 5
please rate
Autoscroll
+/-
esc
set tempo
stop
Contributor
Difficulty
advanced
Hey! There's an official Ultimate Guitar app which is ideal
for learning songs when you're away from computer. Get the app
WARNING: You are trying to view
                                    content from Ultimate-Guitar.com
                                    in an unauthorized application,
                                    which is prohibited.

                                    Please use an official Ultimate
                                    Guitar Tabs application for iPhone,
                                    iPad or Android to access legitimate
                                    chords, guitar, bass, and drum tabs
                                    from Ultimate-Guitar.com database.

                                    Type "ultimate guitar tabs" in Apple
                                    App Store's or Android Market's
                                    search to find the application.
---------------------------------------------------------------------------
                             Het komt nooit meer goed - Trockener Kecks
---------------------------------------------------------------------------
Tabbed by:deHufter
Email:kurtkill@hotmail.com

Tuning:standard

Intro:
e|------------5-------------------------------------------------------------|
B|--2~--2/5-3---3---3-------------------------------------------------------|
G|--2~------2-----2---------------------------------------------------------|
D|--2~----------------4-5\0-------------------------------------------------|
A|--------------------------------------------------------------------------|
E|--------------------------------------------------------------------------|

Verse:
e|--5---3---5---1-----------------------------------------------------------|
B|--5---3---7---1-----------------------------------------------------------|
G|--6---4---7---2-----------------------------------------------------------|
D|--7---5---7---3-----------------------------------------------------------|
A|--7---5---5---3-----------------------------------------------------------|
E|--5---3-------1-----------------------------------------------------------|

0:55
e|--5---5---5---5-----------------------------------------------------------|
B|----3---3---3---3---------------------------------------------------------|
G|--------------------------------------------------------------------------|
D|--------------------------------------------------------------------------|
A|--------------------------------------------------------------------------|
E|--------------------------------------------------------------------------|

1:10 - 1:28
e|--------------5--5~-5~-5~-5~-5~---0---------------------------------------|
B|--2------2/5--7-------------------2---------------------------------------|
G|----4-2-------7-------------------2---------------------------------------|
D|--------------7-------------------2---------------------------------------|
A|----------------------------------0---------------------------------------|
E|--------------------------------------------------------------------------|

1:28 - 1:50
e|---7^8r-5---7^8r--5h7p5--10/12-10-12-12-8--8^1/4--5-----------------------|
B|--------------------------------------------------------------------------|
G|--------------------------------------------------------------------------|
D|--------------------------------------------------------------------------|
A|--------------------------------------------------------------------------|
E|--------------------------------------------------------------------------|

e|---------------------------3-4-5-7-8-9~-----------------------------------|
B|---9^1/4r---5\3/5----3-4-5------------------------------------------------|
G|--------------------------------------------------------------------------|
D|--------------------------------------------------------------------------|
A|--------------------------------------------------------------------------|
E|--------------------------------------------------------------------------|

1:50 - 2:08
e|---8~--7~-------------------9-8-7^8r--5~----------------------------------|
B|---------------3-----5---3------------------------------------------------|
G|-------------2-----2---2--------------------------------------------------|
D|-----------0-----0--------------------------------------------------------|
A|--------------------------------------------------------------------------|
E|--------------------------------------------------------------------------|

2:08 - 2:30
e|-------------------------------------------------5-5-5-5-5-5--------------|
B|---2------2/5-------3-----5---3----2------2/5--3--3-----------------------|
G|-----4-2----------2-----2---2--------4-2----------------------------------|
D|----------------0-----0---------------------------------------------------|
A|--------------------------------------------------------------------------|
E|--------------------------------------------------------------------------|

2:30 - 2:40
e|---5~---5~---5~---5~-------------------------------------------------------|
B|---5~---7~---5~---7~-------------------------------------------------------|
G|---6~---7~---6~---7~-------------------------------------------------------|
D|---7~---7~---7~---7~-------------------------------------------------------|
A|---7~---5~---7~---5~-------------------------------------------------------|
E|---5~--------5~------------------------------------------------------------|

2:40 - 2:49
e|--0-0-0-0-0---------------0-0-0-0-0---5-5-5--1-1-1------------------------|
B|--2-2-2-2-2---3-3-3-3-3---2-2-2-2-2---7-7-7--1-1-1------------------------|
G|--0-0-0-0-0---5-5-5-5-5---0-0-0-0-0---7-7-7--2-2-2------------------------|
D|--2-2-2-2-2---4-4-4-4-4---2-2-2-2-2---7-7-7--3-3-3------------------------|
A|--0-0-0-0-0---5-5-5-5-5---0-0-0-0-0---5-5-5--3-3-3------------------------|
E|---------------------------------------------1-1-1------------------------|

Solo 1:
e|--/5~--3-5~--3-3-5~--3-3-3h5~--5-5-7--7^8-5--10^1/4-10^1/4-8--------------|
B|--------------------------------------------------------------------------|
G|--------------------------------------------------------------------------|
D|--------------------------------------------------------------------------|
A|--------------------------------------------------------------------------|
E|--------------------------------------------------------------------------|

e|--5~-5~-5~--8~-8~-8~-:----------------------:----------------------------|
B|---------------------:-15^16r15-13-10-10----:----------------------------|
G|---------------------:-------------------12-:-2times---------------------|
D|---------------------:----------------------:----------------------------|
A|---------------------:----------------------:----------------------------|
E|---------------------:----------------------:----------------------------|

e|-----------------------------15--------------------------------------------|
B|--15^16r15-13-10-10-13-15^17----15^17r15-----------------------------------|
G|---------------------------------------------------------------------------|
D|---------------------------------------------------------------------------|
A|---------------------------------------------------------------------------|
E|---------------------------------------------------------------------------|

e|--:-15~-----15~-----15~---------:---------------17----17----17----17------|
B|--:-15^17~--15^17~--15^17r15-13-:---------15~---20^22-20^22-20^22-20^22---|
G|--:-----------------------------:-4times----------------------------------|
D|--:-----------------------------:-----------------------------------------|
A|--:-----------------------------:-----------------------------------------|
E|--:-----------------------------:-----------------------------------------|

Piano intermezzo

4:11
e|-:-5-5-5-5-xxx-5-xxxx-:---------------------------------------------------|
B|-:-x-x-x-x-xxx-x-xxxx-:---------------------------------------------------|
G|-:-2-2-2-2-xxx-2-xxxx-:-3times--------------------------------------------|
D|-:--------------------:---------------------------------------------------|
A|-:--------------------:---------------------------------------------------|
E|-:--------------------:---------------------------------------------------|

Solo 2 guitar 1:
e|--------------------------------------------------------------------------|
B|-----2-----2/5---2-2---------------2--2-----5---2-2-----------------------|
G|--2----4-2-----------2----0--2--4-------4-2---------2---------------------|
D|--------------------------------------------------------------------------|
A|--------------------------------------------------------------------------|
E|--------------------------------------------------------------------------|

e|--------------------------------------------------------------------------|
B|--2-----5--5-7^8-5-7---7-5-5---5^6r5-3-5^6-5~-----------------------------|
G|----4-2-------------------------------------------------------------------|
D|--------------------------------------------------------------------------|
A|--------------------------------------------------------------------------|
E|--------------------------------------------------------------------------|

e|-:-------------------:----------------------------------------------------|
B|-:-5/10-10-10-10/5-5-:---------5/10-10-10--10/12-12/10-12^1/2-------------|
G|-:-------------------:-2times---------------------------------------------|
D|-:-------------------:----------------------------------------------------|
A|-:-------------------:----------------------------------------------------|
E|-:-------------------:----------------------------------------------------|

e|--10-12^13r12-10-12^13r12-:-12/17-17-17-17/12-12-12:10-12^13r12-10-12^13r12-|
B|--------------------------:------------------------:------------------------|
G|--------------------------:------------------------:------------------------|
D|--------------------------:------------------------:------------------------|
A|--------------------------:------------------------:------------------------|
E|--------------------------:------------------------:------------------------|

e|-:-9-10-12-:----:-8-10-12-:-12\8-17~-17~-17~-17~-17~-17-17-20-:15-17-20:
B|-:---------:----:---------:-----------------------------------:--------:
G|-:---------:----:---------:-----------------------------------:--------:
D|-:-repeat--:----:-repeat--:-----------------------------------:-repeat-:
A|-:---------:----:---------:-----------------------------------:--------:
E|-:---------:----:---------:-----------------------------------:--------:

e|--17~-17~-17~------------------------------------------------------------|
B|--------------10-10-10-10-10-10\---5^6r5-5-3--5^6r5-5^6r5-5-3--5^6r5-----|
G|-------------------------------------------------------------------------|
D|-------------------------------------------------------------------------|
A|-------------------------------------------------------------------------|
E|-------------------------------------------------------------------------|

e|-------------------------------------------------------------------------|
B|--2----------------------------------------------------------------------|
G|--2----------------------------------------------------------------------|
D|--2----------------------------------------------------------------------|
A|--0----------------------------------------------------------------------|
E|-------------------------------------------------------------------------|

Solo 2 guitar 2: play in canon the same as guitar 1 until 5:05, then play:

e|--10-9--5~--3-5~---10-10-10-10-10-10-10-9--5~--:10-10-9--5~:--------------|
B|-----------------------------------------------:-----------:--------------|
G|-----------------------------------------------:-----------:--------------|
D|-----------------------------------------------:-----------:--------------|
A|-----------------------------------------------:-----------:--------------|
E|-----------------------------------------------:-----------:--------------|

e|--8-10^1/4r10-8--10-10^1/4r10-8---17^1/4r17-------------------------------|
B|--------------------------------------------17-15^17-15^17r15-13-10-13----|
G|--------------------------------------------------------------------------|
D|--------------------------------------------------------------------------|
A|--------------------------------------------------------------------------|
E|--------------------------------------------------------------------------|

e|---------15------------------------10~-10~-10~-10~--3h5-let-ring----------|
B|---15^17----15^17r15---13-10----------------------------------------------|
G|-----------------------------12~------------------------------------------|
D|--------------------------------------------------------------------------|
A|--------------------------------------------------------------------------|
E|--------------------------------------------------------------------------|
comments
We did not receive enough feedback on this tab! Please rate:
print report bad tab
1 2 3 4 5
I want to post or [tab]
guest
You may want to rate the tab now too:
select rating
Please do not post tabs as comments. Select "correction" instead!