Oops, an error
Loading. Please wait.

Skull Tab

1,519 views 9 this week
no commentswrite comment
1 2 3 4 5
excellent!
x 1
Autoscroll
+/-
esc
set tempo
stop
Contributor
Difficulty
intermediate
Hey! There's an official Ultimate Guitar app which is ideal
for learning songs when you're away from computer. Get the app
WARNING: You are trying to view
                                    content from Ultimate-Guitar.com
                                    in an unauthorized application,
                                    which is prohibited.

                                    Please use an official Ultimate
                                    Guitar Tabs application for iPhone,
                                    iPad or Android to access legitimate
                                    chords, guitar, bass, and drum tabs
                                    from Ultimate-Guitar.com database.

                                    Type "ultimate guitar tabs" in Apple
                                    App Store's or Android Market's
                                    search to find the application.
Band:  Trouble
Album: The Skull
Song:  The Skull

Copyright (c)  (Music For Nations) (1991)
Version 1.0 - (09/05/06)

Transcribed By: Steve
Email:          stephen.elvidge1@ntlworld.com


.  - palm mute           /  - slide up to
\  - slide down to       ~  - vibrato
h  - hammer on           b  - Bend
p  - pull off            Suffixes for bend
t  - tap                 f  - full bend    h - half bend
ph - pinched harmonic    q  - quarter bend t - tap bend
                         p  - pre bend
*  - see comment         ^  - Hold bend    r release bend
x  - Stuccatto           ~  - vibrato bend
,  - slight palm mute    () - ghost note, sustained note
"  - tremolo note        <> - harmonic

Tuning Eb Ab Db Gb Bb Eb


 Acoustic Guitars

 Guitar 1
[---------------3-----------------|
[-3---3-4-3---3---3---3-4---3-4-3-|
[---5---5---5-------5-----4-------|
[---------------------------------|
[---------------------------------|
[---------------------------------|
[Guitar 2
[---8-------8-------8-----7-------|
[---------------------------------|
[---------------------------------|
[---------------------------------|
[---------------------------------|
[---------------------------------| Rpt 2 X

  C                   G     B
 Guitar 1
[---------------3-----------------|
[-3---3-4-3---3---3---3-4---3-4-3-|
[---5---5---5-------5-----4-------|
[---------------------------------|
[---------------------------------|
[---------------------------------|
[Guitar 2
[---8-------8-------8-----7-------|
[---------------------------------|
[---------------------------------|
[---------------------------------|
[---------------------------------|
[---------------------------------|
[Guitar 3 light distortion   fade in
[---------------------------------|
[---------------------------------|
[---------------------------------|
[---------------------------------|
[---------------------------2<----|
[---------------------------------| Rpt 4 X

  C                   G     B
 Guitar 1
[---------------3-----------------|
[-3---3-4-3---3---3---3-4---3-4-3-|
[---5---5---5-------5-----4-------|
[---------------------------------|
[---------------------------------|
[---------------------------------|
[Guitar 2
[---8-------8-------8-----7-------|
[---------------------------------|
[---------------------------------|
[---------------------------------|
[---------------------------------|
[---------------------------------|
[Guitar 3 
[ ~~~~~~~~~~~~~~~~~~~~~~~~~~~~~~~~
[---------------------------------|
[---------------------------------|
[---------------------------------|
[---------------------------------|
[-3------------------\------2--2/-|
[---------------------3-----------| 

  C                   G     B
 Guitar 1
[---------------3-----------------|
[-3---3-4-3---3---3---3-4---3-4-3-|
[---5---5---5-------5-----4-------|
[---------------------------------|
[---------------------------------|
[---------------------------------|
[Guitar 2
[---8-------8-------8-----7-------|
[---------------------------------|
[---------------------------------|
[---------------------------------|
[---------------------------------|
[---------------------------------|
[Guitar 3   
[ ~~~~~~~~~~~~~~~~~~~~~~~~~~~~~~~~
[---------------------------------|
[---------------------------------|
[---------------------------------|
[-----------------5/6\5----\4--4\-|
[-3-------------------------------|
[---------------------------------|

  C                  G     B
 Guitar 1
[---------------3-----------------|
[-3---3-4-3---3---3---3-4---3-4-3-|
[---5---5---5-------5-----4-------|
[---------------------------------|
[---------------------------------|
[---------------------------------|
[Guitar 2
[---8-------8-------8-----7-------|
[---------------------------------|
[---------------------------------|
[---------------------------------|
[---------------------------------|
[---------------------------------|
[Guitar 3  
[ ~~~~~~~~~~~~~~~~~~~~~~~~~~~~~~~~
[---------------------------------|
[------------------8br8-----7-----|
[---------------------------------|
[---------------------------------|
[-3-------------------------------|
[---------------------------------|

 Chorus(distortion on) 
 
 Guitar 1                                            ~~~~~
[---------------------------------------------------------|
[---------------------------------------------------------|
[---------------------------7-----(7)-----7---6-b----6----|
[-6---(6)---6---(6)---------7-----(7)-----7---------------|
[-6---(6)---6---(6)---6-5-x-5-----(5)-----5---------------|
[-4---(4)---4---(4)---------------------------------------|
[Guitar 2
[---------------------------------------------------------|
[---------------------------------------------------------|
[---------------------------7-----(7)-----7----(7)----7-\-|
[-6---(6)---6---(6)---------7-----(7)-----7----(7)----7-\-|
[-6---(6)---6---(6)---6-5-x-5-----(5)-----5----(5)----5-\-|
[-4---(4)---4---(4)---------------------------------------|

 Guitar 1                                            [-------PM------]
[---------------------------------------------------------------------|
[---------------------------------------------------------------------|
[-------------------------\4-----(4)-----4----(4)---------------------|
[-6---(6)---6---(6)-------\4-----(4)-----4----(4)----4-4-4-4--4-4-4-4-|
[-6---(6)---6---(6)---6-5-\2-----(2)-----2----(2)----2-2-2-2--2-2-2-2-|
[-4---(4)---4---(4)---------------------------------------------------|
[Guitar 2                                           h trem dive pull up
[---------------------------------------------------------------------|
[---------------------------------------------------------------------|
[-------------------------\4-----(4)-----4----(4)---3p0trill----3/----|
[-6---(6)---6---(6)-------\4-----(4)-----4----(4)---------------------|
[-6---(6)---6---(6)---6-5-\2-----(2)-----2----(2)---------------------|
[-4---(4)---4---(4)---------------------------------------------------|

 Guitar 1                                             ~~~
[----------------------------------------------------------|
[----------------------------------------------------------|
[---------------------------7-----(7)-----7-/7p6-7p6-7--6\-|
[-6---(6)---6---(6)---------7-----(7)-----7----------------|
[-6---(6)---6---(6)---6-5-x-5-----(5)-----5----------------|
[-4---(4)---4---(4)----------------------------------------|
[Guitar 2
[----------------------------------------------------------|
[----------------------------------------------------------|
[---------------------------7----(7)-----------(7)----7-\--|
[-6---(6)---6---(6)---------7----(7)7-5--------(7)----7-\--|
[-6---(6)---6---(6)---6-5-x-5----(5)----8-5----(5)----5-\--|
[-4---(4)---4---(4)----------------------------------------|

 Both guitars

|---------------------------------------------------------------------|
|---------------------------------------------------------------------|
|-------------------------\4------------(4)----------/7------(7)----\-|
|-6---(6)---6---(6)-------\4------------(4)----------/7------(7)----\-|
|-6---(6)---6---(6)---6-5-\2------------(2)----------/5------(5)----\-|
|-4---(4)---4---(4)---------------------------------------------------|

                                  ~~~~~~~~~~~~~~~~~~~~~~
|-------------------------------------------------------------------|
|-------------------------------------------------------------------|
|-------------------------------------------------------------------|
|-------------------------------------------------------------------|
|-3-------------to feedback--------------b----r---------3-\---------|
|----------------------------------------------------------3--------|

 Rpt Verse with these fills

 Distorted guitar
 ~~~~~~~~~~~~~~~~~~~~~~~~~~~~~~~~
|---------------------------------|
|---------------------------------|
|---------------------------------|
|---------------------------------|
|-3---------------3-\2----/5---5\-|
|---------------------------------|

 ~~~~~~~~~~~~~~~~~~~~~~~~~~~~~~~~
|---------------------------------|
|----------------3-2--------------|
|---------------------------------|
|---------------------------------|
|-3------------------------2----/-|
|--------------------3------------|

 ~~~~~~~~~~~~~~~~~~~~~~~~~~~~~~~~
|---------------------------------|
|---------------------------------|
|---------------------------------|
|---------------------------------|
|-3-------------3-3-\2----/5---5\-|
|---------------------------------|

 ~~~~~~~~~~~~~~~~~~~~~~~~~~~~~~~~
|---------------------------------|
|----------------3-2--------------|
|---------------------------------|
|---------------------------------|
|-3------------------------2----/-|
|--------------------3------------|

 Chorus

 Guitar 1                                     ~~~~~~~~~
[-----------------------------------------------------------|
[-----------------------------------------------------------|
[---------------------------7-----(7)-----<5>------trem-----|
[-6---(6)---6---(6)---------7-----(7)-----------------------|
[-6---(6)---6---(6)---6-5-x-5-----(5)-----------------------|
[-4---(4)---4---(4)-----------------------------------------|
[Guitar 2
[-----------------------------------------------------------|
[-----------------------------------------------------------|
[---------------------------7-----(7)-----7-7-7-(7)-7-7-7-\-|
[-6---(6)---6---(6)---------7-----(7)-----7-7-7-(7)-7-7-7-\-|
[-6---(6)---6---(6)---6-5-x-5-----(5)-----5-5-5-(5)-5-5-5-\-|
[-4---(4)---4---(4)-----------------------------------------|


 Guitar 1                                            [-------PM------]
[---------------------------------------------------------------------|
[---------------------------------------------------------------------|
[-------------------------\4-----(4)-----4----(4)---------------------|
[-6---(6)---6---(6)-------\4-----(4)-----4----(4)----4-4-4-4--4-4-4-4-|
[-6---(6)---6---(6)---6-5-\2-----(2)-----2----(2)----2-2-2-2--2-2-2-2-|
[-4---(4)---4---(4)---------------------------------------------------|
[Guitar 2                                           
[---------------------------------------------------------------------|
[-----------------------------------------------------------11b--r\---|
[-------------------------\4-----(4)-----4----(4)---10b-10------------|
[-6---(6)---6---(6)-------\4-----(4)-----4----(4)---------------------|
[-6---(6)---6---(6)---6-5-\2-----(2)-----2----(2)---------------------|
[-4---(4)---4---(4)---------------------------------------------------|


 Guitar 1                                             ~~~
[----------------------------------------------------------|
[----------------------------------------------------------|
[---------------------------7-----(7)-----7-/7p6-7p6-7--6\-|
[-6---(6)---6---(6)---------7-----(7)-----7----------------|
[-6---(6)---6---(6)---6-5-x-5-----(5)-----5----------------|
[-4---(4)---4---(4)----------------------------------------|
[Guitar 2
[----------------------------------------------------------|
[----------------------------------------------------------|
[---------------------------7----(7)-----------(7)----7-\--|
[-6---(6)---6---(6)---------7----(7)7-5--------(7)----7-\--|
[-6---(6)---6---(6)---6-5-x-5----(5)----8-5----(5)----5-\--|
[-4---(4)---4---(4)----------------------------------------|


 Both guitars

|--------------------------------------------------------------------|
|--------------------------------------------------------------------|
|-------------------------\4------------(4)----------/7------(7)-----|
|-6---(6)---6---(6)-------\4------------(4)----------/7------(7)-----|
|-6---(6)---6---(6)---6-5-\2------------(2)----------/5------(5)-----|
|-4---(4)---4---(4)--------------------------------------------------|


|-----------------|
|-----------------|
|-----------------|
|---------6-5-4---|
|-6-5---4-------6-|
|-----6-----------|

 Guitar 1
 [--------PM--------]
[--------------------|
[--------------------|
[--------------------|
[--------------------|
[-3-3333333-3-3333---|
[-----------------44-|
[Guitar 2
[[--------PM--------]
[--------------------|
[--------------------|
[--------------------|
[--------------------|
[-3---33--3--3--3----|
[---44--44-44-44--44-|

  ~~~~~~~     ~~~~     ~~~~~~~     ~~~~
|------------------------------------------|
|------------------------------------------|
|------------------5\------------------5\--|
|------------6---5---------------6---4-----|
|-3------5-6----------3------5-6-----------|
|------------------------------------------| Rpt

 [-------------------------PM----------------------------]
|---------------------------------------------------------|
|---------------------------------------------------------|
|---------------------------------------------------------|
|-5----5----5----5----8-----------------------------------|
|-3----3----3----3----6-666-666-666-666-4\----------------|
|---44---44---44---44-------------------2\111-111-111-111-|

  [--PM--]
|-------------------|
|-------------------|
|-------------------|
|-6-------/6-5------|
|-4-444-44-----4-\--|
|-------------------|

 [-------------------------PM----------------------------]
|---------------------------------------------------------|
|---------------------------------------------------------|
|---------------------------------------------------------|
|-5----5----5----5----8-----------------------------------|
|-3----3----3----3----6-666-666-666-666-4\----------------|
|---44---44---44---44-------------------2\101-101-101-101-|


 Guitar 1
  [--PM--]
[-----------------|
[-----------------|
[-----------------|
[-6--------6/8-8--|
[-4-444-44-4/6-6--|
[-----------------|
[Guitar 2
[  [--PM--]
[-----------------|
[----------6-7-7\-|
[----------6-6-6\-|
[-6---------------|
[-4-444-44--------|
[-----------------|


 [-------------------------PM----------------------------]
|---------------------------------------------------------|
|---------------------------------------------------------|
|---------------------------------------------------------|
|-5----5----5----5----8-----------------------------------|
|-3----3----3----3----6-666-666-666-666-4\----------------|
|---44---44---44---44-------------------2\111-111-111-111-|

  [--PM--]
|-------------------|
|-------------------|
|-------------------|
|-6-------/6-5------|
|-4-444-44-----4-\--|
|-------------------|

 [-------------------------PM----------------------------]
|---------------------------------------------------------|
|---------------------------------------------------------|
|---------------------------------------------------------|
|-5----5----5----5----8-----------------------------------|
|-3----3----3----3----6-666-666-666-666-4\----------------|
|---44---44---44---44-------------------2\101-101-101-101-|


  [--PM--]
|-----------------|
|-----------------|
|-----------------|
|-6--------6/8-8\-|
|-4-444-44-4/6-6\-|
|-----------------|

 Guitar 1
[---------------------------------|
[---------------------------------|
[---------------------------------|
[-----------------2/4-5-4-5/7-5-4-|
[-4-6-7-6-7/9-7-6-----------------|
[---------------------------------|
[Guitar 2
[   [----PM----]    [----PM----]
[---------------------------------|
[---------------------------------|
[---------------------------------|
[-6-------------6/9---------------|
[-4-444-444-444-4/7-777-777-777---|
[---------------------------------|

    [----PM----]  [----PM----]
|---------------------------------|
|---------------------------------|
|---------------------------------|
|-5-------------5-----------------|
|-3-333-333-333-3-333-333-333-12\-|
|-----------------------------12\-|

 Guitar 1
[---------------------------------|
[---------------------------------|
[---------------------------------|
[-----------------2/4-5-4-5/7-5-4-|
[-4-6-7-6-7/9-7-6-----------------|
[---------------------------------|
[Guitar 2
[  
[---------------------------------|
[---------------------------------|
[---------------------------------|
[-6-----(6)-----6/9------(9)------|
[-4-----(4)-----4/7------(7)------|
[---------------------------------|

    [----PM----]  [----PM----]
|---------------------------------|
|---------------------------------|
|---------------------------------|
|-5-------------5-----------------|
|-3-333-333-333-3-333-333-333-12\-|
|-----------------------------12\-|

 Guitar 1
[---------------------------------|
[---------------------------------|
[---------------------------------|
[-----------------2/4-5-4-5/7-5-4-|
[-4-6-7-6-7/9-7-6-----------------|
[---------------------------------|
[Guitar 2
[   
[---------------------------------|
[---------------------------------|
[---------------------------------|
[-6-----(6)-----6/9---\---2/4\2---|
[-4-----(4)-----4/7---\-----------|
[---------------------------------|

    [----PM----]  [----PM----]
|---------------------------------|
|---------------------------------|
|---------------------------------|
|-5-------------5-----------------|
|-3-333-333-333-3-333-333-333-12\-|
|-----------------------------12\-|

 Guitar 1
[---------------------------------|
[---------------------------------|
[---------------------------------|
[-----------------2/4-5-4-5/7-5-4-|
[-4-6-7-6-7/9-7-6-----------------|
[---------------------------------|
[Guitar 2
[   
[---------------------------------|
[---------------------------------|
[--------------------9------------|
[-6-----(6)-----6/9--9---9--9---\-|
[-4-----(4)-----4/7------7--7---\-|
[---------------------------------|

    [----PM----]  [----PM----]
|---------------------------------|
|---------------------------------|
|---------------------------------|
|-5-------------5-----------------|
|-3-333-333-333-3-333-333-333-12\-|
|-----------------------------12\-|



    PM   PM   PM   PM
|-----------------------------------------|
|-----------------------------------------|
|-----------------------------------------|
|-5----5----5----5------------------------|
|-3----3----3----3----4----4----4----4----|
|---44---44---44---44-2-xx-2-xx-2-xx-2-xx-|

  ~~~~~~~     ~~~~     ~~~~~~~     ~~~~
|------------------------------------------|
|------------------------------------------|
|------------------5\------------------5\--|
|------------6---5---------------6---4-----|
|-3------5-6----------3------5-6-----------|
|------------------------------------------| Rpt 4 X

 Enters 3rd time

|---------------16-15-20\---------------16-14-20\-|
|-13------15-16-----------13------15-16-----------|
|-------------------------------------------------|
|-------------------------------------------------|
|-------------------------------------------------|
|-------------------------------------------------| Rpt

 Guitar 1
[-------------------------------------------------------------------|
[-------------------------------------------------------------------|
[-------------------------------------------------------------------|
[-5----------------------------(5)----------------------------------|
[-3----------------------------(3)----------------------------------|
[-------------------------------------------------------------------|
[Guitar 2
[-------------------------------------------------------------------|
[-------------------------------------------------------------------|
[----------------------------7/8--/10-------------------------------|
[-------------------------------------------------------------------|
[-------------------------------------------------------------------|
[-------------------------------------------------------------------|

 Both guitars

|-------------------|
|-------------------|
|-------------------|
|---------6-5-4-----|
|-6-5---4-------6\--|
|-----6-------------|



END

comments
We did not receive enough feedback on this tab! Please rate:
print report bad tab
1 2 3 4 5
I want to post or [tab]
guest
You may want to rate the tab now too:
select rating
Please do not post tabs as comments. Select "correction" instead!