Oops, an error
Loading. Please wait.

Gone To The Wall Tab

535 views 1 this week
no commentswrite comment
1 2 3 4 5
please rate
Autoscroll
+/-
esc
set tempo
stop
Contributor
Tuning
D# G# C# F# A# D#
WARNING: You are trying to view
                                    content from Ultimate-Guitar.com
                                    in an unauthorized application,
                                    which is prohibited.

                                    Please use an official Ultimate
                                    Guitar Tabs application for iPhone,
                                    iPad or Android to access legitimate
                                    chords, guitar, bass, and drum tabs
                                    from Ultimate-Guitar.com database.

                                    Type "ultimate guitar tabs" in Apple
                                    App Store's or Android Market's
                                    search to find the application.
#----------------------------------PLEASE NOTE---------------------------------#
#This file is the author's own work and represents their interpretation of the #
#song. You may only use this file for private study, scholarship, or research. #
#------------------------------------------------------------------------------#

GONE TO THE WALL
As recorded by Twilightning
(From the 2003 Album DELIRIUM VEIL)

Transcribed by Pete (Delirium_Veil)
        

Words and Music by Ville Wallenius
Arranged by Twilightning

Gtr I (Eb Ab Db Gb Bb Eb) - 'Ville Wallenius'
Gtr II (Eb Ab Db Gb Bb Eb) - 'Tommi Sartanen'
Gtr III (Eb Ab Db Gb Bb Eb) - 'Mikko Naukkerinen'
Gtr IV (Eb Ab Db Gb Bb Eb) - 'Harmony'

 Intro
  Q=212
  C5 D5   N.C.                                                         C5  D5
 2/4     4/4
  Gtr I
  Q  Q    E E E E E E E E   E E Q  E E E E   E E E E E E E E   E E E E E E Q
|-------|-------5-----5---|----------------|-----------------|-----------------|
|-------|-----------8-----|-6---5----------|---6-----5-----6-|-------6-5-------|
|-------|---5-7---7-----7-|---7----7-5-----|-7-----5-----7---|---5-7-----5-7---|
|-5--7--|-7---------------|------------7-8-|-----7-----8-----|-7---------------|
|-3--5--|-----------------|----------------|-----------------|-----------------|
|-------|-----------------|----------------|-----------------|-----------------|
|
| Gtr II
| Q  Q    W                 W                W                 H       Q   Q
|-------|-----------------|----------------|-----------------|-----------------|
|-------|-----------------|----------------|-----------------|-----------------|
|-5--7--|-----------------|----------------|-----------------|---------5---7---|
|-5--7--|-----------------|----------------|-----------------|---------5---7---|
|-3--5--|-----------------|----------------|-----------------|---------3---5---|
|-------|-----------------|----------------|-----------------|-----------------|


  N.C.
  +E  E E E E E E E    E  E   E   Q       E   E   E
|-----------5-----5-|-------------------------------|
|---------------8---|-----6-------5-----------------|
|-(7)---5-7---7-----|--7------7-----------7---5-----|
|-----7-------------|-----------------------------7-|
|-------------------|-------------------------------|
|-------------------|-------------------------------|
|
|                             \1/     \1/     \1/
|  W                   Q     +Q      +Q      +Q
|-------------------|-------------------------------|
|-------------------|-------------------------------|
|--7----------------|-<7>---(<7>)---(<7>)---(<7>)---|
|-------------------|-------------------------------|
|-------------------|-------------------------------|
|-------------------|-------------------------------|


  Bb5    A5     C5
  E  E E E  E E Q    +Q   E E E E E E
|------------------|------------------|
|------6------5----|------------------|
|----7------5------|------------------|
|-8------7------5--|-(5)------5-6-5---|
|------------------|------5-8-------8-|
|------------------|------------------|
|
| Q.     Q.     Q    +Q   E E E E E E
|------------------|------------------|
|------------------|------------------|
|-3------2------5--|-(5)--------------|
|-3------2------5--|-(5)------5-6-5---|
|-1------0------3--|-(3)--5-8-------8-|
|------------------|------------------|


  D5                                   Bb5    A5     Bb5
  Q  E E E E E E   E E E E Q   E E   E E  E E E  E E E    E  E E E E E E E
|----------5-----|-5---------------|-------------------|-------------------|
|--------------8-|-----6---5-------|--------6------5---|-----6-------6p5---|
|------5-7---7---|---7---7-----7-5-|------7------5-----|--7------5-7-----5-|
|----7-----------|-----------------|-7-8------7------8-|-------7-----------|
|----------------|-----------------|-------------------|-------------------|
|----------------|-----------------|-------------------|-------------------|
|
|    PM------------------------------|
| Q  E E E E E E   E E E E E E E E   E Q.     Q.     E   +Q    E E E E E E
|----------------|-----------------|-------------------|-------------------|
|----------------|-----------------|-------------------|-------------------|
|-7--------------|-----------------|---3------2------3-|-(3)---------------|
|-7--------------|-----------------|---3------2------3-|-(3)---------3-2---|
|-5--5-5-5-5-5-5-|-5-5-5-5-5-5-5-5-|-5-1------0------1-|-(1)-----3-5-----3-|
|----------------|-----------------|-------------------|-------5-----------|


  D5
  Q  E E E E E E   E E E E Q   E E
|----------5-----|-5---------------|
|--------------8-|-----6---5-------|
|-7----5-7---7---|---7---7-----7-5-|
|----7-----------|-----------------|
|----------------|-----------------|
|----------------|-----------------|
|
|    PM-----------------------------
| Q  E E E E E E   E E E E E E E E
|----------------|-----------------|
|----------------|-----------------|
|-7--------------|-----------------|
|-7--------------|-----------------|
|-5--5-5-5-5-5-5-|-5-5-5-5-5-5-5-5-|
|----------------|-----------------|


    Bb5    A5     C5
                                  9/8
  E E  E E E  E E E   +W           Q  E E E E E E E
|-------------------|------------|------------------|
|--------6------5---|------------|------------------|
|------7------5-----|------------|------------------|
|-7-8------7------5-|-(5)--------|-5------5-6-5-----|
|-------------------|------------|-3--5-8-------8-5-|
|-------------------|------------|------------------|
|
|-|
| E Q.     Q.     E   +W           Q  E E E E E E E
|-------------------|------------|------------------|
|-------------------|------------|------------------|
|---3------2------5-|-(5)--------|-5----------------|
|---3------2------5-|-(5)--------|-5------5-6-5-----|
|-5-1------0------3-|-(3)--------|-3--5-8-------8-5-|
|-------------------|------------|------------------|


  D5                       Bb5
 4/4
  E  E  E  E  E  E  E  E    +E   E  E  Q   E  E  E
|-------------5--------5-|--(5)--------------------|
|-------------------8----|----------6--5-----------|
|-------5--7-----7-------|-------7---------7--5----|
|----7-------------------|-----------------------7-|
|------------------------|-------------------------|
|------------------------|-------------------------|
|
| W                          W
|------------------------|-------------------------|
|------------------------|-------------------------|
|-7----------------------|---3---------------------|
|-7----------------------|---3---------------------|
|-5----------------------|---1---------------------|
|------------------------|-------------------------|
|
| Gtr III
| E  E  E  E  E  E  E  E    +E   E  E  Q   E  E  E
|------------17-------17-|-(17)--------------------|
|------------------20----|---------18-17-----------|
|------17-19----19-------|------19--------19-17----|
|---19-------------------|----------------------19-|
|------------------------|-------------------------|
|------------------------|-------------------------|


  C5                        G5
   E  E  E  E  E  E  E  E    +E   E  E  Q   E  E  E
|--------------5-----5--6-|--(6)------------------5-|
|-----------6-------------|----------6--8------8----|
|--------7--------7-------|-------7---------7-------|
|--5--7-------------------|-------------------------|
|-------------------------|-------------------------|
|-------------------------|-------------------------|
|
|  W                          W
|-------------------------|-------------------------|
|-------------------------|-------------------------|
|--5----------------------|-------------------------|
|--5----------------------|---5---------------------|
|--3----------------------|---5---------------------|
|-------------------------|---3---------------------|
|
|  E  E  E  E  E  E  E  E    +E   E  E  Q   E  E  E
|-------------17----17-18-|-(18)-----------------17-|
|----------18-------------|---------18-20-----20----|
|-------19-------19-------|------19--------19-------|
|-17-19-------------------|-------------------------|
|-------------------------|-------------------------|
|-------------------------|-------------------------|


  D5                       Bb5
  E  E  E  E  E  E  E  E    +E   E  E  Q   E  E  E
|-------------5--------5-|--(5)--------------------|
|-------------------8----|----------6--5-----------|
|-------5--7-----7-------|-------7---------7--5----|
|----7-------------------|-----------------------7-|
|------------------------|-------------------------|
|------------------------|-------------------------|
|
| W                          W
|------------------------|-------------------------|
|------------------------|-------------------------|
|-7----------------------|---3---------------------|
|-7----------------------|---3---------------------|
|-5----------------------|---1---------------------|
|------------------------|-------------------------|
|
| E  E  E  E  E  E  E  E    +E   E  E  Q   E  E  E
|------------17-------17-|-(17)--------------------|
|------------------20----|---------18-17-----------|
|------17-19----19-------|------19--------19-17----|
|---19-------------------|----------------------19-|
|------------------------|-------------------------|
|------------------------|-------------------------|


  C5
   W           +E   E  E  E  E  E  E  E
|-----------|---------------------------|
|-----------|----------------6--5-------|
|--5--------|--(5)-----5--7--------5----|
|-----------|-------7-----------------7-|
|-----------|---------------------------|
|-----------|---------------------------|
|
|  W           +E   E  E  E  E  E  E  E
|-----------|---------------------------|
|-----------|---------------------------|
|--5--------|--(5)----------------------|
|--5--------|--(5)-----------3--2-------|
|--3--------|--(3)-----3--5--------3----|
|-----------|-------5-----------------5-|
|
|  W           +E   E  E  E  E  E  E  E
|-----------|---------------------------|
|-----------|---------------18-17-------|
|-17--------|-(17)----17-19-------19----|
|-----------|------19----------------19-|
|-----------|---------------------------|
|-----------|---------------------------|


  D5                       Bb5
  E  E  E  E  E  E  E  E    +E   E  E  Q   E  E  E
|-------------5--------5-|--(5)--------------------|
|-------------------8----|----------6--5-----------|
|-------5--7-----7-------|-------7---------7--5----|
|----7-------------------|-----------------------7-|
|------------------------|-------------------------|
|------------------------|-------------------------|
|
| W                          W
|------------------------|-------------------------|
|------------------------|-------------------------|
|-7----------------------|---3---------------------|
|-7----------------------|---3---------------------|
|-5----------------------|---1---------------------|
|------------------------|-------------------------|
|
| E  E  E  E  E  E  E  E    +E   E  E  Q   E  E  E
|------------17-------17-|-(17)--------------------|
|------------------20----|---------18-17-----------|
|------17-19----19-------|------19--------19-17----|
|---19-------------------|----------------------19-|
|------------------------|-------------------------|
|------------------------|-------------------------|


  C5                        G5
   E  E  E  E  E  E  E  E    E  E  E  Q   E  E  E
|--------------5-----5--6-|-----6---------------5-|
|-----------6-------------|-----------8------8----|
|--------7--------7-------|--7-----7------7-------|
|--5--7-------------------|-----------------------|
|-------------------------|-----------------------|
|-------------------------|-----------------------|
|
|  W                         W
|-------------------------|-----------------------|
|-------------------------|-----------------------|
|--5----------------------|-----------------------|
|--5----------------------|--5--------------------|
|--3----------------------|--5--------------------|
|-------------------------|--3--------------------|
|
|  E  E  E  E  E  E  E  E    E  E  E  Q   E  E  E
|-------------17----17-18-|----18--------------17-|
|----------18-------------|----------20-----20----|
|-------19-------19-------|-19----19-----19-------|
|-17-19-------------------|-----------------------|
|-------------------------|-----------------------|
|-------------------------|-----------------------|


  D5                       Bb5
  E  E  E  E  E  E  E  E    +E   E  E  Q   E  E  E
|-------------5--------5-|--(5)--------------------|
|-------------------8----|----------6--5-----------|
|-------5--7-----7-------|-------7---------7--5----|
|----7-------------------|-----------------------7-|
|------------------------|-------------------------|
|------------------------|-------------------------|
|
| W                          W
|------------------------|-------------------------|
|------------------------|-------------------------|
|-7----------------------|---3---------------------|
|-7----------------------|---3---------------------|
|-5----------------------|---1---------------------|
|------------------------|-------------------------|
|
| E  E  E  E  E  E  E  E    +E   E  E  Q   E  E  E
|------------17-------17-|-(17)--------------------|
|------------------20----|---------18-17-----------|
|------17-19----19-------|------19--------19-17----|
|---19-------------------|----------------------19-|
|------------------------|-------------------------|
|------------------------|-------------------------|


  C5                                D5
   H.      +E   E   +E  E E E E E E E
|-----------------|-------------------|
|-----------------|-------------------|
|--5-------(5)----|-------------------|
|--------------/6-|-(6)-5-6-5-6-5---7-|
|-----------------|---------------8-5-|
|-----------------|-------------------|
|
|  H.      +E   E   +E  E E E E E E E
|-----------------|-------------------|
|-----------------|-------------------|
|--5-------(5)----|-------------------|
|--5-------(5)-/6-|-(6)-5-6-5-6-5---7-|
|--3-------(3)----|---------------8-5-|
|-----------------|-------------------|
|
|  W                 W
|-----------------|-------------------|
|-----------------|-------------------|
|-17--------------|-------------------|
|-----------------|-------------------|
|-----------------|-------------------|
|-----------------|-------------------|


 Verse
                                Bb5/F
  Gtrs I, II
  +E  E H.        H.      E E   W          +W
|---------------|-------------|----------|--------|
|---------------|-------------|----------|--------|
|---------------|-----------x-|-3--------|-(3)----|
|-(7)-----------|-----------x-|-3--------|-(3)----|
|-(5)-----------|-----------x-|-1--------|-(1)----|
|---------------|-----------x-|-1--------|-(1)----|


  C5/G                    G5
  Gtr I
  W          +W            W            +W
|----------|------------|------------|----------|
|----------|------------|------------|----------|
|-5--------|-(5)--------|------------|----------|
|-5--------|-(5)--------|--5---------|--(5)-----|
|-3--------|-(3)--------|--5---------|--(5)-----|
|-3--------|-(3)--------|--3---------|--(3)-----|
|
| Gtr II
|                          \2
| W          +W            W            +W
|----------|------------|------------|----------|
|----------|------------|-<5>--------|-(<5>)----|
|-5--------|-(5)--------|------------|----------|
|-5--------|-(5)--------|------------|----------|
|-3--------|-(3)--------|------------|----------|
|-3--------|-(3)--------|------------|----------|


  D5                                  Bb5/F
  Q  E E E E E E    E  E E E Q  E E   W          +W
|----------5-----|--5---------------|----------|--------|
|--------------8-|-------6---5------|----------|--------|
|------5-7---7---|-----7---7----7-5-|-7--------|-(7)----|
|-7--7-----------|------------------|----------|--------|
|-5--------------|------------------|----------|--------|
|----------------|------------------|----------|--------|
|
| W                +W                 W          +W
|----------------|------------------|----------|--------|
|----------------|------------------|----------|--------|
|-7--------------|-(7)--------------|-3--------|-(3)----|
|-7--------------|-(7)--------------|-3--------|-(3)----|
|-5--------------|-(5)--------------|-1--------|-(1)----|
|----------------|------------------|-1--------|-(1)----|


  C5/G                                G5              C5
                                                 9/8
                                      \1               \1/
                                                       ~~~~
  Q  E E E E E E    E  E E E Q  E E   W           +E   W
|----------5-----|--5---------------|-----------|-------------||
|--------------8-|-------6---5------|-8---------|-(8)---------||
|------5-7---7---|-----7---7----7-5-|-----------|-----<5>-----||
|-5--7-----------|------------------|-----------|-------------||
|-3--------------|------------------|-----------|-------------||
|----------------|------------------|-----------|-------------||
|
| W                +W                 W           +E   W
|----------------|------------------|-----------|-------------||
|----------------|------------------|-----------|-------------||
|-5--------------|-(5)--------------|-----------|------5------||
|-5--------------|-(5)--------------|-5---------|-(5)--5------||
|-3--------------|-(3)--------------|-5---------|-(5)--3------||
|-3--------------|-(3)--------------|-3---------|-(3)---------||


 Pre-Chorus
  Bb5
 4/4
   W           +W            +Q   Q   H        +W
|-----------|-------------|-------1--(1)----|--(1)----|
|-----------|-------------|-----------3-----|--(3)----|
|--3--------|--(3)--------|--(3)------------|---------|
|--3--------|--(3)--------|--(3)------------|---------|
|--1--------|--(1)--------|--(1)------------|---------|
|-----------|-------------|-----------------|---------|
|
|  W           +W            +W                +W
|-----------|-------------|-----------------|---------|
|-----------|-------------|-----------------|---------|
|--3--------|--(3)--------|--(3)------------|--(3)----|
|--3--------|--(3)--------|--(3)------------|--(3)----|
|--1--------|--(1)--------|--(1)------------|--(1)----|
|-----------|-------------|-----------------|---------|
|
| Gtr III
|  W           +W            +W                +W
|-----------|-------------|-----------------|---------|
|-11--------|-(11)--------|-(11)------------|-(11)----|
|-10--------|-(10)--------|-(10)------------|-(10)----|
|-12--------|-(12)--------|-(12)------------|-(12)----|
|-----------|-------------|-----------------|---------|
|-----------|-------------|-----------------|---------|


                                F5          C5
   +W             Q   Q  H       W          W
|--(1)--------|---1-----------|-----------|------|
|--(3)--------|-------3-------|-----------|------|
|-------------|----------3----|--5--------|------|
|-------------|---------------|--3--------|-5----|
|-------------|---------------|-----------|-3----|
|-------------|---------------|-----------|------|
|
|  +W            +W              W          W
|-------------|---------------|-----------|------|
|-------------|---------------|-----------|------|
|--(3)--------|--(3)----------|--5--------|------|
|--(3)--------|--(3)----------|--3--------|-5----|
|--(1)--------|--(1)----------|-----------|-3----|
|-------------|---------------|-----------|------|
|
|  +W            +W              W          W
|-------------|---------------|-----------|-8----|
|-(11)--------|-(11)----------|-----------|-8----|
|-(10)--------|-(10)----------|-10--------|-9----|
|-(12)--------|-(12)----------|-10--------|------|
|-------------|---------------|-12--------|------|
|-------------|---------------|-----------|------|


    Bb5                                   C5
        PM-----------|
     Q  E E Q  E E     E  E Q   Q  Q      Q  Q  E E E E   E E E E E E E E
||-----------------|------------1------||---------------|------------------||
||o----------------|---------------3--o||---------------|------------------||
||-----------------|-------------------||-5--5----------|------------------||
||---3-------------|-------------------||-5--5--5-5-5-5-|-------5-6-5------||
||o--1--1-1-1--1-1-|---1--------------o||-3--3--3-3-3-3-|---5-8-------8-5--||
||-----------------|-------------------||---------------|------------------||
|
|       PM-----------|
|    Q  E E Q  E E     E  E H.            Q  Q  E E E E   W
||-----------------|-------------------||---------------|------------------||
||o----------------|------------------o||---------------|------------------||
||-----------------|-------------------||---------------|------------------||
||---3-------------|-------------------||-5--5--5-5-5-5-|------------------||
||o--1--1-1-1--1-1-|---1--------------o||-3--3--3-3-3-3-|------------------||
||-----------------|-------------------||---------------|------------------||
|
|    W                +W                  W               W
||-----------------|-------------------||-8-------------|------------------||
||o-11-------------|-(11)-------------o||-8-------------|------------------||
||--10-------------|-(10)--------------||-9-------------|------------------||
||--12-------------|-(12)--------------||---------------|------------------||
||o----------------|------------------o||---------------|------------------||
||-----------------|-------------------||---------------|------------------||


 Chorus
  $
  $$
  D5                       Bb5
  E  E  E  E  E  E  E  E    +E   E  E  Q   E  E  E
|-------------5--------5-|--(5)--------------------|
|-------------------8----|----------6--5-----------|
|-------5--7-----7-------|-------7---------7--5----|
|----7-------------------|-----------------------7-|
|------------------------|-------------------------|
|------------------------|-------------------------|
|
| W                          W
|------------------------|-------------------------|
|------------------------|-------------------------|
|-7----------------------|---3---------------------|
|-7----------------------|---3---------------------|
|-5----------------------|---1---------------------|
|------------------------|-------------------------|
|
| E  E  E  E  E  E  E  E    +E   E  E  Q   E  E  E
|------------17-------17-|-(17)--------------------|
|------------------20----|---------18-17-----------|
|------17-19----19-------|------19--------19-17----|
|---19-------------------|----------------------19-|
|------------------------|-------------------------|
|------------------------|-------------------------|


  C5                        G5
   E  E  E  E  E  E  E  E    +E   E  E  Q   E  E  E
|--------------5-----5--6-|--(6)------------------5-|
|-----------6-------------|----------6--8------8----|
|--------7--------7-------|-------7---------7-------|
|--5--7-------------------|-------------------------|
|-------------------------|-------------------------|
|-------------------------|-------------------------|
|
|  W                          W
|-------------------------|-------------------------|
|-------------------------|-------------------------|
|--5----------------------|-------------------------|
|--5----------------------|---5---------------------|
|--3----------------------|---5---------------------|
|-------------------------|---3---------------------|
|
|  E  E  E  E  E  E  E  E    +E   E  E  Q   E  E  E
|-------------17----17-18-|-(18)-----------------17-|
|----------18-------------|---------18-20-----20----|
|-------19-------19-------|------19--------19-------|
|-17-19-------------------|-------------------------|
|-------------------------|-------------------------|
|-------------------------|-------------------------|


  D5                       Bb5
  E  E  E  E  E  E  E  E    +E   E  E  Q   E  E  E
|-------------5--------5-|--(5)--------------------|
|-------------------8----|----------6--5-----------|
|-------5--7-----7-------|-------7---------7--5----|
|----7-------------------|-----------------------7-|
|------------------------|-------------------------|
|------------------------|-------------------------|
|
| W                          W
|------------------------|-------------------------|
|------------------------|-------------------------|
|-7----------------------|---3---------------------|
|-7----------------------|---3---------------------|
|-5----------------------|---1---------------------|
|------------------------|-------------------------|
|
| E  E  E  E  E  E  E  E    +E   E  E  Q   E  E  E
|------------17-------17-|-(17)--------------------|
|------------------20----|---------18-17-----------|
|------17-19----19-------|------19--------19-17----|
|---19-------------------|----------------------19-|
|------------------------|-------------------------|
|------------------------|-------------------------|


  C5
   W           +E   E  E  E  E  E  E  E
|-----------|---------------------------|
|-----------|----------------6--5-------|
|--5--------|--(5)-----5--7--------5----|
|-----------|-------7-----------------7-|
|-----------|---------------------------|
|-----------|---------------------------|
|
|  W           +E   E  E  E  E  E  E  E
|-----------|---------------------------|
|-----------|---------------------------|
|--5--------|--(5)----------------------|
|--5--------|--(5)-----------3--2-------|
|--3--------|--(3)-----3--5--------3----|
|-----------|-------5-----------------5-|
|
|  W           +E   E  E  E  E  E  E  E
|-----------|---------------------------|
|-----------|---------------18-17-------|
|-17--------|-(17)----17-19-------19----|
|-----------|------19----------------19-|
|-----------|---------------------------|
|-----------|---------------------------|


  D5                       Bb5
  E  E  E  E  E  E  E  E    +E   E  E  Q   E  E  E
|-------------5--------5-|--(5)--------------------|
|-------------------8----|----------6--5-----------|
|-------5--7-----7-------|-------7---------7--5----|
|----7-------------------|-----------------------7-|
|------------------------|-------------------------|
|------------------------|-------------------------|
|
| W                          W
|------------------------|-------------------------|
|------------------------|-------------------------|
|-7----------------------|---3---------------------|
|-7----------------------|---3---------------------|
|-5----------------------|---1---------------------|
|------------------------|-------------------------|
|
| E  E  E  E  E  E  E  E    +E   E  E  Q   E  E  E
|------------17-------17-|-(17)--------------------|
|------------------20----|---------18-17-----------|
|------17-19----19-------|------19--------19-17----|
|---19-------------------|----------------------19-|
|------------------------|-------------------------|
|------------------------|-------------------------|


                                   To Dbl. Coda
  C5                        G5
   E  E  E  E  E  E  E  E    E  E  E  Q   E  E  E
|--------------5-----5--6-|-----6---------------5-|
|-----------6-------------|-----------8------8----|
|--------7--------7-------|--7-----7------7-------|
|--5--7-------------------|-----------------------|
|-------------------------|-----------------------|
|-------------------------|-----------------------|
|
|  W                         W
|-------------------------|-----------------------|
|-------------------------|-----------------------|
|--5----------------------|-----------------------|
|--5----------------------|--5--------------------|
|--3----------------------|--5--------------------|
|-------------------------|--3--------------------|
|
|  E  E  E  E  E  E  E  E    E  E  E  Q   E  E  E
|-------------17----17-18-|----18--------------17-|
|----------18-------------|----------20-----20----|
|-------19-------19-------|-19----19-----19-------|
|-17-19-------------------|-----------------------|
|-------------------------|-----------------------|
|-------------------------|-----------------------|


                                         To Coda
  D5                       Bb5
  E  E  E  E  E  E  E  E    +E   E  E  Q   E  E  E
|-------------5--------5-|--(5)--------------------|
|-------------------8----|----------6--5-----------|
|-------5--7-----7-------|-------7---------7--5----|
|----7-------------------|-----------------------7-|
|------------------------|-------------------------|
|------------------------|-------------------------|
|
| W                          W
|------------------------|-------------------------|
|------------------------|-------------------------|
|-7----------------------|---3---------------------|
|-7----------------------|---3---------------------|
|-5----------------------|---1---------------------|
|------------------------|-------------------------|
|
| E  E  E  E  E  E  E  E    +E   E  E  Q   E  E  E
|------------17-------17-|-(17)--------------------|
|------------------20----|---------18-17-----------|
|------17-19----19-------|------19--------19-17----|
|---19-------------------|----------------------19-|
|------------------------|-------------------------|
|------------------------|-------------------------|


  C5                                D5
   H.      +E   E   +E  E E E E E E E
|-----------------|-------------------|
|-----------------|-------------------|
|--5-------(5)----|-------------------|
|--------------/6-|-(6)-5-6-5-6-5---7-|
|-----------------|---------------8-5-|
|-----------------|-------------------|
|
|  H.      +E   E   +E  E E E E E E E
|-----------------|-------------------|
|-----------------|-------------------|
|--5-------(5)----|-------------------|
|--5-------(5)-/6-|-(6)-5-6-5-6-5---7-|
|--3-------(3)----|---------------8-5-|
|-----------------|-------------------|
|
|  W                 W
|-----------------|-------------------|
|-----------------|-------------------|
|-17--------------|-------------------|
|-----------------|-------------------|
|-----------------|-------------------|
|-----------------|-------------------|


                               Eb5
                      7/8
      PM---------------------|
  +E  E E  E E E E E   E E E E E E E
|--------------------|---------------||
|--------------------|---------------||
|--------------------|---------------||
|-(7)----------------|---------8-8-8-||
|-(5)-5-5--5-5-5-5-5-|-5-5-5-5-6-6-6-||
|--------------------|---------------||
|
|                                PM|
| +E  E H.             Q   Q   E E E
|--------------------|---------------||
|--------------------|---------------||
|--------------------|---------------||
|-(7)----------------|---------8-----||
|-(5)----------------|---------6-6-6-||
|--------------------|---------------||


 2nd Verse
  E5                      C5/G
 4/4
  Gtr I
  W          +W           W          +W
|----------|------------|----------|--------|
|----------|------------|----------|--------|
|-9--------|-(9)--------|-5--------|-(5)----|
|-9--------|-(9)--------|-5--------|-(5)----|
|-7--------|-(7)--------|-3--------|-(3)----|
|----------|------------|-3--------|-(3)----|
|
| Gtr II
| W          +W           W          +W
|----------|------------|----------|--------|
|----------|------------|----------|--------|
|----------|------------|-5--------|-(5)----|
|-2--------|-(2)--------|-5--------|-(5)----|
|-2--------|-(2)--------|-3--------|-(3)----|
|-0--------|-(0)--------|-3--------|-(3)----|


  D5/A                    A5
                                           \1
  W          +W             W             +W
|----------|------------|-------------|-----------|
|----------|------------|-<12>--------|-(<12>)----|
|-7--------|-(7)--------|-------------|-----------|
|-7--------|-(7)--------|-------------|-----------|
|-5--------|-(5)--------|-------------|-----------|
|-5--------|-(5)--------|-------------|-----------|
|
| W          +W             W             +W
|----------|------------|-------------|-----------|
|----------|------------|-------------|-----------|
|-7--------|-(7)--------|-------------|-----------|
|-7--------|-(7)--------|---7---------|---(7)-----|
|-5--------|-(5)--------|---7---------|---(7)-----|
|-5--------|-(5)--------|---5---------|---(5)-----|


  E5                                   C5/G
  Q  E E E E E  E    E  E E E Q  E E   W          +W
|----------7------|--7---------------|----------|--------|
|--------------10-|-------8---7------|----------|--------|
|------7-9---9----|-----9---9----9-7-|-9--------|-(9)----|
|-9--9------------|------------------|----------|--------|
|-7---------------|------------------|----------|--------|
|-----------------|------------------|----------|--------|
|
| W                 +W                 W          +W
|-----------------|------------------|----------|--------|
|-----------------|------------------|----------|--------|
|-9---------------|-(9)--------------|-5--------|-(5)----|
|-9---------------|-(9)--------------|-5--------|-(5)----|
|-7---------------|-(7)--------------|-3--------|-(3)----|
|-----------------|------------------|-3--------|-(3)----|


  D5/A                                 A5                  D5
                                                     9/8
                                        \0.5
  Q  E E E E E  E    E  E E E Q  E E    W              +E   W
|----------7------|--7---------------|--------------|---------------||
|--------------10-|-------8---7------|-10-----------|-(10)-13b15----||
|------7-9---9----|-----9---9----9-7-|--------------|---------------||
|-7--9------------|------------------|--------------|---------------||
|-5---------------|------------------|--------------|---------------||
|-----------------|------------------|--------------|---------------||
|
| W                 +W                  W              +E   W
|-----------------|------------------|--------------|---------------||
|-----------------|------------------|--------------|---------------||
|-7---------------|-(7)--------------|--------------|-------7-------||
|-7---------------|-(7)--------------|--7-----------|--(7)--7-------||
|-5---------------|-(5)--------------|--7-----------|--(7)--5-------||
|-5---------------|-(5)--------------|--5-----------|--(5)----------||


 Pre-Chorus
  Bb5
 4/4
   W           +W            +Q   Q   H        +W
|-----------|-------------|-------1--(1)----|--(1)----|
|-----------|-------------|-----------3-----|--(3)----|
|--3--------|--(3)--------|--(3)------------|---------|
|--3--------|--(3)--------|--(3)------------|---------|
|--1--------|--(1)--------|--(1)------------|---------|
|-----------|-------------|-----------------|---------|
|
|  W           +W            +W                +W
|-----------|-------------|-----------------|---------|
|-----------|-------------|-----------------|---------|
|--3--------|--(3)--------|--(3)------------|--(3)----|
|--3--------|--(3)--------|--(3)------------|--(3)----|
|--1--------|--(1)--------|--(1)------------|--(1)----|
|-----------|-------------|-----------------|---------|
|
| Gtr III
|  W           +W            +W                +W
|-----------|-------------|-----------------|---------|
|-11--------|-(11)--------|-(11)------------|-(11)----|
|-10--------|-(10)--------|-(10)------------|-(10)----|
|-12--------|-(12)--------|-(12)------------|-(12)----|
|-----------|-------------|-----------------|---------|
|-----------|-------------|-----------------|---------|


                                F5          C5
   +W             Q   Q  H       W          W
|--(1)--------|---1-----------|-----------|------|
|--(3)--------|-------3-------|-----------|------|
|-------------|----------3----|--5--------|------|
|-------------|---------------|--3--------|-5----|
|-------------|---------------|-----------|-3----|
|-------------|---------------|-----------|------|
|
|  +W            +W              W          W
|-------------|---------------|-----------|------|
|-------------|---------------|-----------|------|
|--(3)--------|--(3)----------|-10--------|-5----|
|--(3)--------|--(3)----------|-10--------|-5----|
|--(1)--------|--(1)----------|--8--------|-3----|
|-------------|---------------|-----------|------|
|
|  +W            +W              W          W
|-------------|---------------|-----------|-8----|
|-(11)--------|-(11)----------|-----------|-8----|
|-(10)--------|-(10)----------|-10--------|-9----|
|-(12)--------|-(12)----------|-10--------|------|
|-------------|---------------|-12--------|------|
|-------------|---------------|-----------|------|


  Bb5
      PM-----------|                        PM-----------|
   Q  E E Q  E E     E  E Q   Q  Q      Q   E E Q  E E     E  E Q   Q  Q
|----------------|------------1-----|------------------|------------5-----|
|----------------|---------------3--|------------------|---------------3--|
|----------------|------------------|------------------|------------------|
|--3-------------|------------------|---3--------------|------------------|
|--1--1-1-1--1-1-|---1--------------|---1---1-1-1--1-1-|---1--------------|
|----------------|------------------|------------------|------------------|
|
|     PM-----------|                        PM-----------|
|  Q  E E Q  E E     E  E H.            Q   E E Q  E E     E  E H.
|----------------|------------------|------------------|------------------|
|----------------|------------------|------------------|------------------|
|----------------|------------------|------------------|------------------|
|--3-------------|------------------|---3--------------|------------------|
|--1--1-1-1--1-1-|---1--------------|---1---1-1-1--1-1-|---1--------------|
|----------------|------------------|------------------|------------------|
|
|  W                +W                 +W                 +W
|----------------|------------------|------------------|------------------|
|-11-------------|-(11)-------------|-(11)-------------|-(11)-------------|
|-10-------------|-(10)-------------|-(10)-------------|-(10)-------------|
|-12-------------|-(12)-------------|-(12)-------------|-(12)-------------|
|----------------|------------------|------------------|------------------|
|----------------|------------------|------------------|------------------|


                    D.S. al Coda     &
  C5                                   C5
  Q  Q  E E E E   E E  E E  E E +Q      W           +W
|---------------|--------------------|-----------|---------||
|---------------|----------10p8-(8)--|-----------|---------||
|-5--5----------|--------7-----------|--5--------|--(5)----||
|-5--5--5-5-5-5-|---7-10-------------|-----------|---------||
|-3--3--3-3-3-3-|--------------------|-----------|---------||
|---------------|--------------------|-----------|---------||
|
| Q  Q  E E E E   W                     W           +W
|---------------|--------------------|-----------|---------||
|---------------|--------------------|-----------|---------||
|-5--5----------|--------------------|--5--------|--(5)----||
|-5--5--5-5-5-5-|--------------------|--5--------|--(5)----||
|-3--3--3-3-3-3-|--------------------|--3--------|--(3)----||
|---------------|--------------------|-----------|---------||
|
| W               W                     W           +W
|-8-------------|--------------------|-----------|---------||
|-8-------------|--------------------|-----------|---------||
|-9-------------|--------------------|-17--------|-(17)----||
|---------------|--------------------|-----------|---------||
|---------------|--------------------|-----------|---------||
|---------------|--------------------|-----------|---------||


 Guitar Solo - Ville
  E5                               C5
   Q      E  E     E  E  E     E    E     E  E     E  E     E  E     E
|--------------------------------|-------------------------------------|
|--------12-------12-12-------12-|-------12-------12-------12-------12-|
|-14b16-----14b16-------14b16----|-14b16----14b16----14b16----14b16----|
|--------------------------------|-------------------------------------|
|--------------------------------|-------------------------------------|
|--------------------------------|-------------------------------------|
|
|  W                                W
|--------------------------------|-------------------------------------|
|--------------------------------|-------------------------------------|
|--9-----------------------------|--5----------------------------------|
|--9-----------------------------|--5----------------------------------|
|--7-----------------------------|--3----------------------------------|
|--------------------------------|-------------------------------------|
|
|  W                                W
|-12-----------------------------|--8----------------------------------|
|-12-----------------------------|--8----------------------------------|
|-13-----------------------------|--9----------------------------------|
|--------------------------------|-------------------------------------|
|--------------------------------|-------------------------------------|
|--------------------------------|-------------------------------------|


  G5                           A5
   E     E  E  E  E  E  E  E    E  E  E  E  E  E  E  E
|-------------12-------------|----12-------17-------14b15==|
|-------12----------15-12----|-------15-12----15-14-15b17==|
|-14b16r===14----14-------14-|-14--------------------------|
|----------------------------|-----------------------------|
|----------------------------|-----------------------------|
|----------------------------|-----------------------------|
|
|  W                            W
|----------------------------|-----------------------------|
|----------------------------|-----------------------------|
|----------------------------|-----------------------------|
|--5-------------------------|--7--------------------------|
|--5-------------------------|--7--------------------------|
|--3-------------------------|--5--------------------------|
|
|  W                            W
|----------------------------|-----------------------------|
|--8-------------------------|-10--------------------------|
|--7-------------------------|--9--------------------------|
|--9-------------------------|-11--------------------------|
|----------------------------|-----------------------------|
|----------------------------|-----------------------------|


  E5                              D5
   +Q    +Q       +Q       E  E    +E   E  E  E  E  E  E  E
|-(14)r=(14)b15r=(14)b15--------|------------------------19b20==|
|-(15)r=(15)b17r=(15)b17--14-15-|-(15)-------------12-14--------|
|-------------------------------|------14----11-14--------------|
|-------------------------------|---------12--------------------|
|-------------------------------|-------------------------------|
|-------------------------------|-------------------------------|
|
|   W                               W
|-------------------------------|-------------------------------|
|-------------------------------|-------------------------------|
|---9---------------------------|---7---------------------------|
|---9---------------------------|---7---------------------------|
|---7---------------------------|---5---------------------------|
|-------------------------------|-------------------------------|
|
|   W                               W
|--12---------------------------|--10---------------------------|
|--12---------------------------|--10---------------------------|
|--13---------------------------|--11---------------------------|
|-------------------------------|-------------------------------|
|-------------------------------|-------------------------------|
|-------------------------------|-------------------------------|


  A5
   +E   E  E  E  E  E  E  E     E   E  E  E  E  E  +Q
|-(19)r17p12-------12-------|----------------------------|
|------------14-------14----|--15--14----15-14-----------|
|---------------14-------14-|---------14-------14-(14)\--|
|---------------------------|----------------------------|
|---------------------------|----------------------------|
|---------------------------|----------------------------|
|
|   W                          +W
|---------------------------|----------------------------|
|---------------------------|----------------------------|
|---------------------------|----------------------------|
|---7-----------------------|--(7)-----------------------|
|---7-----------------------|--(7)-----------------------|
|---5-----------------------|--(5)-----------------------|
|
|   W                          +W
|---------------------------|----------------------------|
|--10-----------------------|-(10)-----------------------|
|---9-----------------------|--(9)-----------------------|
|--11-----------------------|-(11)-----------------------|
|---------------------------|----------------------------|
|---------------------------|----------------------------|


  E5                                     C5
   S S  S S S  S S S  S S S S S S  S S    S S S S S S S S S S S  S S S S S
|--------------------------------------|----------7-----------7h12p7-------|
|---------------------------8----------|--------8---8-------8--------8-----|
|----------------7-9------9---9--------|------9-------9---9------------9---|
|---------7-9-10--------9-------9------|----9-----------9----------------9-|
|--7-9-10------------10-----------10-7-|-10--------------------------------|
|--------------------------------------|-----------------------------------|
|
|  W                                      W
|--------------------------------------|-----------------------------------|
|--------------------------------------|-----------------------------------|
|--9-----------------------------------|--5--------------------------------|
|--9-----------------------------------|--5--------------------------------|
|--7-----------------------------------|--3--------------------------------|
|--------------------------------------|-----------------------------------|
|
|  W                                      W
|-12-----------------------------------|--8--------------------------------|
|-12-----------------------------------|--8--------------------------------|
|-13-----------------------------------|--9--------------------------------|
|--------------------------------------|-----------------------------------|
|--------------------------------------|-----------------------------------|
|--------------------------------------|-----------------------------------|


  G5                                                Bb5
                                                     ~~~~~~~~
   S  S  S  S  S  S  S  S  S  S  S  S  S  S  S  S    H     Q   +Q
|----------12-15p12-------17-15-13-18-17-15-17-15-|-18----18--(18)\--|
|-------12----------12----------------------------|------------------|
|----12----------------12-------------------------|------------------|
|-14----------------------------------------------|------------------|
|-------------------------------------------------|------------------|
|-------------------------------------------------|------------------|
|
|  W                                                 W
|-------------------------------------------------|------------------|
|-------------------------------------------------|------------------|
|-------------------------------------------------|------------------|
|--5----------------------------------------------|--8---------------|
|--5----------------------------------------------|--8---------------|
|--3----------------------------------------------|--6---------------|
|
|  W                                                 W
|-------------------------------------------------|------------------|
|--8----------------------------------------------|-11---------------|
|--7----------------------------------------------|-10---------------|
|--9----------------------------------------------|-12---------------|
|-------------------------------------------------|------------------|
|-------------------------------------------------|------------------|


  E5                       C5                D5                       D#5
   H.         S  S  S  S    Q.    Q.    Q     W               +H       H
|------------------------|-15----14--------|-15b17=========|=(15)r----18----|
|-15b17------15p13p12----|-------------17--|---------------|----------------|
|---------------------14-|-----------------|---------------|----------------|
|------------------------|-----------------|---------------|----------------|
|------------------------|-----------------|---------------|----------------|
|------------------------|-----------------|---------------|----------------|
|
|  H.         S  S  S  S    Q.    Q.    Q     W               +H       H
|------------------------|-19----17----15--|---------------|----------------|
|-19b20------19p17p15----|-----------------|-17b19=========|=(17)r----20----|
|---------------------17-|-----------------|---------------|----------------|
|------------------------|-----------------|---------------|----------------|
|------------------------|-----------------|---------------|----------------|
|------------------------|-----------------|---------------|----------------|
|
| Gtr IV
|  W                        W                 W               +H       H
|------------------------|-----------------|---------------|----------------|
|------------------------|-----------------|---------------|----------------|
|--9---------------------|--5--------------|--7------------|--(7)------8----|
|--9---------------------|--5--------------|--7------------|--(7)------8----|
|--7---------------------|--3--------------|--5------------|--(5)------6----|
|------------------------|-----------------|---------------|----------------|


 Breakdown
  E5
  Gtrs I, II
        PM---------------------------------
   E  E E  E  E E  Q      E  E E E Q  E E
|----------------------|------------------|
|----------------------|------------------|
|----------------------|------------------|
|----------------------|------------------|
|--2----2--2--2--------|--2--2-2------2-2-|
|--0----0--0--0--------|--0--0-0------0-0-|
|
| Gtr IV
|  Q    E +E  Q    Q     +W
|-19\------------------|------------------|
|-----------------[0]--|-(0)--------------|
|-------4-(4)----------|------------------|
|--9\------------------|------------------|
|----------------------|------------------|
|----------------------|------------------|


            C5
 ---------|     PM--------------------|
   E  E E E E E E E    E  E Q     E E E E
|-------------------|---------------------|
|-------------------|---------------------|
|-------------------|---------------------|
|-----------5---5-5-|--5----------5-5-5---|
|--2----2-2-3---3-3-|--3----------3-3-3---|
|--0----0-0---------|---------------------|
|
|                           \1.5
| +W                  +Q    H.
|-------------------|---------------------|
|-(0)---------------|-(0)-----------------|
|-------------------|-------4-------------|
|-------------------|---------------------|
|-------------------|---------------------|
|-------------------|---------------------|


            D5
   PM-----|        PM----------------------
   E  E E E E    E E E    E  E Q  E E E E
|----------------------|------------------|
|----------------------|------------------|
|----------------------|------------------|
|--5----5-5-7------7-7-|--7-------7-7-7---|
|--3----3-3-5------5-5-|--5-------5-5-5---|
|----------------------|------------------|
|
|           \1.5
| +H        H            +W
|----------------------|------------------|
|----------------------|------------------|
|-(4)------------------|------------------|
|-----------0----------|-(0)--------------|
|----------------------|------------------|
|----------------------|------------------|


                     A5
 ----------------|        PM---------------------------|
   Q   E E E E E E   E  E E E E E Q     E  E E E E E E E
|------------------|-----------------|-------------------|
|------------------|-----------------|-------------------|
|------------------|-----------------|-------------------|
|------7-7-7---7-7-|-----------------|-------------------|
|------5-5-5---5-5-|-7----7-7-7------|--7--7-7---7---7-7-|
|------------------|-5----5-5-5------|--5--5-5---5---5-5-|
|
|                    \1
| +H       H         W                 +W
|------------------|-----------------|-------------------|
|------------------|-----------------|-------------------|
|----------4S======|=9---------------|-(9)---------------|
|-(0)--------------|-----------------|-------------------|
|------------------|-----------------|-------------------|
|------------------|-----------------|-------------------|


  E5
        PM-------------------------------
   E  E E E  E  E Q     E  E E E Q  E E
|--------------------|------------------|
|--------------------|------------------|
|--------------------|------------------|
|--2-----------------|------------------|
|--2----7-7--7-------|--7--7-7------7-7-|
|--0----0-0--0-------|--0--0-0------0-0-|
|
| +H         H         +W
|--------------------|------------------|
|-----------[0]------|-(0)--------------|
|-(9)----------------|------------------|
|--------------------|------------------|
|--------------------|------------------|
|--------------------|------------------|


            C5
 ---------|         PM--------------------|
   E  E E E  E    E E E     E  E Q   E  E E E
|-----------------------|---------------------|
|-----------------------|---------------------|
|-----------------------|---------------------|
|------------5----------|---------------------|
|--7----7-7--3------3-3-|---3--------3--3-3---|
|--0----0-0---------0-0-|---0--------0--0-0---|
|
|            \1.5                    \1
| +H         H             +H        H
|-----------------------|---------------------|
|-(0)-------------------|---------------------|
|-----------12----------|-(12)------16--------|
|-----------------------|---------------------|
|-----------------------|---------------------|
|-----------------------|---------------------|


             A5  E
    PM-----|       PM------------------------
    E  E E E E E   E  E     E  E Q  E E E E
|-----------------------|-------------------|
|-----------------------|-------------------|
|-----------------------|-------------------|
|-----------------------|-------------------|
|---3----3-3-7-----7--7-|---7-------7-7-7---|
|---0----0-0-5-----0--0-|---0-------0-0-0---|
|
|  +H.             Q       +W
|-----------------------|-------------------|
|-----------------------|-------------------|
|-(16)------------------|-------------------|
|----------------[14]---|-(14)--------------|
|-----------------------|-------------------|
|-----------------------|-------------------|


                      D5
 -----------------|          PM----------------------------|
    Q   E E E E E E     E  E E E E E Q      E  E E E E E E E
|-------------------|-------------------|--------------------||
|-------------------|-------------------|--------------------||
|-------------------|-------------------|--------------------||
|-------------------|---7---------------|--------------------||
|-------7-7-7---7-7-|---5----5-5-5------|---5--5-5---5---5-5-||
|-------0-0-0---0-0-|--------0-0-0------|---0--0-0---0---0-0-||
|
|  +W                  +W                  +W
|-------------------|-------------------|--------------------||
|-------------------|-------------------|--------------------||
|-------------------|-------------------|--------------------||
|-(14)--------------|-(14)--------------|-(14)---------------||
|-------------------|-------------------|--------------------||
|-------------------|-------------------|--------------------||


 Interlude
  A5
         PM------------------------------------------
   E  E  E  E  E  E  Q       E  E  E  E  Q     E  E
|-------------------------|-------------------------|
|-------------------------|-------------------------|
|--2----------------------|-------------------------|
|--2-----7--7--7----------|--7--7--7-----------7--7-|
|--0-----0--0--0----------|--0--0--0-----------0--0-|
|-------------------------|-------------------------|
|
|  E  E  E  E  E  E  E  E    E  E  E  E  E  E  E  E
|-------------------------|-------------------------|
|-----5-----------------3-|-----------------3-------|
|--4-----5--4--2--4--5----|--5--4--2--4--5-----4--5-|
|-------------------------|-------------------------|
|-------------------------|-------------------------|
|-------------------------|-------------------------|
|
| Gtr III
|  E  E  E  E  E  E  E  E    E  E  E  E  E  E  E  E
|-------------------------|-------------------------|
|----17----------------15-|----------------15-------|
|-16----17-16-14-16-17----|-17-16-14-16-17----16-17-|
|-------------------------|-------------------------|
|-------------------------|-------------------------|
|-------------------------|-------------------------|


              F5    A
 ----------|         PM-----------------------|
   E  E  E  E  E  E  E  E    E  E  Q     E  E  E  E
|-------------------------|-------------------------|
|-------------------------|-------------------------|
|--------------5----------|-------------------------|
|--7-----7--7--3-----7--7-|--7-----------7--7--7----|
|--0-----0--0--------0--0-|--0-----------0--0--0----|
|-------------------------|-------------------------|
|
|  E  E  E  E  E  E  E  E    E  E  E  E  E  E  E  E
|-------------------------|-------------------------|
|-----------3--5--6--5--3-|--5--3-----------3-------|
|--2--4--5----------------|--------5--4--5-----5--4-|
|-------------------------|-------------------------|
|-------------------------|-------------------------|
|-------------------------|-------------------------|
|
|  E  E  E  E  E  E  E  E    E  E  E  E  E  E  E  E
|-------------------------|-------------------------|
|----------15-17-18-17-15-|-17-15----------15-------|
|-14-16-17----------------|-------17-16-17----17-16-|
|-------------------------|-------------------------|
|-------------------------|-------------------------|
|-------------------------|-------------------------|


              G5    A
   PM------|         PM------------------------------
   E  E  E  E  E  E  E  E    E  E  Q     E  E  E  E
|-------------------------|-------------------------|
|-------------------------|-------------------------|
|--------------7----------|-------------------------|
|--7-----7--7--5-----7--7-|--7-----------7--7--7----|
|--0-----0--0--------0--0-|--0-----------0--0--0----|
|-------------------------|-------------------------|
|
|  E  E  E  E  E  E  E  E    E  E  E  E  E  E  E  E
|-------------------------|-------------------------|
|--------------3--5--3----|-----3-----------------3-|
|--2--4--5--4-----------5-|--4-----5--4--2--4--5----|
|-------------------------|-------------------------|
|-------------------------|-------------------------|
|-------------------------|-------------------------|
|
|  E  E  E  E  E  E  E  E    E  E  E  E  E  E  E  E
|-------------------------|-------------------------|
|-------------15-17-15----|----15----------------15-|
|-14-16-17-16----------17-|-16----17-16-14-16-17----|
|-------------------------|-------------------------|
|-------------------------|-------------------------|
|-------------------------|-------------------------|


                            D5    A
 ----------------------|           PM--------------------------------------|
   Q     E  E  E  E  E  E    E  E  E  E  E  E  Q       E  E  E  E  E  E  E  E
|-------------------------|-------------------------|-------------------------|
|-------------------------|-------------------------|-------------------------|
|-------------------------|-------------------------|-------------------------|
|--------7--7--7-----7--7-|--7-----7--7--7----------|--7--7--7-----7-----7--7-|
|--------0--0--0-----0--0-|--5-----0--0--0----------|--0--0--0-----0-----0--0-|
|-------------------------|-------------------------|-------------------------|
|
|  E  E  E  E  E  E  E  E    E  E  E  E  E  E  E  E    E  E  E  E  E  E  E  E
|-------------------------|-------------------------|-------------------------|
|--5--3-----------3-------|--5--6--5--3-----3-------|-------------------------|
|--------5--4--2-----5--4-|--------------5-----5--4-|--2--5--4--2--4--5--2----|
|-------------------------|-------------------------|-----------------------5-|
|-------------------------|-------------------------|-------------------------|
|-------------------------|-------------------------|-------------------------|
|
|  E  E  E  E  E  E  E  E    E  E  E  E  E  E  E  E    E  E  E  E  E  E  E  E
|-------------------------|-------------------------|-------------------------|
|-17-15----------15-------|-17-18-17-15----15-------|-------------------------|
|-------17-16-14----17-16-|-------------17----17-16-|-14-17-16-14-16-17-14----|
|-------------------------|-------------------------|----------------------17-|
|-------------------------|-------------------------|-------------------------|
|-------------------------|-------------------------|-------------------------|


  A5    A
         PM------------------------------------------
   E  E  E  E  E  E  Q       E  E  E  E  Q     E  E
|-------------------------|-------------------------|
|-------------------------|-------------------------|
|--2----------------------|-------------------------|
|--2-----7--7--7----------|--7--7--7-----------7--7-|
|--0-----0--0--0----------|--0--0--0-----------0--0-|
|-------------------------|-------------------------|
|
|  E  E  E  E  E  E  E  E    E  E  E  E  E  E  E  E
|-------------------------|-------------------------|
|-----5-----------------3-|-----------------3-------|
|--4-----5--4--2--4--5----|--5--4--2--4--5-----5--4-|
|-------------------------|-------------------------|
|-------------------------|-------------------------|
|-------------------------|-------------------------|
|
|  E  E  E  E  E  E  E  E    E  E  E  E  E  E  E  E
|-------------------------|-------------------------|
|----17----------------15-|----------------15-------|
|-16----17-16-14-16-17----|-17-16-14-16-17----17-16-|
|-------------------------|-------------------------|
|-------------------------|-------------------------|
|-------------------------|-------------------------|


              F5    A
 ----------|         PM-----------------------|
   E  E  E  E  E  E  E  E    E  E  Q     E  E  E  E
|-------------------------|-------------------------|
|-------------------------|-------------------------|
|--------------5----------|-------------------------|
|--7-----7--7--3-----7--7-|--7-----------7--7--7----|
|--0-----0--0--------0--0-|--0-----------0--0--0----|
|-------------------------|-------------------------|
|
|  E  E  E  E  E  E  E  E    E  E  E  E  E  E  E  E
|-------------------------|-------------------------|
|-----------3--5--6--5--3-|--5--3-----------3-------|
|--2--4--5----------------|--------5--4--5-----5--4-|
|-------------------------|-------------------------|
|-------------------------|-------------------------|
|-------------------------|-------------------------|
|
|  E  E  E  E  E  E  E  E    E  E  E  E  E  E  E  E
|-------------------------|-------------------------|
|----------15-17-18-17-15-|-17-15----------15-------|
|-14-16-17----------------|-------17-16-17----17-16-|
|-------------------------|-------------------------|
|-------------------------|-------------------------|
|-------------------------|-------------------------|


              D5    A
   PM------|         PM----------------------------------------------------|
   E  E  E  E  E  E  E  E    E  E  Q     E  E  E  E    Q     E  E  E  E  E  E
|-------------------------|-------------------------|-------------------------|
|-------------------------|------
comments
We did not receive enough feedback on this tab! Please rate:
1 2 3 4 5
I want to post or [tab]
guest
You may want to rate the tab now too:
select rating
Please do not post tabs as comments. Select "correction" instead!