Oops, an error
Loading. Please wait.

This Is The Life Tab

ver1
ver1

Intro

Whole song

More versions @911Tabs.com
29,081 views 51 this week
2 commentsread comments
1 2 3 4 5
excellent!
x 6
Autoscroll
+/-
esc
set tempo
stop
Difficulty
intermediate
Hey! There's an official Ultimate Guitar app which is ideal
for learning songs when you're away from computer. Get the app
WARNING: You are trying to view
                                    content from Ultimate-Guitar.com
                                    in an unauthorized application,
                                    which is prohibited.

                                    Please use an official Ultimate
                                    Guitar Tabs application for iPhone,
                                    iPad or Android to access legitimate
                                    chords, guitar, bass, and drum tabs
                                    from Ultimate-Guitar.com database.

                                    Type "ultimate guitar tabs" in Apple
                                    App Store's or Android Market's
                                    search to find the application.
I'm almost sure that this tab is 100% correct, but at last you can play it however you 
this is my version and I hope you enjoy playing this great song.

... = picking


Intro
e|-----------------------------------------------------|
B|--19...--17...--9--9--9--19...--10...--12--10--9--9--|
G|-----------------------------------------------------|
D|-----------------------------------------------------|
A|-----------------------------------------------------|
E|-----------------------------------------------------|


e|----------------------------------------|
B|-5--7b9r7--7b9r7--7b9r7--5--0--5--------|
G|---------------------------------   X 2-|
D|----------------------------------------|
A|----------------------------------------|
E|----------------------------------------|


e|-------------------------------------------------------|
B|----19...--17...--9--9--9--19...--10...--12--10--9--9--|
G|-------------------------------------------------------|
D|-------------------------------------------------------|
A|-------------------------------------------------------|
E|-------------------------------------------------------|


e|----------------------------------------|
B|-5--7b9r7--7b9r7--7b9r7--5--0--5--------|
G|---------------------------------   X 2-|
D|----------------------------------------|
A|----------------------------------------|
E|----------------------------------------|

Verse 1
e|------------------------------------------------------------|
B|------------------16--16--16--------------------17--17--16--|
G|------------------16--16--16--------------------16--16--16--|  X 4
D|----------18----------------------------18------------------|
A|--16--16------19----------------16--16------19--------------|
E|------------------------------------------------------------|


e|--------------------------------------------------|
B|--9--9--7--7--5--5--4--4--2--2--0--0--2--2--4--4--|
G|--------------------------------------------------|   X 2
D|--------------------------------------------------|
A|--------------------------------------------------|
E|--------------------------------------------------|


e|----------------------------------------|
B|-5--7b9r7--7b9r7--7b9r7--5--0--5--------|
G|---------------------------------   X 2-|
D|----------------------------------------|
A|----------------------------------------|
E|----------------------------------------|

Chorus 1
e|--------------------------------------|
B|--9...--9b10...--9...--9b10...--9--7--|
G|--------------------------------------|
D|--------------------------------------|
A|--------------------------------------|
E|--------------------------------------|


e|----------------------------------------------------|
B|--17--19b21r19--19b21r19--19b21r19--17--0--17-------|
G|----------------------------------------------  X 2-|
D|----------------------------------------------------|
A|----------------------------------------------------|
E|----------------------------------------------------|


e|--------------------------------------|
B|--9...--9b10...--9...--9b10...--9--7--|
G|--------------------------------------|
D|--------------------------------------|
A|--------------------------------------|
E|--------------------------------------|


e|----------------------------------------------------|
B|--17--19b21r19--19b21r19--19b21r19--17--0--17-------|
G|----------------------------------------------  X 2-|
D|----------------------------------------------------|
A|----------------------------------------------------|
E|----------------------------------------------------|

Verse 2
e|------------------------------------------------------------|
B|------------------16--16--16--------------------17--17--16--|
G|------------------16--16--16--------------------16--16--16--|  X 4
D|----------18----------------------------18------------------|
A|--16--16------19----------------16--16------19--------------|
E|------------------------------------------------------------|


e|------------------------------------------------------------|
B|------------------16--16--16--------------------17--17--16--|
G|------------------16--16--16--------------------16--16--16--|  X 4
D|----------18----------------------------18------------------|
A|--16--16------19----------------16--16------19--------------|
E|------------------------------------------------------------|


e|--------------------------------------------------|
B|--9--9--7--7--5--5--4--4--2--2--0--0--2--2--4--4--|
G|--------------------------------------------------|   X 2
D|--------------------------------------------------|
A|--------------------------------------------------|
E|--------------------------------------------------|


e|----------------------------------------|
B|-5--7b9r7--7b9r7--7b9r7--5--0--5--------|
G|---------------------------------   X 2-|
D|----------------------------------------|
A|----------------------------------------|
E|----------------------------------------|

Chorus 2
e|--------------------------------------|
B|--9...--9b10...--9...--9b10...--9--7--|
G|--------------------------------------|
D|--------------------------------------|
A|--------------------------------------|
E|--------------------------------------|

e|----------------------------------------------------|
B|--17--19b21r19--19b21r19--19b21r19--17--0--17-------|
G|----------------------------------------------  X 2-|
D|----------------------------------------------------|
A|----------------------------------------------------|
E|----------------------------------------------------|


e|--------------------------------------|
B|--9...--9b10...--9...--9b10...--9--7--|
G|--------------------------------------|
D|--------------------------------------|
A|--------------------------------------|
E|--------------------------------------|


e|----------------------------------------------------|
B|--17--19b21r19--19b21r19--19b21r19--17--0--17-------|
G|----------------------------------------------  X 2-|
D|----------------------------------------------------|
A|----------------------------------------------------|
E|----------------------------------------------------|


e|--------------------------------------------------------|
B|----19...--17...--9--9--9--19...--10...--12--10--9--9---|
G|--------------------------------------------------------|
D|--------------------------------------------------------|
A|--------------------------------------------------------|
E|--------------------------------------------------------|


e|----------------------------------------|
B|-5--7b9r7--7b9r7--7b9r7--5--0--5--------|
G|---------------------------------   X 2-|
D|----------------------------------------|
A|----------------------------------------|
E|----------------------------------------|


e|--------------------------------------------------------|
B|----19...--17...--9--9--9--19...--10...--12--10--9--9---|
G|--------------------------------------------------------|
D|--------------------------------------------------------|
A|--------------------------------------------------------|
E|--------------------------------------------------------|


e|----------------------------------------|
B|-5--7b9r7--7b9r7--7b9r7--5--0--5--------|
G|---------------------------------   X 2-|
D|----------------------------------------|
A|----------------------------------------|
E|----------------------------------------|


e|------------------------------------------------------------|
B|------------------16--16--16--------------------17--17--16--|
G|------------------16--16--16--------------------16--16--16--|  X 4
D|----------18----------------------------18------------------|
A|--16--16------19----------------16--16------19--------------|
E|------------------------------------------------------------|


e|--------------------------------------------------|
B|--9--9--7--7--5--5--4--4--2--2--0--0--2--2--4--4--|
G|--------------------------------------------------|   X 2
D|--------------------------------------------------|
A|--------------------------------------------------|
E|--------------------------------------------------|


e|----------------------------------------|
B|-5--7b9r7--7b9r7--7b9r7--5--0--5--------|
G|---------------------------------   X 2-|
D|----------------------------------------|
A|----------------------------------------|
E|----------------------------------------|


e|--------------------------------------|
B|--9...--9b10...--9...--9b10...--9--7--|
G|--------------------------------------|
D|--------------------------------------|
A|--------------------------------------|
E|--------------------------------------|


e|-----------------------------------------------|
B|--17--19b21r19--19b21r19--19b21r19--17--0--17--|
G|-----------------------------------------------|  X 2
D|-----------------------------------------------|
A|-----------------------------------------------|
E|-----------------------------------------------|


e|--------------------------------------|
B|--9...--9b10...--9...--9b10...--9--7--|
G|--------------------------------------|
D|--------------------------------------|
A|--------------------------------------|
E|--------------------------------------|


e|-----------------------------------------------|
B|--17--19b21r19--19b21r19--19b21r19--17--0--17--|
G|-----------------------------------------------|  X 2
D|-----------------------------------------------|
A|-----------------------------------------------|
E|-----------------------------------------------|


e|------------------------------------------------------------|
B|------------------16--16--16--------------------17--17--16--|
G|------------------16--16--16--------------------16--16--16--|  X 4
D|----------18----------------------------18------------------|
A|--16--16------19----------------16--16------19--------------|
E|------------------------------------------------------------|


e|------------------------------------------------------------|
B|------------------16--16--16--------------------17--17--16--|
G|------------------16--16--16--------------------16--16--16--|  X 4
D|----------18----------------------------18------------------|
A|--16--16------19----------------16--16------19--------------|
E|------------------------------------------------------------|


e|--------------------------------------------------|
B|--9--9--7--7--5--5--4--4--2--2--0--0--2--2--4--4--|
G|--------------------------------------------------|   X 2
D|--------------------------------------------------|
A|--------------------------------------------------|
E|--------------------------------------------------|


e|----------------------------------------|
B|-5--7b9r7--7b9r7--7b9r7--5--0--5--------|
G|---------------------------------   X 2-|
D|----------------------------------------|
A|----------------------------------------|
E|----------------------------------------|


e|--------------------------------------|
B|--9...--9b10...--9...--9b10...--9--7--|
G|--------------------------------------|
D|--------------------------------------|
A|--------------------------------------|
E|--------------------------------------|


e|-----------------------------------------------|
B|--17--19b21r19--19b21r19--19b21r19--17--0--17--|
G|-----------------------------------------------|  X 2
D|-----------------------------------------------|
A|-----------------------------------------------|
E|-----------------------------------------------|

This are the strings that I play, you just have to follow the rhythm of the song

e|---x----x------|
B|---x----x------|
G|---x----x------|
D|---18---21-----|
A|---18---18-----|
E|---x----x------|


e|------------------------------|
B|------------------------------|
G|------18----------------------|  X 3
D|----------19--18------18------|
A|--16--------------19------19--|
E|------------------------------|


e|----------------------|
B|----------------------|
G|------18--------------|
D|----------19--18--19--|
A|--16------------------|
E|----------------------|


e|------------------------------|
B|--17--17----------------------|
G|----------20--18--------------|  X 3
D|------------------21--18--21--|
A|------------------------------|
E|------------------------------|


e|----------------------|
B|--17--17------17--19--|
G|----------20----------|
D|----------------------|
A|----------------------|
E|----------------------|


e|----------------------------|
B|--21b23--17--19--17---------|
G|---------------------18b20--|  X 3
D|----------------------------|
A|----------------------------|
E|----------------------------|


e|------------|
B|--17--17/0--|
G|------------|
D|------------|
A|------------|
E|------------|

ENJOY!
comments
print report bad tab
2 comments total.
+1 reply
Cro Cro Cross wrote on November 14 2010, 02:19 pm

I dont know what happened, because after verse 2 all went wrong, but here is the correction


-------------------------------------------------------------------------------
This is the life - Two Door Cinema Club
-------------------------------------------------------------------------------
Tabbed by: Crossleylaw
Email: ptoby_lc@hotmail.com

. = picking

Tuning: Standard

Intro
e|---------------------------------------------------------------------|
B|--19.--17.--9--9--9/19.--10.--12--10--9--9---------------------------|
G|---------------------------------------------------------------------|
D|---------------------------------------------------------------------|
A|---------------------------------------------------------------------|
E|---------------------------------------------------------------------|
x 2
e|---------------------------------------------------------------------|
B|-5--7b9r7--7b9r7--7b9r7--5--0--5----5--7b9r7--7b9r7--7b9r7--5--0--5--|
G|---------------------------------------------------------------------|
D|---------------------------------------------------------------------|
A|---------------------------------------------------------------------|
E|---------------------------------------------------------------------|

Verse 1
e|------------------------------------------------------------|
B|------------------16--16--16--------------------17--17--16--|
G|------------------16--16--16--------------------16--16--16--| x 4
D|----------18----------------------------18------------------|
A|--16--16------19----------------16--16------19--------------|
E|------------------------------------------------------------|

e|--------------------------------------------------|
B|--9--9--7--7--5--5--4--4--2--2--0--0--2--2--4--4--|
G|--------------------------------------------------| x 2
D|--------------------------------------------------|
A|--------------------------------------------------|
E|--------------------------------------------------|

e|----------------------------------|
B|--5--7b9r7--7b9r7--7b9r7--5--0--5-|
G|----------------------------------| x 2
D|----------------------------------|
A|----------------------------------|
E|----------------------------------|

Chorus 1 (x2)
e|------------------------------|
B|--9.--9b10.--9.--9b10.--9--7--|
G|------------------------------|
D|------------------------------|
A|------------------------------|
E|------------------------------|

e|-----------------------------------------------|
B|--17--19b21r19--19b21r19--19b21r19--17--0--17--|
G|-----------------------------------------------| X 2
D|-----------------------------------------------|
A|-----------------------------------------------|
E|-----------------------------------------------|

Verse 2
e|------------------------------------------------------------|
B|------------------16--16--16--------------------17--17--16--|
G|------------------16--16--16--------------------16--16--16--| x 4
D|----------18----------------------------18------------------|
A|--16--16------19----------------16--16------19--------------|
E|------------------------------------------------------------|

e|--------------------------------------------------|
B|--9--9--7--7--5--5--4--4--2--2--0--0--2--2--4--4--|
G|--------------------------------------------------| x 2
D|--------------------------------------------------|
A|--------------------------------------------------|
E|--------------------------------------------------|

e|----------------------------------|
B|--5--7b9r7--7b9r7--7b9r7--5--0--5-|
G|----------------------------------| x 2
D|----------------------------------|
A|----------------------------------|
E|----------------------------------|

Chorus 2 (x3)
e|------------------------------|
B|--9.--9b10.--9.--9b10.--9--7--|
G|------------------------------|
D|------------------------------|
A|------------------------------|
E|------------------------------|

e|-----------------------------------------------|
B|--17--19b21r19--19b21r19--19b21r19--17--0--17--|
G|-----------------------------------------------| X 2
D|-----------------------------------------------|
A|-----------------------------------------------|
E|-----------------------------------------------|

This are the strings that I play, you just have to follow the rhythm of
the song

e|---x----x------|
B|---x----x------|
G|---x----x------|
D|---18---21-----|
A|---18---18-----|
E|---x----x------|

e|------------------------------|
B|------------------------------|
G|------18----------------------| x 3
D|----------19--18------18------|
A|--16--------------19------19--|
E|------------------------------|

e|----------------------|
B|----------------------|
G|------18--------------|
D|----------19--18--19--|
A|--16------------------|
E|----------------------|

e|------------------------------|
B|--17--17----------------------|
G|----------20--18--------

0 reply
conor.bailey.3 wrote on January 7 2014, 10:07 am

Couple of corrections

Verse part was very close:
(I found it easier on higher strings)
e|-------------11-11-11-------------12-12-14-|
B|-------------12-12-12-------------12-12-12-|
G|-------13-------------------13-------------| X3
D|-11-11----14----------11-11----14----------|
A|-------------------------------------------|
E|-------------------------------------------|

e|-------------11-11-11-------------14-14-12-|
B|-------------12-12-12-------------12-12-12-|
G|-------13-------------------13-------------|
D|-11-11----14----------11-11----14----------|
A|-------------------------------------------|
E|-------------------------------------------|

Higher parts of the chorus':

e|-----------------------------------------|
B|-19b21r19--19b21r19--19b21r19--17----17--|
G|----------------------------------16-----|
D|-----------------------------------------|
A|-----------------------------------------|
E|-----------------------------------------|

Here?s the bit people are probably looking for, that last 38 seconds or so...

Guitar 1 (Solo parts)

(Guitar 2: Riff A [Riffs below])
e|-x--x--x--x--x--x--x--x--x--x--x--x--x--x--x--x--| <<------
B|-12-12-12-12-12-12-12-12-x--x--x--x--x--x--x--x--| |
G|-x--x--x--x--x--x--x--x--13-13-13-13-13-13-13-13-| X3 |
D|-x--x--x--x--x--x--x--x--x--x--x--x--x--x--x--x--| |
A|-------------------------------------------------| |
E|-------------------------------------------------| |
Go around X2
e|-x--x--x--x--x--x--x--x--x--x--x--x--| |
B|-12-12-12-12-12-12-12-12-x--x--x--x--| |
G|-x--x--x--x--x--x--x--x--13-13-13-13-| |
D|-x--x--x--x--x--x--x--x--x--x--x--x--| |
A|-------------------------------------| |
E|-------------------------------------| <<------

(Guitar 2: Riff A)
e|-x--x--x--x--x--x--x--x--x--x--x--x--x--x--x--x--|
B|-x--x--x--14-14-14-x--x--x--x--x--x--x--x--x--x--|
G|-13-13-13-x--x--x--14-14-13-13-13-13-13-13-13-13-| X4
D|-x--x--x--x--x--x--x--x--x--x--x--x--x--x--x--x--|
A|-------------------------------------------------|
E|-------------------------------------------------|

(Guitar 2: Riff B)
e|------------------------| |---------------|
B|-17~-17~-16----------16-| |-17~-17~-16-17-|
G|------------16-14-13~---| X3 |---------------|
D|------------------------| |---------------|
A|------------------------| |---------------|
E|------------------------| |---------------|

(Guitar 2: Riff C)
e|-------------------------| |---------|
B|-19b22r19-19-17----------| |---------|
G|----------------18b20r18-| X3 |-17--17\-|
D|-------------------------| |---------|
A|-------------------------| |---------|
E|-------------------------| |---------|

Guitar 2 Riffs: (Mute all strings but try to just hit the top 4)

Riff A
e|-x-x-x-x-x-x-| |--x-x--x-x---|
B|-x-x-x-x-x-x-| |--x-x--x-x---|
G|-9-x-9-x-x-8-| X3 |--9-11-9-8---|
D|-x-x-x-x-x-x-| |--x-x--x-x---|
A|-------------| |-------------|
E|-------------| |-------------|

e|-x-x-x-x-x-x-| |--x-x---|
B|-x-x-x-x-x-x-| |--x-x---|
G|-9-x-9-x-x-8-| X3 |--9-11--|
D|-x-x-x-x-x-x-| |--x-x---|
A|-------------| |--------|
E|-------------| |--------|

Riff B

e|-12-x-12-x-x-11--| |-12-12-11~---|
B|-12-x-12-x-x-12--| |-12-12-12~---|
G|-9--x-9--x-x-9---| X3 |-9--9--9~----|
D|-x--x-x--x-x-x---| |-------------|
A|-----------------| |-------------|
E|-----------------| |-------------|

e|-12-x-12-x-x-11--| |-12-12--|
B|-12-x-12-x-x-12--| |-12-12--|
G|-9--x-9--x-x-9---| X3 |-9--9---|
D|-x--x-x--x-x-x---| |--------|
A|-----------------| |--------|
E|-----------------| |--------|

Riff C
e|-x-x-x-x-x-x-| |--x-x--x-x---|
B|-x-x-x-x-x-x-| |--x-x--x-x---|
G|-9-x-9-x-x-8-| X3 |--9-11-9-8---|
D|-x-x-x-x-x-x-| |--x-x--x-x---|
A|-------------| |-------------|
E|-------------| |-------------|

e|-x-x-x-x-x-x-| |--------|
B|-x-x-x-x-x-x-| |--------|
G|-9-x-9-x-x-8-| X2 |-9--9\--|
D|-x-x-x-x-x-x-| |--------|
A|-------------| |--------|
E|-------------| |--------|

I want to post or [tab]
guest
You may want to rate the tab now too:
select rating
Please do not post tabs as comments. Select "correction" instead!