Oops, an error
Loading. Please wait.

Tourist History Bass Tab

4,347 views 3 this week
no commentswrite comment
1 2 3 4 5
excellent!
x 6
Autoscroll
+/-
esc
set tempo
stop
Contributor
Difficulty
intermediate
NEW! There's an official Ultimate Guitar app which is ideal
for learning songs when you're away from computer. Get the app
WARNING: You are trying to view
                                    content from Ultimate-Guitar.com
                                    in an unauthorized application,
                                    which is prohibited.

                                    Please use an official Ultimate
                                    Guitar Tabs application for iPhone,
                                    iPad or Android to access legitimate
                                    chords, guitar, bass, and drum tabs
                                    from Ultimate-Guitar.com database.

                                    Type "ultimate guitar tabs" in Apple
                                    App Store's or Android Market's
                                    search to find the application.
Artist: Two Door Cinema Club

Album: Tourist History



All tabs by Pedro Zappa
-----------------------------------------------------------------------------
-----------------------------------------------------------------------------


1. Cigarettes In The Theatre


Intro

G||--------------------|--------------------|
D||--------------------|-----------5-5------|
A||-0-0----0--0----0---|----------------7-7-|
E||--------------------|--------------------|

G||--------------------|--------------------||
D||--------------------|--------------------||  x3
A||-3-3----3--3----3---|-----------3-3--5-5-||
E||--------------------|--------------------||

G||--------------------|--------------------|
D||--------------------|-----------5-5------|
A||-0-0----0--0----0---|----------------7-7-|
E||--------------------|--------------------|

G||--------------------|--------------------||
D||--------------------|--------------------||
A||-3-3----3--3----3---|--------------------||
E||--------------------|--------------------||

---

G||--------------------|--------------------|
D||-----------5--------|-----------5--------|
A||-0----0------7--0-3-|---3--3-3----7--3---|
E||--------------------|--------------------|

G||--------------------|--------------------||
D||-----------5--------|-----------5--------||  x2
A||-------------7------|-------------7------||
E||-3----3---------0-3-|---3--3-3-------3---||


Verse

G||-------------------|-------------------|
D||-------------------|-------------------|
A||-0----0----0--0--2-|-3----3----3--3--3-|
E||-------------------|-------------------|

G||-------------------|-------------------|
D||-------------------|-------------------|
A||-------------------|-7----7----7--7--7-|
E||-3----3----3--0--3-|-------------------|

---

G||-------------------|-------------------|
D||-------------------|-------------------|
A||-0----0----0--0--2-|-3----3----3--3--3-|
E||-------------------|-------------------|

G||-------------------|--------------------||
D||-------------------|--------------------||
A||-------------------|-7----7----7-7--7---||
E||-3----3----3--0--3-|--------------------||


Chorus

G||--------------------|---------------------|
D||--------------------|---------------------|
A||-7-7----7--7-7--7-7-|---7--7-7--9-9--10\--|
E||--------------------|---------------------|

G||--------------------|--------------------|
D||--------------------|--------------------|
A||-3-3----3--3-3----3-|---3----3--3-3--3-3-|
E||--------------------|--------------------|

G||--------------------|--------------------|
D||--------------------|--------------------|
A||--------------------|--------------------|
E||-3-3----3--3----3-3-|---3--3----3-3--3-3-|

G||--------------------|--------------------||
D||--------------------|--------------------||  x2
A||-5-5----5--5----5-5-|-5-5--5-5--3-3--2-2-||
E||--------------------|--------------------||

---

G||--------------------|--------------------|
D||-----------5--------|-----------5--------|
A||-0----0------7--0-3-|---3--3-3----7--3---|
E||--------------------|--------------------|

G||--------------------|--------------------||
D||-----------5--------|-----------5--------||  x2
A||-------------7------|-------------7------||
E||-3----3---------0-3-|---3--3-3-------3---||


Verse 2

G||-------------------|-------------------|
D||-------------------|-------------------|
A||-0----0----0--0--2-|-3----3----3--3--3-|
E||-------------------|-------------------|

G||-------------------|-------------------|
D||-------------------|-------------------|
A||-------------------|-7----7----7--7--7-|
E||-3----3----3--0--3-|-------------------|

---

G||-------------------|-------------------|
D||-------------------|-------------------|
A||-0----0----0--0--2-|-3----3----3--3--3-|
E||-------------------|-------------------|

G||-------------------|--------------------||
D||-------------------|--------------------||
A||-------------------|-7----7----7-7--7---||
E||-3----3----3--0--3-|--------------------||


Chorus 2

G||--------------------|---------------------|
D||--------------------|---------------------|
A||-7-7----7--7-7--7-7-|---7--7-7--9-9--10\--|
E||--------------------|---------------------|

G||--------------------|--------------------|
D||--------------------|--------------------|
A||-3-3----3--3-3----3-|---3----3--3-3--3-3-|
E||--------------------|--------------------|

G||--------------------|--------------------|
D||--------------------|--------------------|
A||--------------------|--------------------|
E||-3-3----3--3----3-3-|---3--3----3-3--3-3-|

G||--------------------|--------------------||
D||--------------------|--------------------||  x2
A||-5-5----5--5----5-5-|-5-5--5-5--3-3--2-2-||
E||--------------------|--------------------||

---

G||--------------------|--------------------|
D||-----------5--------|-----------5--------|
A||-0----0------7--0-3-|---3--3-3----7--3---|
E||--------------------|--------------------|

G||--------------------|--------------------||
D||-----------5--------|-----------5--------||  x2
A||-------------7------|-------------7------||
E||-3----3---------0-3-|---3--3-3-------3---||


Outro

(wait)

G||--------------------|--------------------||
D||--------------------|--------------------||  x2
A||--------------------|--------------------||
E||--------------------|--------------------||

G||--------------------|--------------------|
D||-14---14---14---14--|-14---14---14---14--|
A||--------------------|--------------------|
E||--------------------|--------------------|

G||--------------------|--------------------|
D||--------------------|--------------------|
A||--------------------|--------------------|
E||--------------------|--------------------|

G||--------------------|--------------------|
D||-14---14---14---14--|-14---14---14---14--|
A||--------------------|--------------------|
E||--------------------|--------------------|

G||--------------------|--------------------|
D||-13---13---12---12--|--------------------|
A||--------------------|--------------------|
E||--------------------|--------------------|

Chorus 3


G||--------------------|---------------------|
D||--------------------|---------------------|
A||-3-3----3--3-3----3-|---3----3--3-3--3-5\-|
E||--------------------|---------------------|

G||--------------------|--------------------||
D||--------------------|--------------------||  x4
A||--------------------|--------------------||
E||-3-3----3--3----3-3-|---3--3----3-3--5-5-||

---

G||--------------------|---------------------|
D||--------------------|---------------------|
A||-3-3----3--3-3----3-|---3----3--3-3--3-5\-|
E||--------------------|---------------------|

G||--------------------|--------------------||
D||--------------------|--------------------||  x4
A||--------------------|--------------------||
E||-3-3----3--3----3-3-|---3--3----3-3--5---||


Outro Full

G||--------------------|--------------------||
D||--------------------|--------------------||  x2
A||--------------------|-12---14------------||
E||-0---------8-7------|-----------8-7------||


-----------------------------------------------------------------------------
-----------------------------------------------------------------------------


2.Come Back Home



Intro

G||--------------------|-----------------------||
D||--------------------|-----------------------||  x4
A||-----------------8/-|-13----13----13--10--6-||
E||-8----8----8--6-----|-----------------------||


Verse

G||-------------------------|------------------------||
D||-10-----10-----10--------|-8------8------8--------||  x4
A||-------------------10--6-|------------------8--10-||
E||-------------------------|------------------------||

---

G||-------------------|-------------------|
D||-------------------|--------------5----|
A||-------------------|-6----6----6-----6-|
E||-8----8----8--6--8-|-------------------|

G||------------------8-|----------------------|
D||--------------10----|----------------------|
A||-8----8----8--------|--------------/13--13-|
E||--------------------|-8----8----8----------|

G||-------------------|-------------------|
D||-------------------|--------------5----|
A||-------------------|-6----6----6-----6-|
E||-8----8----8--6--8-|-------------------|

G||------------------8-|------------------------||
D||--------------10----|------------------------||
A||-8----8----8--------|-------------/13--13-13-||
E||--------------------|-8-8--8-8--8------------||


Chorus

G||-------------------------12-|-----------------------------||
D||--------13-13---------13----|-----------------------------||  x3
A||-11-11---------11-11--------|--------13-13----------13----||
E||----------------------------|-11-11----------11-11-----11-||

G||----------------------------|----------------------------|
D||----------------------------|----------------------------|
A||-8-8/--15-15\--8-8/--15-15\-|-8-8/--15-15\--8-8/--15-15\-|
E||----------------------------|----------------------------|

---

G||--------------------|-----------------------||
D||--------------------|-----------------------||  x4
A||-----------------8/-|-13----13----13--10--6-||
E||-8----8----8--6-----|-----------------------||


Verse 2

G||-------------------------|------------------------||
D||-10-----10-----10--------|-8------8------8--------||  x4
A||-------------------10--6-|------------------8--10-||
E||-------------------------|------------------------||

---

G||-------------------|-------------------|
D||-------------------|--------------5----|
A||-------------------|-6----6----6-----6-|
E||-8----8----8--6--8-|-------------------|

G||------------------8-|----------------------|
D||--------------10----|----------------------|
A||-8----8----8--------|--------------/13--13-|
E||--------------------|-8----8----8----------|

G||-------------------|-------------------|
D||-------------------|--------------5----|
A||-------------------|-6----6----6-----6-|
E||-8----8----8--6--8-|-------------------|

G||------------------8-|------------------------||
D||--------------10----|------------------------||
A||-8----8----8--------|-------------/13--13-13-||
E||--------------------|-8-8--8-8--8------------||


Chorus 2

G||-------------------------12-|-----------------------------||
D||--------13-13---------13----|-----------------------------||  x3
A||-11-11---------11-11--------|--------13-13----------13----||
E||----------------------------|-11-11----------11-11-----11-||

G||----------------------------|----------------------------|
D||----------------------------|----------------------------|
A||-8-8/--15-15\--8-8/--15-15\-|-8-8/--15-15\--8-8/--15-15\-|
E||----------------------------|----------------------------|

---

G||--------------------|-----------------------||
D||--------------------|-----------------------||  x4
A||-----------------8/-|-13----13----13--10--6-||
E||-8----8----8--6-----|-----------------------||

(wait)


Chorus 3

G||--------------------|--------------------||
D||--------------------|--------------------||  x3
A||--------------------|-6-6--6-6--6-6--6-6-||
E||-4-4--4-4--4-4--4-4-|--------------------||

G||--------------------|--------------------------------|
D||--------------------|-------------10.10--10.10-10.10-|
A||-8-8--8-8--8-8--8-8-|-8-8--8-8--8--------------------|
E||--------------------|--------------------------------|

G||--------------------||
D||--------------------||
A||--------------------||
E||-8----8-------------||


-----------------------------------------------------------------------------
-----------------------------------------------------------------------------


3. Do You Want It All?



In the last chorus he plays the lower D, as it is the only low D he plays 
the whole song I chose to tab it in standart tunning to avoid changing the 
tunning of your bass. I also wrote a 5th string so you can play the right
note in a 5-string bass. (and yeah, I tabbed the note he plays a octave
higher.)


Intro

(wait)

G||---||-----------------------------------||
D||---||-----------------------------------||  x4
A||---||-5-5----5--5-5----5--5-5----5--5---||
E||-5-||---------------------------------5-||


Verse

G||-----------------------------------||
D||-----------------------------------||  x4
A||-5----5----5----5----5----5----5---||
E||-----------------------------------||


Chorus

G||-----------------------------------|
D||-----------------------------------|
A||-5-5--5-5--5-5--5-5--5-5--5-5--5---|
E||---------------------------------5-|

G||-----------------------------------|
D||--------------------------7-7--9---|
A||-5-5--5-5--5-5--5-5--5-5---------0-|
E||-----------------------------------|

G||-----------------------------------|
D||-----------------------------------|
A||-5-5--5-5--5-5--5-5--5-5--5-5--5-5-|
E||-----------------------------------|

G||-----------------------------------||
D||--------------------------7-7--9---||  x2
A||-5-5--5-5--5-5--5-5--5-5---------0-||
E||-----------------------------------||


Verse 2

G||-----------------------------------|-----------------------------------|
D||-----------------------------------|-7----7----7----7----7----7----7-9-|
A||-5----5----5----5----5----5----5---|-----------------------------------|
E||---------------------------------5-|-----------------------------------|

G||-----------------------------------|-----------------------------------|
D||-5----5----5----5----5----5----5-7-|-4----4----4----4----4----4-5------|
A||-----------------------------------|-------------------------------7---|
E||-----------------------------------|-----------------------------------|


G||-----------------------------------|-----------------------------------|
D||-----------------------------------|-7----7----7----7----7----7----7-9-|
A||-5----5----5----5----5----5----5---|-----------------------------------|
E||---------------------------------5-|-----------------------------------|

G||-----------------------------------|-----------------------------------|
D||-5----5----5----5----5----5----5-7-|-4----4----4----4----4----4-5------|
A||-----------------------------------|-------------------------------7---|
E||-----------------------------------|-----------------------------------|


Chorus 2

G||-----------------------------------|
D||-----------------------------------|
A||-5-5--5-5--5-5--5-5--5-5--5-5--5---|
E||---------------------------------5-|

G||-----------------------------------|
D||--------------------------7-7--9---|
A||-5-5--5-5--5-5--5-5--5-5---------0-|
E||-----------------------------------|

G||-----------------------------------|
D||-----------------------------------|
A||-5-5--5-5--5-5--5-5--5-5--5-5--5---|
E||---------------------------------5-|

G||-----------------------------------||
D||--------------------------7-7--9---||  x4
A||-5-5--5-5--5-5--5-5--5-5---------0-||
E||-----------------------------------||

(wait)

G||-------------------------------------|-----------------------------------|
D||-------------------------------------|-----------------------------------|
A||--5-5--5-5--5-5--5-5--5-5--5-5--5-5--|-----------------------------------|
E||-------------------------------------|-5-5--5-5--5-5--5-5--5-5--5-5--5-5-|
B||-(3-3--3-3--3-3--3-3--3-3--3-3--3-3)-|

G||-----------------------------------|-----------------------------------|
D||-----------------------------------|-----------------------------------|
A||-----------------------------------|-----------------------------------|
E||-3-3--3-3--3-3--3-3--3-3--3-3--3-3-|-2-2--2-2--2-2--2-2--2-2--2-2--2-2-|

G||-----------------------------------|
D||-----------------------------------| fading...
A||-----------------------------------|
E||-2-2--2-2--2-2--2-2--2-2--2-2--2-2-|

---

G||-----------------------------------|
D||---------------------------------4-|
A||-5-5-------5-5-------5-5-------5---|
E||--------5---------5---------5------|

G||-----------------------------------|
D||-7-7-------7-7-------7-7-------7-9-|
A||--------5---------5---------5------|
E||-----------------------------------|

G||-----------------------------------|
D||-5-5----5--5-5----5--5-5----5--5-7-|
A||-----------------------------------|
E||-----------------------------------|

G||-----------------------------------||
D||-4-4----4--4-4----4--4-4----5------||  x5
A||-------------------------------7-7-||
E||-----------------------------------||


-----------------------------------------------------------------------------
-----------------------------------------------------------------------------


4. This Is The Life


Intro

G||--------------------|--------------------|--------------------|
D||-7-7--7-7--7-7--7-7-|-7-7--9-9--7-7--7-7-|-7-7--7-7--7-7--7-7-|
A||--------------------|--------------------|--------------------|
E||--------------------|--------------------|--------------------|

G||--------------------||--------------------|--------------------||
D||-7-7--9-9--7-7--7---||--------------------|----------------9---|| x2
A||------------------7-||---7--7-7--7----7-7-|-7----7-7--9-9----7-||
E||--------------------||--------------------|--------------------||


G||--------------------|--------------------|--------------------|
D||-7-7--7-7--7-7--7-7-|-7-7--9-9--7-7--7-7-|-7-7--7-7--7-7--7-7-|
A||--------------------|--------------------|--------------------|
E||--------------------|--------------------|--------------------|

G||--------------------||--------------------|--------------------||
D||-7-7--9-9--7-7--7---||--------------------|----------------9---|| x2
A||------------------7-||---7--7-7--7----7-7-|-7----7-7--9-9----7-||
E||--------------------||--------------------|--------------------||


Verse

G||---------------------|--------------------|
D||---------------------|--------------------|
A||-4-x4---x2--4----4-2-|-4----4-2-----------|
E||---------------------|-----------2-2--2-0-|

G||---------------------|--------------------||
D||---------------------|-----------9-9--9-9-||  x2
A||-------7---------7---|------7-------------||
E||---00----0--0-0----0-|-0-0----0-----------||


Pre-Chorus

G||--------------------|--------------------|
D||-7-7--7-7--7-7--7-7-|-7-7--7-7--7-7--7-7-|
A||--------------------|--------------------|
E||--------------------|--------------------|

G||--------------------|--------------------|
D||--------------------|--------------------|
A||-2-2--2-2--2-2--2-2-|-2-2--2-2--2-2--2---|
E||--------------------|------------------0-|


G||--------------------|--------------------|
D||--------------------|-------------9----9-|
A||------7-7--7----7-7-|-7----7-7--7----7---|
E||---0----------------|--------------------|

G||--------------------|--------------------|
D||--------------------|-------------9----9-|
A||-7-7--7-7--7----7-7-|-7----7-7--7----7---|
E||--------------------|--------------------|


Chorus

G||--------------------|--------------------|
D||-7-7--7-7--7-7--7-7-|-7-7--9-9--7-7--7---|
A||--------------------|------------------7-|
E||--------------------|--------------------|

G||--------------------|--------------------|
D||--------------------|------6-6--7-6--6---|
A||-9-9--9-9--9-9--9-9-|-9-9--------------7-|
E||--------------------|--------------------|

---

G||--------------------|--------------------|
D||--------------------|----------------9---|
A||---7--7-7--7----7-7-|-7----7-7--9-9----7-|
E||--------------------|--------------------|

G||--------------------|--------------------|
D||--------------------|----------------9---|
A||-7-7--7-7--7----7-7-|-7----7-7--9-9----7-|
E||--------------------|--------------------|


G||--------------------|--------------------|
D||-7-7--7-7--7-7--7-7-|-7-7--9-9--7-7--7---|
A||--------------------|------------------7-|
E||--------------------|--------------------|

G||--------------------|--------------------|
D||--------------------|------6-6--7-6--6---|
A||-9-9--9-9--9-9--9-9-|-9-9--------------7-|
E||--------------------|--------------------|

---

G||--------------------|--------------------|
D||--------------------|----------------9---|
A||---7--7-7--7----7-7-|-7----7-7--9-9----7-|
E||--------------------|--------------------|

G||--------------------|--------------------|
D||--------------------|----------------9---|
A||-7-7--7-7--7----7-7-|-7----7-7--9-9----7-|
E||--------------------|--------------------|


Verse 2

G||---------------------|--------------------|
D||---------------------|--------------------|
A||-4-x4---x2--4----4-2-|-4----4-2-----------|
E||---------------------|-----------2-2--2-0-|

G||---------------------|--------------------||
D||---------------------|-----------9-9--9-9-||  x2
A||-------7---------7---|------7-------------||
E||---00----0--0-0----0-|-0-0----0-----------||


Pre-Chorus

G||--------------------|--------------------|
D||-7-7--7-7--7-7--7-7-|-7-7--7-7--7-7--7-7-|
A||--------------------|--------------------|
E||--------------------|--------------------|

G||--------------------|--------------------|
D||--------------------|--------------------|
A||-2-2--2-2--2-2--2-2-|-2-2--2-2--2-2--2---|
E||--------------------|------------------0-|


G||--------------------|--------------------|
D||--------------------|-------------9----9-|
A||------7-7--7----7-7-|-7----7-7--7----7---|
E||---0----------------|--------------------|

G||--------------------|--------------------||
D||--------------------|-------------9----9-||
A||-7-7--7-7--7----7-7-|-7----7-7--7----7---||
E||--------------------|--------------------||


Chorus 2

G||--------------------|--------------------|
D||-7-7--7-7--7-7--7-7-|-7-7--9-9--7-7--7---|
A||--------------------|------------------7-|
E||--------------------|--------------------|

G||--------------------|--------------------|
D||--------------------|------6-6--7-6--6---|
A||-9-9--9-9--9-9--9-9-|-9-9--------------7-|
E||--------------------|--------------------|

G||--------------------|--------------------|
D||--------------------|----------------9---|
A||---7--7-7--7----7-7-|-7----7-7--9-9----7-|
E||--------------------|--------------------|

G||--------------------|--------------------||
D||--------------------|----------------9---||  x3
A||-7-7--7-7--7----7-7-|-7----7-7--9-9----7-||
E||--------------------|--------------------||


Outro

G||--------------------|--------------------|
D||--------------------|--------------------|
A||-4----4----4----4---|-4----4----2-2--4-4-|
E||--------------------|--------------------|

G||--------------------|-----------------|
D||-4----4----4----4---|-4----4----11-11-|
A||--------------------|-----------------|
E||--------------------|-----------------|

G||--------------------|--------------------|
D||-7----7----7----7---|-7----7----7----7---|
A||--------------------|--------------------|
E||--------------------|--------------------|

G||--------------------|---------------|
D||-7----7----7----7---|-7----7----9---|
A||--------------------|---------------|
E||--------------------|---------------|


G||--------------------|--------------------|
D||--------------------|-------------2------|
A||-4--4--2---4--4--2--|-4--4--2---4----4-2-|
E||--------------------|--------------------|

G||--------------------|----------------|
D||-4--4--4---4--4--4--|-4--4--4---11---|
A||--------------------|----------------|
E||--------------------|----------------|

G||--------------------|---------------------|
D||-7--7--7---7--7--7--|-7--7--7---7-9--11-9-|
A||--------------------|---------------------|
E||--------------------|---------------------|

G||--------------------|---------------|
D||-7--7--7---7--7--7--|-7--7--7---9---|
A||--------------------|---------------|
E||--------------------|---------------|


G||--------------------|--------------------|
D||--------------------|-------------2------|
A||-4--4--2---4--4--2--|-4--4--2---4----4-2-|
E||--------------------|--------------------|

G||--------------------|--------------------||
D||--------------------|--------------------||
A||-4--4--2---4--4--2--|-4----4-------------||
E||--------------------|--------------------||


-----------------------------------------------------------------------------
-----------------------------------------------------------------------------


5. Something Good Can Work


Intro

G||-------------10.10--12.12-10.10-|--------------------------------|
D||--------------------------------|-------------10.10--12.12-10.10-|
A||-8--8---8--8--------------------|--------------------------------|
E||--------------------------------|-8--8---8--8--------------------|

G||---------------12.12-14.14-12.12-|-------------------------------||
D||---------------------------------|---------------12.12-14--------||  x2
A||-10--10--10-10-------------------|-------------------------------||
E||---------------------------------|-10--10--10-10-----------------||


Verse

G||--------------------|--------------------|
D||--------------------|--------------------|
A||--------------------|--------------------|
E||-1----1----1----1---|-5----5----5----5---|

G||--------------------|--------------------||
D||--------------------|--------------------||  x2
A||--------------------|--------------------||
E||-10---10---10---10--|-6----6----6----6---||


Chorus

G||-------------10.10--12.12-10.10-|--------------------------------|
D||--------------------------------|-------------10.10--12.12-10.10-|
A||-8--8---8--8--------------------|--------------------------------|
E||--------------------------------|-8--8---8--8--------------------|

G||---------------12.12-14.14-12.12-|-------------------------------||
D||---------------------------------|---------------12.12-14--------||  x2
A||-10--10--10-10-------------------|-------------------------------||
E||---------------------------------|-10--10--10-10-----------------||


Verse 2

G||--------------------|--------------------|
D||--------------------|--------------------|
A||--------------------|--------------------|
E||-1----1----1----1---|-5----5----5----5---|

G||--------------------|--------------------||
D||--------------------|--------------------||  x2
A||--------------------|--------------------||
E||-10---10---10---10--|-6----6----6----6---||


Chorus 2

G||-------------10.10--12.12-10.10-|--------------------------------|
D||--------------------------------|-------------10.10--12.12-10.10-|
A||-8--8---8--8--------------------|--------------------------------|
E||--------------------------------|-8--8---8--8--------------------|

G||---------------12.12-14.14-12.12-|-------------------------------||
D||---------------------------------|---------------12.12-14--------||  x2
A||-10--10--10-10-------------------|-------------------------------||
E||---------------------------------|-10--10--10-10-----------------||


Outro

G||--------------------|--------------------|
D||--------------------|--------------------|
A||-8-8--8-8--8-8--8-8-|--------------------|
E||--------------------|-8-8--8-8--8-8--8-8-|

G||----------------------------|----------------------------------|
D||----------------------------|----------------------------------|
A||-10-10--10-10--10-10--12-10-|----------------------------------|
E||----------------------------|-10-10--10-10--10-10--12.12.12.12-|


G||--------------------|--------------------|
D||--------------------|--------------------|
A||-8-8--8-8--8-8--8-8-|--------------------|
E||--------------------|-8-8--8-8--8-8--8-8-|

G||----------------------------|----------------------------|
D||----------------------------|----------------------------|
A||-10-10--10-10--10-10--12-10-|----------------------------|
E||----------------------------|-10-10--10-10--10-----------|


Chorus 3

G||-------------10.10--12.12-10.10-|--------------------------------|
D||--------------------------------|-------------10.10--12.12-10.10-|
A||-8--8---8--8--------------------|--------------------------------|
E||--------------------------------|-8--8---8--8--------------------|

G||---------------12.12-14.14-12.12-|-------------------------------||
D||---------------------------------|---------------12.12-14--------||  x4
A||-10--10--10-10-------------------|-------------------------------||
E||---------------------------------|-10--10--10-10-----------------||

G||--------------------||
D||--------------------||
A||--------------------||
E||-13-----------------||


-----------------------------------------------------------------------------
-----------------------------------------------------------------------------


6. I Can Talk


Intro

G||--------------------|----------------5---|
D||--------------------|--------------------|
A||----------------7-5-|-3----3----3--------|
E||-5----5----5--------|--------------------|

G||--------------------|----------------5---||
D||-3----3----3--------|-------------7----7-||  x2
A||-------------3--5-3-|-5----5----5--------||
E||--------------------|--------------------||


Verse

G||--------------------|-------------------------|
D||--------------------|-------------------------|
A||--------------------|-------------------------|
E||-5-5--5-5--5-5--5-5-|-5-5--5-5/--12-12--12-12-|

G||----------------------------|--------------------||
D||----------------------------|--------------------||  x2
A||----------------------------|--------------------||
E||-10-10--10-10--10-10--10-10-|-8-8--8-8----8----8-||


G||--------------------|---------------------|
D||--------------------|---------------------|
A||--------------------|--------7------------|
E||-5----5----5----5---|-5----5----5/---12---|

G||------------------------|----------------------|
D||------------------------|-------------10----10-|
A||------------------------|----------------------|
E||-10----10----10----10---|-8----8----8-----8----|

G||--------------------|---------------------|
D||--------------------|---------------------|
A||--------------------|---------------------|
E||-5----5----5----5---|-5----5----5/---12---|

G||------------------------|----------------------|
D||------------------------|-------------10----10-|
A||------------------------|----------------------|
E||-10----10----10----10---|-8----8----8-----8----|


Chorus

G||--------------------|--------------------|
D||--------------------|--------------------|
A||-0-0--0-0--0-7--7-5-|-3-3--3-3--3-3--3-3-|
E||--------------------|--------------------|

G||--------------------|----------------5---||
D||-3-3--3-3--3--------|-------------7----7-||  x4
A||-------------3--5-3-|-5-5--5-5--5--------||
E||--------------------|--------------------||


Verse 2

G||--------------------|-------------------------|
D||--------------------|-------------------------|
A||--------------------|-------------------------|
E||-5-5--5-5--5-5--5-5-|-5-5--5-5/--12-12--12-12-|

G||----------------------------|--------------------||
D||----------------------------|--------------------||  x2
A||----------------------------|--------------------||
E||-10-10--10-10--10-10--10-10-|-8-8--8-8----8----8-||


G||--------------------|---------------------|
D||--------------------|---------------------|
A||--------------------|--------7------------|
E||-5----5----5----5---|-5----5----5/---12---|

G||------------------------|----------------------|
D||------------------------|-------------10----10-|
A||------------------------|----------------------|
E||-10----10----10----10---|-8----8----8-----8----|

G||--------------------|---------------------|
D||--------------------|---------------------|
A||--------------------|---------------------|
E||-5----5----5----5---|-5----5----5/---12---|

G||------------------------|----------------------|
D||------------------------|-------------10----10-|
A||------------------------|----------------------|
E||-10----10----10----10---|-8----8----8-----8----|


Chorus 2

G||--------------------|--------------------|
D||--------------------|--------------------|
A||-0-0--0-0--0-7--7-5-|-3-3--3-3--3-3--3-3-|
E||--------------------|--------------------|

G||--------------------|----------------5---||
D||-3-3--3-3--3--------|-------------7----7-||  x4
A||-------------3--5-3-|-5-5--5-5--5--------||
E||--------------------|--------------------||


Outro

G||---------------------|---------------------|
D||--------------10-----|---------------------|
A||-0----0----0------12-|--------------10--12-|
E||---------------------|-8----8----8---------|

G||-------------------|---------------------||
D||-------------------|------------------10-||  x4
A||--------------7--8-|-5----5----5--12-----||
E||-1----1----1-------|---------------------||

(wait)

Chorus 2

G||--------------------|--------------------|
D||--------------------|--------------------|
A||-0-0--0-0--0-7--7-5-|-3-3--3-3--3-3--3-3-|
E||--------------------|--------------------|

G||--------------------|----------------5---||
D||-3-3--3-3--3--------|-------------7----7-||  x4
A||-------------3--5-3-|-5-5--5-5--5--------||
E||--------------------|--------------------||

G||--------------------|
D||-7------------------|
A||--------------------|
E||--------------------|


-----------------------------------------------------------------------------
-----------------------------------------------------------------------------


7. Undercover Martyn


Intro

G||--------------------|--------------------|
D||-----------7-7--7---|-----------7-7------|
A||-5-5--5-5---------5-|---5----5-------5-5-|
E||--------------------|--------------------|

G||--------------------|--------------------||
D||-----------7-7------|-----------7-7--9---||  X2
A||-9-9--9-9-------9-7-|---7----7-----------||
E||--------------------|--------------------||


Verse

G||--------------------|--------------------|
D||--------------------|--------------------|
A||-5------------------|-----------5/7------|
E||--------------------|--------------------|

G||--------------------|--------------------||
D||--------------------|--------------------||  x2
A||--------------------|--------------------||
E||-5------------------|-2--------------5---||

---

G||--------------------|--------------------|
D||--------------------|--------------------|
A||-5----5----5----5---|-5----5----5----5-7-|
E||--------------------|--------------------|

G||--------------------|--------------------|
D||--------------------|--------------------|
A||--------------------|-------------0----0-|
E||-5----5----5----5---|-2----2----2----2---|

G||--------------------|--------------------|
D||--------------------|--------------------|
A||-5----5----5----5---|-5----5----5----5-7-|
E||--------------------|--------------------|

G||--------------------|--------------------|
D||--------------------|--------------------|
A||--------------------|--------------------|
E||-5----5----5----5---|-2----2------2--2---|


Chorus

G||--------------------|--------------------|
D||-----------7-7--7---|-----------7-7------|
A||-5-5--5-5---------5-|---5----5-------5-5-|
E||--------------------|--------------------|

G||--------------------|--------------------||
D||-----------7-7------|-----------7-7--9---||  X4
A||-9-9--9-9-------9-7-|---7----7-----------||
E||--------------------|--------------------||


Verse 2

G||--------------------|--------------------|
D||--------------------|--------------------|
A||-5------------------|-----------5/7------|
E||--------------------|--------------------|

G||--------------------|--------------------||
D||--------------------|--------------------||  x2
A||--------------------|--------------------||
E||-5------------------|-2--------------5---||

---

G||--------------------|--------------------|
D||--------------------|--------------------|
A||-5----5----5----5---|-5----5----5----5-7-|
E||--------------------|--------------------|

G||--------------------|--------------------|
D||--------------------|--------------------|
A||--------------------|-------------0----0-|
E||-5----5----5----5---|-2----2----2----2---|

G||--------------------|--------------------|
D||--------------------|--------------------|
A||-5----5----5----5---|-5----5----5----5-7-|
E||--------------------|--------------------|

G||--------------------|--------------------|
D||--------------------|--------------------|
A||--------------------|--------------------|
E||-5----5----5----5---|-2----2----2--------|


Chorus 2

G||--------------------|--------------------|
D||-----------7-7--7---|-----------7-7------|
A||-5-5--5-5---------5-|---5----5-------5-5-|
E||--------------------|--------------------|

G||--------------------|--------------------||
D||-----------7-7------|-----------7-7--9---||
A||-9-9--9-9-------9-7-|---7----7-----------||
E||--------------------|--------------------||


G||--------------------|--------------------|
D||-----------7-7--7---|-----------7-7------|
A||-5-5--5-5---------5-|---5----5-------5-5-|
E||--------------------|--------------------|

G||--------------------|--------------------||
D||-----------7-7------|--------------------||
A||-9-9--9-9-------9-7-|--------------------||
E||--------------------|--------------------||


G||--------------------|--------------------|
D||-----------7-7--7---|-----------7-7------|
A||-5-5--5-5---------5-|---5----5-------5-5-|
E||--------------------|--------------------|

G||--------------------|--------------------||
D||-----------7-7------|-----------7-7--9---||  X2
A||-9-9--9-9-------9-7-|---7----7-----------||
E||--------------------|--------------------||

(wait)

Outro

G||--------------------|--------------------|
D||--------------------|--------------------|
A||------5---------5---|------5------7----7-|
E||--------------------|--------------------|

G||--------------------|--------------------|
D||--------------------|--------------------|
A||------5---------5---|------5-------------|
E||--------------------|-------------7------|

---

G||--------------------|--------------------|
D||--------------------|--------------------|
A||-5----5----5--------|-5----5----5--------|
E||--------------------|-------------7--7-7-|

G||--------------------|--------------------|
D||--------------------|--------------------|
A||--------------------|--------------------|
E||-5----5----5--------|-5----5----5-7--7-7-|

G||--------------------|--------------------|
D||--------------------|--------------------|
A||-5----5----5--------|-5----5----5--------|
E||--------------------|-------------7--7-7-|

G||--------------------|--------------------|
D||--------------------|--------------------|
A||--------------------|--------------------|
E||-5----5----5--------|-5----5------2--2---|


Chorus 3

G||--------------------|--------------------|
D||-------------7--7---|-------------7------|
A||-5-5----5--5------5-|-5-5----5--5----2---|
E||--------------------|--------------------|

G||--------------------|--------------------||
D||--------------------|--------------------||  x3
A||-0-0----0-0--7--7-0-|-0-0----0--0-7------||
E||--------------------|----------------7---||


G||--------------------|--------------------|
D||-------------7--7---|-------------7------|
A||-5-5----5--5------5-|-5-5----5--5----2---|
E||--------------------|--------------------|

G||--------------------|--------------------||
D||--------------------|--------------------||
A||-0-0----0-0--7--7-0-|-0-0----0--0-7--0-5-||
E||--------------------|--------------------||


-----------------------------------------------------------------------------
-----------------------------------------------------------------------------


8. What You Know


Intro

G||----------------------|---------------------|
D||----------------------|------------11---6---|
A||-9--9----9--9--9----9-|-9--9----9-----------|
E||----------------------|---------------------|

G||----------------------|--------------------|
D||----------------------|------------7-------|
A||-0--0----0--0--0----0-|-0--0----0------7-9-|
E||----------------------|--------------------|

G||----------------------|----------------------|
D||----------------------|-----------/11--------|
A||-5--5----5--5--5----5-|-5--5----5-------12---|
E||----------------------|----------------------|

G||----------------------|---------------------|
D||----------------------|---------------------|
A||----------------------|------------4----7---|
E||-2--2----2--2--2----2-|-2--2----2-----------|


Verse

(wait)

G||----------------------|----------------------|
D||----11------11------9-|----11------11------9-|
A||-9------9-------12----|-9------9-------12----|
E||----------------------|----------------------|

G||--------------------|--------------------|
D||----9------9--7--9--|----9------9--7--9--|
A||-7-----7------------|-7-----7------------|
E||--------------------|--------------------|

G||--------------------|--------------------|
D||----7------7--------|----7------7--------|
A||--------------7--9--|--------------7--9--|
E||-9-----9------------|-9-----9------------|

G||--------------------|--------------------|
D||----4---------4-----|----4---------4-----|
A||-5------5--5------5-|-5------5--5------5-|
E||--------------------|--------------------|


Chorus

G||----------------------|---------------------|
D||----------------------|------------11---6---|
A||-9--9----9--9--9----9-|-9--9----9-----------|
E||----------------------|---------------------|

G||----------------------|--------------------|
D||----------------------|------------7-------|
A||-0--0----0--0--0----0-|-0--0----0------7-9-|
E||----------------------|--------------------|

G||----------------------|----------------------|
D||----------------------|-----------/11--------|
A||-5--5----5--5--5----5-|-5--5----5-------12---|
E||----------------------|----------------------|

G||----------------------|---------------------||
D||----------------------|---------------------||  x2
A||----------------------|------------4----7---||
E||-2--2----2--2--2----2-|-2--2----2-----------||


Verse 2


G||----------------------|----------------------|
D||----11------11------9-|----11------11------9-|
A||-9------9-------12----|-9------9-------12----|
E||----------------------|----------------------|

G||--------------------|--------------------|
D||----9------9--7--9--|----9------9--7--9--|
A||-7-----7------------|-7-----7------------|
E||--------------------|--------------------|

G||--------------------|--------------------|
D||----7------7--------|----7------7--------|
A||--------------7--9--|--------------7--9--|
E||-9-----9------------|-9-----9------------|

G||--------------------|--------------------||
D||----4---------4-----|----4---------4-----||  x2
A||-5------5--5------5-|-5------5--5------5-||
E||--------------------|--------------------||


Chorus 2

G||----------------------|---------------------|
D||----------------------|------------11---6---|
A||-9--9----9--9--9----9-|-9--9----9-----------|
E||----------------------|---------------------|

G||----------------------|--------------------|
D||----------------------|------------7-------|
A||-0--0----0--0--0----0-|-0--0----0------7-9-|
E||----------------------|--------------------|

G||----------------------|----------------------|
D||----------------------|-----------/11--------|
A||-5--5----5--5--5----5-|-5--5----5-------12---|
E||----------------------|----------------------|

G||----------------------|---------------------||
D||----------------------|---------------------||  x2
A||----------------------|------------4----7---||
E||-2--2----2--2--2----2-|-2--2----2-----------||

(wait)

Outro 

G||--------------------|--------------------|
D||--------------------|--------------------|
A||-9-9--9-9--9-9--9-9-|--------------------|
E||--------------------|-9-9--9-9--9-9--9-9-|

G||--------------------|--------------------|
D||--------------------|--------------------|
A||--------------------|----------------7-7-|
E||-2-2--2-2--2-2--2-2-|-9-9--9-9--9-9------|


G||--------------------|--------------------|
D||----------------7---|--------------------|
A||-9-9--9-9--9-9----9-|----------------7-7-|
E||--------------------|-9-9--9-9--9-9------|

G||--------------------|--------------------|
D||--------------------|--------------------|
A||--------------------|--------------------|
E||-2-2--2-2--2-2--2-5-|-9-9--9-9--9-9--9-9-|


Chorus 3

G||----------------------|---------------------|
D||----------------------|------------11---6---|
A||-9--9----9--9--9----9-|-9--9----9-----------|
E||----------------------|---------------------|

G||----------------------|--------------------|
D||----------------------|------------7-------|
A||-0--0----0--0--0----0-|-0--0----0------7-9-|
E||----------------------|--------------------|

G||----------------------|----------------------|
D||----------------------|-----------/11--------|
A||-5--5----5--5--5----5-|-5--5----5-------12---|
E||----------------------|----------------------|

G||----------------------|---------------------||
D||----------------------|---------------------||
A||----------------------|------------4----7---||
E||-2--2----2--2--2----2-|-2--2----2-----------||

---

G||----------------------|---------------------|
D||----------------------|------------11---6---|
A||-9--9----9--9--9----9-|-9--9----9-----------|
E||----------------------|---------------------|

G||----------------------|--------------------|
D||----------------------|------------7-------|
A||-0--0----0--0--0----0-|-0--0----0------7-9-|
E||----------------------|--------------------|

G||----------------------|----------------------|
D||----------------------|-----------/11--------|
A||-5--5----5--5--5----5-|-5--5----5-------12---|
E||----------------------|----------------------|

G||----------------------|---------------------||
D||----------------------|---------------------||
A||----------------------|-----------------4---||
E||-2--2----2--2--2----2-|-2--2----2--2--------||



-----------------------------------------------------------------------------
-----------------------------------------------------------------------------


9. Eat That Up, It's Good For You


Intro

(wait)

G||--------------------|--------------------|
D||--------------------|--------------------|
A||-8-8--8-8----8--8-8-|---8--8-8----8--8-8-|
E||--------------------|--------------------|

G||--------------------------|--------------------------|
D||--------------------------|--------------------------|
A||---10--10-10----10--10-10-|--------------------------|
E||--------------------------|---10--10-10----10--10-10-|

G||--------------------|--------------------|
D||--------------------|--------------------|
A||---8--8-8----8--8-8-|---8--8-8----8--8-8-|
E||--------------------|--------------------|

G||--------------------------|--------------------------|
D||--------------------------|--------------------------|
A||---10--10-10----10--10-10-|--------------------------|
E||--------------------------|---10--10-10----10-----10-|


Verse

G||--------------------|--------------------|
D||--------------------|--------------------|
A||---8--8-8----8--8-8-|---8--8-8----8--8-8-|
E||--------------------|--------------------|

G||--------------------|--------------------------||
D||--------------------|--------------------------||  x4
A||--------------------|---10--10-10----10-----10-||
E||---6--6-6----6--6-6-|--------------------------||


Chorus

G||----------------------|----------------------|
D||-----------10----12---|-----------10----12---|
A||-8-8----8-----8-------|-8-8----8-----8-------|
E||----------------------|----------------------|

G||-------------------------|--------------------------||
D||--------------10-----8---|--------------------------||  x2
A||-10-10----10-----10------|--------------12-----13---||
E||-------------------------|-10-10----10-----10-------||


Verse 2

G||--------------------|--------------------|
D||--------------------|--------------------|
A||---8--8-8----8--8-8-|---8--8-8----8--8-8-|
E||--------------------|--------------------|

G||--------------------|--------------------------||
D||--------------------|--------------------------||  x4
A||--------------------|---10--10-10----10-----10-||
E||---6--6-6----6--6-6-|--------------------------||


Chorus 2

G||----------------------|----------------------|
D||-----------10----12---|-----------10----12---|
A||-8-8----8-----8-------|-8-8----8-----8-------|
E||----------------------|----------------------|

G||-------------------------|--------------------------||
D||--------------10-----8---|--------------------------||  x4
A||-10-10----10-----10------|--------------12-----13---||
E||-------------------------|-10-10----10-----10-------||


Outro

G||--------------------|--------------------|
D||--------------------|--------------------|
A||--------------------|--------------------|
E||-1------------------|--------------------|

G||--------------------|--------------------|
D||--------------------|--------------------|
A||--------------------|--------------------|
E||-5------------------|--------------------|

G||--------------------|--------------------|
D||--------------------|--------------------|
A||--------------------|--------------------|
E||-6------------------|-------------8--8---|

G||--------------------|--------------------|
D||--------------------|--------------------|
A||--------------------|-8----8----8----8---|
E||-1------------------|--------------------|

---

G||--------------------|----------------------|
D||--------------------|----------------------|
A||-8-8--8-8--8-8--8-8-|-8-8--8-8--10-10--8-8-|
E||--------------------|----------------------|

G||--------------------|----------------------|
D||--------------------|----------------------|
A||--------------------|----------------------|
E||-5-5--5-5--5-5--5-5-|-5-5--5-5--8-8--10-10-|

G||--------------------|----------------------|
D||--------------------|----------------------|
A||--------------------|----------------------|
E||-6-6--6-6--6-6--6-6-|-6-6--6-6--8-8--10-10-|

G||----------------------|----------------------||
D||-----------10----12---|-----------10----12---||  x2
A||-8-8--8-8-----8-------|-8-8--8-8-----8-------||
E||----------------------|----------------------||


Chorus 3

G||--------------------|----------------------|
D||--------------------|----------------------|
A||-8-8--8-8--8-8--8-8-|-8-8--8-8--10-10--8-8-|
E||--------------------|----------------------|

G||--------------------|----------------------|
D||--------------------|----------------------|
A||--------------------|----------------------|
E||-5-5--5-5--5-5--5-5-|-5-5--5-5--8-8--10-10-|

G||--------------------|----------------------|
D||--------------------|----------------------|
A||--------------------|----------------------|
E||-6-6--6-6--6-6--6-6-|-6-6--6-6--8-8--10-10-|

G||----------------------|----------------------||
D||-----------10----12---|-----------10----12---||  x2
A||-8-8--8-8-----8-------|-8-8--8-8-----8-------||
E||----------------------|----------------------||


-----------------------------------------------------------------------------
-----------------------------------------------------------------------------


10. You're Not Stubborn


Intro

G||--------------------|--------------------|
D||--------------5--4--|--------------4--5--|
A||--------------------|--------------------|
E||-3----3----3--------|-3----3----3--------|

G||--------------5-----|--------------4--5--||
D||--------------------|--------------------||  x2
A||-3----3----3-----3--|-2----2----2--------||
E||--------------------|--------------------||


Verse

G||--------------------|--------------------|
D||--------------------|--------------------|
A||--------------------|--------------------|
E||-3----3----3----3---|-3----3----3----3-2-|

G||--------------------|--------------------|
D||--------------------|------------------5-|
A||-7----7----7----7---|-7----7----7----7---|
E||--------------------|--------------------|

G||--------------------|--------------------|
D||--------------------|--------------------|
A||-5----5----5----5---|-5----5----5----5-7-|
E||--------------------|--------------------|

G||--------------------|--------------------||
D||--------------------|--------------------||
A||-3----3----3----3---|-3----3----3----3-2-||
E||--------------------|--------------------||

---

G||--------------------|--------------------|
D||------------------5-|--------------------|
A||--------------------|--------------------|
E||-3----3----3----3---|-3----3----3----3-2-|

G||------------------9-|--------------------|
D||--------------------|------------------5-|
A||-7----7----7----7---|-7----7----7----7---|
E||--------------------|--------------------|

G||------------------7-|--------------------|
D||--------------------|--------------------|
A||-5----5----5----5---|-5----5----5----5-7-|
E||--------------------|--------------------|

G||------------------5-|--------------------||
D||--------------------|--------------------||
A||-3----3----3----3---|-3----3----3----3-2-||
E||--------------------|--------------------||


Chorus

G||--------------------|--------------------|
D||--------------5--4--|--------------4--5--|
A||--------------------|--------------------|
E||-3----3----3--------|-3----3----3--------|

G||--------------5-----|--------------4--5--||
D||--------------------|--------------------||  x2
A||-3----3----3-----3--|-2----2----2--------||
E||--------------------|--------------------||



Verse 2

G||--------------------|--------------------|
D||--------------------|--------------------|
A||--------------------|--------------------|
E||-3----3----3----3---|-3----3----3----3-2-|

G||--------------------|--------------------|
D||--------------------|------------------5-|
A||-7----7----7----7---|-7----7----7----7---|
E||--------------------|--------------------|

G||--------------------|--------------------|
D||--------------------|--------------------|
A||-5----5----5----5---|-5----5----5----5-7-|
E||--------------------|--------------------|

G||--------------------|--------------------||
D||--------------------|--------------------||  x2
A||-3----3----3----3---|-3----3----3----3-2-||
E||--------------------|--------------------||


Chorus 2

G||--------------------|--------------------|
D||--------------5--4--|--------------4--5--|
A||--------------------|--------------------|
E||-3----3----3--------|-3----3----3--------|

G||--------------5-----|--------------4--5--||
D||--------------------|--------------------||  x4
A||-3----3----3-----3--|-2----2----2--------||
E||--------------------|--------------------||


Outro

(wait)

G||--------------------|--------------------|
D||--------------------|--------------------|
A||--------------------|--------------------|
E||-3------------------|--------------------|

G||--------------------|--------------------|
D||--------------------|--------------------|
A||-3------------------|-6-6--6-6--6-6--6\--|
E||--------------------|--------------------|

---

G||--------------------|--------------------|
D||--------------5--4--|--------------4--5--|
A||--------------------|--------------------|
E||-3----3----3--------|-3----3----3--------|

G||--------------5-----|--------------8-----||
D||--------------------|--------------------||
A||-3----3----3-----3--|-6----6----6-----6--||
E||--------------------|--------------------||


G||--------------------|--------------------|
D||--------------5--4--|--------------4--5--|
A||--------------------|--------------------|
E||-3----3----3--------|-3----3----3--------|

G||--------------5-----|--------------------||
D||--------------------|--------------------||
A||-3----3----3-----3--|-6666-6666-5\---5-2-||
E||--------------------|--------------------||


Chorus 3

G||--------------------|--------------------|
D||---55---55---55---4-|---55---55---55-4-5-|
A||--------------------|--------------------|
E||-3----3----3----3---|-3----3----3--------|

G||---55---55---55-7-5-|---44---44---44-5-4-||
D||--------------------|--------------------||  x4
A||-3----3----3--------|-2----2----2--------||
E||--------------------|--------------------||

G||--------------------|
D||-5------------------|
A||--------------------|
E||--------------------|


-----------------------------------------------------------------------------
-----------------------------------------------------------------------------
All tabs by Pedro Zappa

comments
print report bad tab
I want to post or [tab]
guest
You may want to rate the tab now too:
select rating
Please do not post tabs as comments. Select "correction" instead!