Oops, an error
Loading. Please wait.

Boston Drama Tab

ver5
ver5
More versions @911Tabs.com
3,855 views 12 this week
10 commentsread comments
1 2 3 4 5
accurate
x 5
Autoscroll
+/-
esc
set tempo
stop
Contributor
Tuning
D A D G B E
WARNING: You are trying to view
                                    content from Ultimate-Guitar.com
                                    in an unauthorized application,
                                    which is prohibited.

                                    Please use an official Ultimate
                                    Guitar Tabs application for iPhone,
                                    iPad or Android to access legitimate
                                    chords, guitar, bass, and drum tabs
                                    from Ultimate-Guitar.com database.

                                    Type "ultimate guitar tabs" in Apple
                                    App Store's or Android Market's
                                    search to find the application.
h- hammer-on
p- pull-off
/\- slide
.- palm mute

intro

Guitar 1
|--------------------------------------------------------------------|x4
|--------------------------------------------------------------------|
|--------------------------------------------------------------------|
|--4h54p0---7---7---7---7---7---7---4h54p0----7---7---7---7---7---7--|
|-----------5-5-5-5-5-5-5-5-5-5-5-5-----------4-4-4-4-4-4-4-4-4-4-4-4|
|-----------5-5-5-5-5-5-5-5-5-5-5-5-----------4-4-4-4-4-4-4-4-4-4-4-4|
              .   .   .   .   .   .             .   .   .   .   .   .

Guitar 2
|--------------------------------------------------------------------|x4
|--------------------------------------------------------------------|
|--2h42p0----------------------------2h42p0--------------------------|
|-----------7---7---7---7---7---7-------------7---7---7---7---7---7--|
|-----------5-5-5-5-5-5-5-5-5-5-5-5-----------4-4-4-4-4-4-4-4-4-4-4-4|
|-----------5-5-5-5-5-5-5-5-5-5-5-5-----------4-4-4-4-4-4-4-4-4-4-4-4|
              .   .   .   .   .   .             .   .   .   .   .   .
Verse

Guitar 1
|-------------------------------------------------------------------|x2
|-------------------------------------------------------------------|
|-------------------------------------------7777/99\66666-----------|
|--555555555555555555555555555555555--000---xxxxxxxxxxxxx-----------|
|--555555555555555555555555555555555--000---5555/77\44444-----------|
|--555555555555555555555555555555555--000---xxxxxxxxxxxxx-----------|
   .....................

Guitar 2 (Clean)                     (Distortion)
|-------------------------------------------------------------------|
|-------------------------------------------------------------------|
|--7--7-------7-----------------------------7777/99\66666-----------|
|--5----5-------5---------------------000---xxxxxxxxxxxxx-----------|
|--5------5-------5-------------------000---5555/77\44444-----------|
|--5--------5-------5-----------------000---xxxxxxxxxxxxx-----------|x2

Pre-Chorus

Guitar 1
|-----------------------------------------------------------|
|-----------------------------------------------------------|
|-----------------------------------------------------------|
|-----11---11h1211-----------------11---11h1211---99999999--|
|--99----9---------99-9-9-9h109-99----9-----------99999999--|
|--99----9---------99---9-------99----9-----------99999999--|
   ..    .         ..   .       ..    .

Guitar 2 (Clean)
|--------------------------------------------------------|
|--------------------------------------------------------|
|--------------------------------------------------------|
|------11-------11-------11-------11----111111111111111--|
|----9----9---9----9---9----9---9----9--9-9-9-9-9-9-9-9--|
|--9--------9--------9--------9---------9-9-9-9-9-9-9-9--|

|-----------------------|
|-----------------------|
|---------7777/99\6666--|
|--000----xxxxxxxxxxxx--|
|--000----5555/77\4444--|
|--000----xxxxxxxxxxxx--|

Guitar 1
|-----------------------------------------------------------|
|-----------------------------------------------------------|
|-----------------------------------------------------------|
|-----11---11h1211-----------------11---11h1211---99999999--|
|--99----9---------99-9-9-9h109-99----9-----------99999999--|
|--99----9---------99---9-------99----9-----------99999999--|
   ..    .         ..   .       ..    .

Guitar 2 (Clean)
|--------------------------------------------------------|
|--------------------------------------------------------|
|--------------------------------------------------------|
|------11-------11-------11-------11----111111111111111--|
|----9----9---9----9---9----9---9----9--9-9-9-9-9-9-9-9--|
|--9--------9--------9--------9---------9-9-9-9-9-9-9-9--|

|--------------------|
|--------------------|
|--7777777777777777--|
|--5555555555555555--|
|--5555555555555555--|
|--5555555555555555--|

Chorus

Guitar 1
|------------------------------------------------------------------------------------------|x2
|------------------------------------------------------------------------------------------|
|--9999999999997777-666666666666-----------------------------------------------------------|
|--0000000000000000-4444444444447777-9999-------------11111111-12121212-11111111-----------|
|--0000000000000000-4444444444444444-----777799997777-9-9-9-9--9-9-9-9--9-9-9-9--12121212--|
|--0000000000000000-4444444444444444-5555555555555555-9-9-9-9--9-9-9-9--9-9-9-9--9-9-9-9---|

Guitar 2
|----------------------------------------------------------------------------------|x2
|------------------------10--10-10-------------------------------------------------|
|--9999999999997777-66-66--66--6--66-----------------------------------------------|
|------------------------------------7777-9999-------------------------------------|
|----------------------------------------------7777-9999-4444-5555-0000-2222-0000--|
|----------------------------------------------------------------------------------|
                       ..  ..  .  ..

|------------------------------|
|------------------------------|
|------------------------------|
|--12\0-------2h4---5p4--------|
|--12\0-4h5---------------4h5--|
|--12\0-----0-----0-----0------|
      .     .     .     .

Verse

Guitar 1
|-------------------------------------------------------------------|
|-------------------------------------------------------------------|
|-------------------------------------------7777/99\66666-----------|
|--555555555555555555555555555555555--000---xxxxxxxxxxxxx-----------|
|--555555555555555555555555555555555--000---5555/77\44444-----------|
|--555555555555555555555555555555555--000---xxxxxxxxxxxxx-----------|
   .....................

Guitar 2 (Clean)                     (Distortion)
|-------------------------------------------------------------------|
|-------------------------------------------------------------------|
|--7--7-------7-----------------------------7777/99\66666-----------|
|--5----5-------5---------------------000---xxxxxxxxxxxxx-----------|
|--5------5-------5-------------------000---5555/77\44444-----------|
|--5--------5-------5-----------------000---xxxxxxxxxxxxx-----------|

Guitar 1
|-------------------------------------------------------------------|
|-------------------------------------------------------------------|
|-------------------------------------------7777/9999/11111111------|
|--555555555555555555555555555555555--000---xxxxxxxxxxxxxxxxxx------|
|--555555555555555555555555555555555--000---5555/7777/9-9-9-9-------|
|--555555555555555555555555555555555--000---xxxxxxxxxxxxxxxxxx------|
   .....................


Guitar 2 (Clean)                     (Distortion)
|-------------------------------------------------------------------|
|-------------------------------------------------------------------|
|--7--7-------7-----------------------------7777/9999/11111111------|
|--5----5-------5---------------------000---xxxxxxxxxxxxxxxxxx------|
|--5------5-------5-------------------000---5555/7777/9-9-9-9-------|
|--5--------5-------5-----------------000---xxxxxxxxxxxxxxxxxx------|

Pre-Chorus

Guitar 1
|-----------------------------------------------------------|
|-----------------------------------------------------------|
|-----------------------------------------------------------|
|-----11---11h1211-----------------11---11h1211---99999999--|
|--99----9---------99-9-9-9h109-99----9-----------99999999--|
|--99----9---------99---9-------99----9-----------99999999--|
   ..    .         ..   .       ..    .

Guitar 2 (Clean)
|--------------------------------------------------------|
|--------------------------------------------------------|
|--------------------------------------------------------|
|------11-------11-------11-------11----111111111111111--|
|----9----9---9----9---9----9---9----9--9-9-9-9-9-9-9-9--|
|--9--------9--------9--------9---------9-9-9-9-9-9-9-9--|

|-----------------------|
|-----------------------|
|---------7777/99\6666--|
|--000----xxxxxxxxxxxx--|
|--000----5555/77\4444--|
|--000----xxxxxxxxxxxx--|

Guitar 1
|-----------------------------------------------------------|
|-----------------------------------------------------------|
|-----------------------------------------------------------|
|-----11---11h1211-----------------11---11h1211---99999999--|
|--99----9---------99-9-9-9h109-99----9-----------99999999--|
|--99----9---------99---9-------99----9-----------99999999--|
   ..    .         ..   .       ..    .

Guitar 2 (Clean)
|--------------------------------------------------------|
|--------------------------------------------------------|
|--------------------------------------------------------|
|------11-------11-------11-------11----111111111111111--|
|----9----9---9----9---9----9---9----9--9-9-9-9-9-9-9-9--|
|--9--------9--------9--------9---------9-9-9-9-9-9-9-9--|

|--------------------|
|--------------------|
|--7777777777777777--|
|--5555555555555555--|
|--5555555555555555--|
|--5555555555555555--|

Chorus

Guitar 1
|------------------------------------------------------------------------------------------|x2
|------------------------------------------------------------------------------------------|
|--9999999999997777-666666666666-----------------------------------------------------------|
|--0000000000000000-4444444444447777-9999-------------11111111-12121212-11111111-----------|
|--0000000000000000-4444444444444444-----777799997777-9-9-9-9--9-9-9-9--9-9-9-9--12121212--|
|--0000000000000000-4444444444444444-5555555555555555-9-9-9-9--9-9-9-9--9-9-9-9--9-9-9-9---|

Guitar 2
|----------------------------------------------------------------------------------|x2
|------------------------10--10-10-------------------------------------------------|
|--9999999999997777-66-66--66--6--66-----------------------------------------------|
|------------------------------------7777-9999-------------------------------------|
|----------------------------------------------7777-9999-4444-5555-0000-2222-0000--|
|----------------------------------------------------------------------------------|
                       ..  ..  .  ..

|------------------------------------|
|------------------------------------|
|------------------------------------|
|--9\2-5p4p0-7-5p4p0-6-5p4p0-4-5p4p0-|
|--9\2-------5-------4-------2-------|
|--9\2-------------------------------|

Guitar 1
|-----------------------------------------|
|-----------------------------------------|
|-----------------------------------------|
|--22222-44444-55555-99999-22222-44444-5--|
|--22222-44444-55555-99999-22222-44444-5--|
|--22222-44444-55555-99999-22222-44444-5--|

Guitar 2
|-----------------------------------------------------|
|-----------------------------------------------------|
|-----------------------------------------------------|
|--2-------4-------5-------9-------2-------4-------5--|
|--2-5p4p0-4-5p4p0-5-5p4p0-9-5p4p0-2-5p4p0-4-5p4p0-5--|
|--2-------4-------5-------9-------2-------4-------5--|

Bridge

Guitar 1 (Clean)
|-------------------------------------------------------------------|x2
|-------------------------------------------------------------------|
|--9--9---9---7-6----6----------------------------------------------|
|--7---7---7--7-4------4---7----9--------------11----12---11--------|
|--5-5--5---5-5-4--4----4--4-------7---9---7----9---------------12--|
|---------------4-4-4------4--5--5---5---5----5/9--9----9-----9-----|

Guitar 2
|----------------------------------------------------------|x2
|----------------------------------------------------------|
|----------------------------------------------------------|
|--14---14-----14-----12-11--------11---7-9----------------|
|--12-----12-----12---12-9------9----9------7-9-4-5-0-2-0--|
|--12-12----12-----12-12-9--9-9--9----9--------------------|

With Drums

Guitar 1 (Clean) (Smooth Stumming)
|------------------------------------------------------------------------------------------|x2
|------------------------------------------------------------------------------------------|
|--9999999999997777--666666666666----------------------------------------------------------|
|--7777777777777777--4444444444447777-9999-------------11111111-12121212-11111111----------|
|--5555555555555555--4444444444444444-5555777799997777-9-9-9-9--9-9-9-9--9-9-9-9-12121212--|
|--------------------4444444444444444-5555555555555555-9-9-9-9--9-9-9-9--9-9-9-9-9-9-9-9---|

Guitar2 (Clean) (Smooth Strumming)
|-----------------------------------------------------------------------------------------------------------|
|-----------------------------------------------------------------------------------------------------------|
|-----------------------------------------------------------------------------------------------------------|
|--14141414141414141414141412121212-111111111111111111111111--7777-9999-------------------------------------|
|--12121212121212121212121212121212-9-9-9-9-9-9-9-9-9-9-9-9-------------7777-9999-4444-5555-0000-2222-0000--|
|--12121212121212121212121212121212-9-9-9-9-9-9-9-9-9-9-9-9-------------------------------------------------|

|---------------------------------------------------------------------------------------|
|---------------------------------------------------------------------------------------|
|---------------------------------------------------------------------------------------|
|--14141414141414141414141412121212-111111111111111111111111--7777-9999-----------------|
|--12121212121212121212121212121212-9-9-9-9-9-9-9-9-9-9-9-9-------------7777-9999-4444--|
|--12121212121212121212121212121212-9-9-9-9-9-9-9-9-9-9-9-9-----------------------------|

(Distortion)
|-----------------------------|
|-----------------------------|
|--77777777/1111111111111111--|
|--xxxxxxxxxxxxxxxxxxxxxxxxx--|
|--55555555/9-9-9-9-9-9-9-9---|
|-----------------------------|

Guitar 1
|---------------------------|x24
|--14-14--------------------|
|---------------------------|
|--------11-11-12-12-11-11--|
|---------------------------|
|---------------------------|

Guitar 2
|-----------------------------------------------------------------------|
|-----------------------------------------------------------------------|
|-----------------------------------------------------------------------|
|--0000000000000000-4444444444444444-5555555555555555-9999999999999999--|
|--0000000000000000-4444444444444444-5555555555555555-9999999999999999--|
|--0000000000000000-4444444444444444-5555555555555555-9999999999999999--|

|---------------------------------------|
|---------------------------------------|
|--------9--11--9--11--14--11--6--7--9--|
|--12\5--x--x---x--x---xx--xx--x--x--x--|
|--12\5--7--9---7--9---12--9---4--5--7--|
|--12\5---------------------------------|

Outro

1Guitar 1
|--------------------------------------------------------------------|x4
|--------------------------------------------------------------------|
|--------------------------------------------------------------------|
|--4h54p0---7---7---7---7---7---7---4h54p0----7---7---7---7---7---7--|
|-----------5-5-5-5-5-5-5-5-5-5-5-5-----------4-4-4-4-4-4-4-4-4-4-4-4|
|-----------5-5-5-5-5-5-5-5-5-5-5-5-----------4-4-4-4-4-4-4-4-4-4-4-4|
              .   .   .   .   .   .             .   .   .   .   .   .

Guitar 2
|--------------------------------------------------------------------|x2
|--------------------------------------------------------------------|
|--2h42p0----------------------------2h42p0--------------------------|
|-----------7---7---7---7---7---7-------------7---7---7---7---7---7--|
|-----------5-5-5-5-5-5-5-5-5-5-5-5-----------4-4-4-4-4-4-4-4-4-4-4-4|
|-----------5-5-5-5-5-5-5-5-5-5-5-5-----------4-4-4-4-4-4-4-4-4-4-4-4|
              .   .   .   .   .   .             .   .   .   .   .   .

Guitar 2
|-----------------------|x4
|-----------------------|
|--666-----999-6666666--|
|------777--------------|
|-----------------------|
|-----------------------|

Paki Rate Po...TY!
10 comments total. Showing first comments.
0 reply
paul21 wrote on April 18 2007, 08:17 am

Astig yung tab mo, paki ayos nalang yung sa bridge at outro.. perfect na yan...

0 reply
alexisonfire311 wrote on April 20 2007, 08:29 am

naayos na yung bridge.

0 reply
paul21 wrote on April 28 2007, 09:45 pm

Astig!! cge ayus na yan..

I want to post or [tab]
guest
You may want to rate the tab now too:
select rating
Please do not post tabs as comments. Select "correction" instead!