Oops, an error
Loading. Please wait.

Bright Eyes Tab

ver2
ver2

Whole song

More versions @911Tabs.com
7,173 views 12 this week
2 commentsread comments
1 2 3 4 5
excellent!
x 4
add to favorites launch autoscroll
font size
0
reset
Autoscroll
+/-
esc
set tempo
stop
Contributor
Difficulty
Tuning
Tabbers playing skills
intermediate
D A D G B E
advanced +
WARNING: You are trying to view
                                    content from Ultimate-Guitar.com
                                    in an unauthorized application,
                                    which is prohibited.

                                    Please use an official Ultimate
                                    Guitar Tabs application for iPhone,
                                    iPad or Android to access legitimate
                                    chords, guitar, bass, and drum tabs
                                    from Ultimate-Guitar.com database.

                                    Type "ultimate guitar tabs" in Apple
                                    App Store's or Android Market's
                                    search to find the application.
tabbed by f_sario@yahoo.com
09283150081 shc lucena phils.
Intro2x
1.

GtrI
|-------------------------------------------------------------------|
|-------------------------------------------------------------------|
|-------------------------------------------------------------------|
|-10/-3-33-5---5p0---2h3p2p0------3-33-5---5p0---2h3p2p0------------|
|-10/-3-33---3---------------3p0--3-33---3---------------3p0--------|
|-10/-3-33------------------------3-33------------------------------|

GtrII
|-------------------------------------------------------------------|
|-------------------------------------------------------------------|
|-------------------------------------------------------------------|
|-10/-3-33------------------------3-33------------------------------|
|-10/-3-33------------------------3-33------------------------------|
|-10/-3-33------------------------3-33------------------------------|

2.

GtrI(figure palm uting)
|-------------------------------------------------------------------|
|-------------------------------------------------------------------|
|-------------------------------------------------------------------|
|-7-7-7-7-7-7-7-7-7-7-7-7-7-7-7-7-7-7-7-7-7-7-7-7-7-7-7-7-7-7-7-7-7-|
|-7-7-7-7-7-7-7-7-7-7-7-7-7-7-7-7-7-7-7-7-7-7-7-7-7-7-7-7-7-7-7-7-7-|
|-7-7-7-7-7-7-7-7-7-7-7-7-7-7-7-7-7-7-7-7-7-7-7-7-7-7-7-7-7-7-7-7-7-|


GtrII
|-------------------------------------------------------------------|
|-------------------------------------------------------------------|
|-------------------------------------------------------------------|
|-77777777-5---5p0---2h3p2p0-----777777-5---5p0---2h3p2p0-----------|
|-77777777---3---------------3p0-777777---3---------------3p0-------|
|-77777777-----------------------777777-----------------------------|

Verse-
GtrI(figure palm uting)
|--------------------------------|----------------------------------|
|--------------------------------|----------------------------------|
|--------------------------------|----------------------------------|
|-333333333333333333333333333333-|-7777777777777777777777777777777--|
|-333333333333333333333333333333-|-7777777777777777777777777777777--|
|-333333333333333333333333333333-|-7777777777777777777777777777777--|

GtrII
|--------------------------------|----------------------------------|
|--------------------------------|----------------------------------|
|--------12----12-----12---------|-------12-----12-----12-----------|
|-9h10p9---10p9---10p9--10p9h10--|-9h10p9---10p9---10p9--10p9h10----|
|--------------------------------|----------------------------------|
|--------------------------------|----------------------------------|

|--------------------------------|----------------------------------|
|-------12-----12-----12---------|-------12-----12-----12-----------|
|---------12-----12-----12-------|---------12-----12-----12---------|
|-9h10p9-----10-----10------9h10-|-9h10p9-----10-----10------9h10---|
|--------------------------------|----------------------------------|
|--------------------------------|----------------------------------|

then 2x
GtrI
|----------------------------------------------------------------|
|----------------------------------------------------------------|
|----------------------------------------------------------------|
|-333333-3~-5---5p0---2h3p2p0----333333-3~--5---5p0---2h3p2p0----|
|-333333-3~---3--------------3p0-333333-3~----3--------------3p0-|
|-333333-3~----------------------333333-3~-----------------------|


GtrII
|------------------------------------------------------------|
|------------------------------------------------------------|
|-----------5-5-5-5-5-------------7-7-7-7-7------------------|
|-333333-3~-x-x-x-x-x--333333-3~--x-x-x-x-x------------------|
|-333333-3~-3-3-3-3-3--333333-3~--5-5-5-5-5------------------|
|-333333-3~------------333333-3~-----------------------------|

2.
GtrI
|----------------------------------------------------------------|
|----------------------------------------------------------------|
|----------------------------------------------------------------|
|-777777-7~-5---5p0---2h3p2p0----777777-7~--5---5p0---2h3p2p0----|
|-777777-7~---3--------------3p0-777777-7~----3--------------3p0-|
|-777777-7~----------------------777777-7~-----------------------|


GtrII
|------------------------------------------------------------|
|------------------------------------------------------------|
|-----------121212-77-99999------------121212-77-99999-------|
|-777777-7~-x-x-x--xx-xxxxx-777777-7~--x-x-x--xx-xxxxx-------|
|-777777-7~-101010-55-77777-777777-7~--101010-55-77777-------|
|-777777-7~-----------------777777-7~------------------------|


Interlude
GtrI&GtrII
|---------------------------------------------------|
|---------------------------------------------------|
|---------------------------------------------------|
|-5---------8-7-5---5-----------8-7-5-3-0~-7-8------|
|---5---8/7-8-7-5----5----8/7---8-7-5-3-0~-7-8------|
|-----------8-7-5---------------8-7-5-3-0~-7-8------|


|--------------------------------------------------------------------|
|--------------------------------------------------------------------|
|-5---------7-9-10---5-----------------------------------------------|
|---5--8/7--x-x-x------5-8/7---8-7-5-3-0~-7-8--/////////////////-----|
|-----------5-7-8--------------8-7-5-3-0~-7-8--///(pickslide)///-----|
|------------------------------8-7-5-3-0~-7-8--/////////////////-----|

GtrII

|---------------------------------------------------|
|---------------------------------------------------|
|---------------------------------------------------|
|-5---------8-7-5----5-----------8-7-5-3-0~-7-8-----|
|---5---8/7-8-7-5------5----8/7--8-7-5-3-0~-7-8-----|
|-----------8-7-5----------------8-7-5-3-0~-7-8-----|


|--------------------------------------------------------------------|
|--------------------------------------------------------------------|
|-5------------------5-----------------------------------------------|
|---5--8/7--0-2-3-------5-8/7--8-7-5-3-0~-7-8--/////////////////-----|
|-----------0-2-3--------------8-7-5-3-0~-7-8--///(pickslide)///-----|
|-----------0-2-3--------------8-7-5-3-0~-7-8--/////////////////-----|

then verse
1.
GtrI&II
|--------------------------------------------------------------------|
|--------------------------------------------------------------------|
|--------------------------------------------------------------------|
|-77777777777777-8888888888888888-00000000000000-33333333333333333---|
|-77777777777777-8888888888888888-00000000000000-33333333333333333---|
|-77777777777777-8888888888888888-00000000000000-33333333333333333---|

2.
GtrI(P.M.)
|--------------------------------------------------------------------|
|--------------------------------------------------------------------|
|--------------------------------------------------------------------|
|-77777777777777-8888888888888888-00000000000000-33333333333333333---|
|-77777777777777-8888888888888888-00000000000000-33333333333333333---|
|-77777777777777-8888888888888888-00000000000000-33333333333333333---|
  ************** **************** ************** 
GtrII
|---------------------------------------------------------------------|
|---------------------------------------------------------------------|
|----------------------------------------------------1010101010101010-|
|-------10-------10-------10------10------10------10-x-x-x-x-x-x-x-x--|
|-787878---787878---787878--787878--787878--787878---8-8-8-8-8-8-8-8--|
|---------------------------------------------------------------------|
  ****** * ****** * ****** ******* ******* ********* 


then.interlude II
GtrI
|--------------------------------------------------|
|--------------------------------------------------|
|-----15-15----15-15------15-15------15-15---------|
|-000-x--x--00-x--x---000-x--x---00--x--x----------|
|-000-13-13-00-13-13--000-13-13--00--13-13---------|
|-000-------00--------000--------00----------------|


|----------------------------------------------|
|--------------------------------9----10-9-----|
|-----15-15----15-15------15-15---9-8-----10---|
|-000-x--x--00-x--x---000-x--x-----------------|
|-000-13-13-00-13-13--000-13-13----------------|
|-000-------00--------000----------------------|
GtrII
|--------------------------------------------------|
|--------------------------------------------------|
|--------------------------------------------------|
|-000-8--8--00-8--8---000-8--8---00----------------|
|-000-8--8--00-8--8---000-8--8---00----------------|
|-000-8--8--00-8--8---000-8--8---00----------------|


|--------------------------------------------------|
|--------------------------------------------------|
|--------------------------------------------------|
|-000-8--8--00-8--8---000--------------------------|
|-000-8--8--00-8--8---000--------------------------|
|-000-8--8--00-8--8---000--------------------------|

Chorus1-
GtrI
|---------------------------------------------------------------------|
|---------------------------------------------------------------------|
|---------------------------------------------------------------------|
|-3-3-3-3-3-3-3-3-3-3-3-3-3-3-3-3-7-7-7-7-7-7-7-7-7-7-7-7-7-7-7-7-7-7-|
|-3-3-3-3-3-3-3-3-3-3-3-3-3-3-3-3-7-7-7-7-7-7-7-7-7-7-7-7-7-7-7-7-7-7-|
|-3-3-3-3-3-3-3-3-3-3-3-3-3-3-3-3-7-7-7-7-7-7-7-7-7-7-7-7-7-7-7-7-7-7-|


GtrII
|---------------------------------------------------------------------|
|---------------------------------------------------------------------|
|---7-7--5-5--4-4-4-4-4-4------1212--1010--77-999999---44444-77777----|
|---x-x--x-x--x-x-x-x-x-x------x-x---x--x--xx-xxxxxx---xxxxx-xxxxx----|
|---5-5--3-3--2-2-2-2-2-2------1010--8--8--55-777777---22222-55555----|
|---------------------------------------------------------------------|


2.
GtrI
|---------------------------------------------------------------------|
|---------------------------------------------------------------------|
|---------------------------------------------------------------------|
|-3-3-3-3-3-3-3-3-3-3-3-3-3-3-3-3-7-7-7-7-7-7-7-7-7-7-7-7-7-7-7-7-7-7-|
|-3-3-3-3-3-3-3-3-3-3-3-3-3-3-3-3-7-7-7-7-7-7-7-7-7-7-7-7-7-7-7-7-7-7-|
|-3-3-3-3-3-3-3-3-3-3-3-3-3-3-3-3-7-7-7-7-7-7-7-7-7-7-7-7-7-7-7-7-7-7-|


GtrII
|---------------------------------------------------------------------|
|---------------------------------------------------------------------|
|---12121212--5/7-5/7--444444-----1212--1414--77-999999--12-99--14-12-|
|---x-x-x-x---x-x-x-x--xxxxxx-----x-x---x--x--xx-xxxxxx--x--xx--x--x--|
|---10101010--3/5-3/5--222222-----1010--1212--55-777777--10-77--12-10-|
|---------------------------------------------------------------------|

Chorus(clean)
GtrI
|---------------------------------------------------------------------|
|---------------------------------------------------------------------|
|-5-5-5-5-5-5-5-5-5-5-5-5-5-5-5-5-9-9-9-9-9-9-9-9-9-9-9-9-9-9-9-9-9-9-|
|-5-5-5-5-5-5-5-5-5-5-5-5-5-5-5-5-9-9-9-9-9-9-9-9-9-9-9-9-9-9-9-9-9-9-|
|-3-3-3-3-3-3-3-3-3-3-3-3-3-3-3-3-7-7-7-7-7-7-7-7-7-7-7-7-7-7-7-7-7-7-|
|-3-3-3-3-3-3-3-3-3-3-3-3-3-3-3-3-7-7-7-7-7-7-7-7-7-7-7-7-7-7-7-7-7-7-|


then pre cho--do palm mute 
Chorus1-
GtrI
|---------------------------------------------------------------------|
|---------------------------------------------------------------------|
|---------------------------------------------------------------------|
|-3-3-3-3-3-3-3-3-3-3-3-3-3-3-3-3-7-7-7-7-7-7-7-7-7-7-7-7-7-7-7-7-7-7-|2x
|-3-3-3-3-3-3-3-3-3-3-3-3-3-3-3-3-7-7-7-7-7-7-7-7-7-7-7-7-7-7-7-7-7-7-|
|-3-3-3-3-3-3-3-3-3-3-3-3-3-3-3-3-7-7-7-7-7-7-7-7-7-7-7-7-7-7-7-7-7-7-|
GtrII
|-----------------------------------------------------------|
|-----------------------------------------------------------|
|-----------12~-----------------------12~-------------------|
|-9h10p9h10----9h10p9h10p9~--9h10p9h10----9h10p9h10p9~------|4x
|-----------------------------------------------------------|
|-----------------------------------------------------------|


2.
GtrI
|---------------------------------------------------------------------|
|---------------------------------------------------------------------|
|---------------------------------------------------------------------|
|-3-3-3-3-3-3-3-3-3-3-3-3-3-3-3-3-7-7-7-7-7-7-7-7-7-7-7-7-7-7-7-7-7-7-|
|-3-3-3-3-3-3-3-3-3-3-3-3-3-3-3-3-7-7-7-7-7-7-7-7-7-7-7-7-7-7-7-7-7-7-|
|-3-3-3-3-3-3-3-3-3-3-3-3-3-3-3-3-7-7-7-7-7-7-7-7-7-7-7-7-7-7-7-7-7-7-|

GtrII
|--------------12-12---------------------15-15--17-17-10-10-12-12-12-12-12-|
|-/-12---12----------13-13---12----12--------------------------------------|
|-/---12----12------------------12---12------------------------------------|
|--------------------------------------------------------------------------|
|--------------------------------------------------------------------------|
|--------------------------------------------------------------------------|

|-----------------------------------|
|-12---12---12---12-----------------|
|----12---12---12---12-12-12--------|
|-----------------------------------|
|-----------------------------------|
|-----------------------------------|

the 

then
GtrI
|----------------------------------------------------------------|
|----------------------------------------------------------------|
|----------------------------------------------------------------|
|-3--33~----5---5p0---2h3p2p0----3--33~-----5---5p0---2h3p2p0----|
|-3--33~------3--------------3p0-3--33~-------3--------------3p0-|
|-3--33~-------------------------3--33~--------------------------|

|----------------------------------------------------------------|
|----------------------------------------------------------------|
|----------------------------------------------------------------|
|-7--77~---5---5p0---2h3p2p0-----7--77~----5---5p0---2h3p2p0-----|
|-7--77~-----3--------------3p0--7--77~------3--------------3p0--|
|-7--77~-------------------------7--77~--------------------------|



GtrII
|--------------------------------|----------------------------------|
|--------------------------------|----------------------------------|
|--------12----12-----12---------|-------12-----12-----12-----------|
|-9h10p9---10p9---10p9--10p9h10--|-9h10p9---10p9---10p9--10p9h10----|
|--------------------------------|----------------------------------|
|--------------------------------|----------------------------------|

|--------------------------------|----------------------------------|
|-------12-----12-----12---------|-------12-----12-----12-----------|
|---------12-----12-----12-------|---------12-----12-----12---------|
|-9h10p9-----10-----10------9h10-|-9h10p9-----10-----10------9h10---|
|--------------------------------|----------------------------------|
|--------------------------------|----------------------------------|


then
GtrI continues
GtrII
|--------------------------------------------------------------------------|
|--------------------------------------------------------------------------|
|--7-7-7--9-9-9---10-10-10-12121212--7-7-7--9-9-9---10-10-10-12121212------|
|--x-x-x--x-x-x---x--x--x--x-x-x-x---x-x-x--x-x-x---x--x--x--x-x-x-x-------|
|--5-5-5--7-7-7---8--8--8--10101010--5-5-5--7-7-7---8--8--8--10101010------|
|--------------------------------------------------------------------------|

|----------------------------------------------------------------------|
|----------------------------------------------------------------------|
|--4-4-4--5-5-5---7-7-7--9-9-9-9----4-4-4--5-5-5---7-7-7--9-9-9-9------|
|--x-x-x--x-x-x---x-x-x--x-x-x-x----x-x-x--x-x-x---x-x-x--x-x-x-x------|
|--2-2-2--3-3-3---5-5-5--7-7-7-7----2-2-2--3-3-3---5-5-5--7-7-7-7------|
|----------------------------------------------------------------------|


end with
GtrI
|-----------------------------------|
|-----------------------------------|
|-----------------------------------|
|-3-3~~~~~~~~~~~~~~~----------------|
|-3-3~~~~~~~~~~~~~~~----------------|
|-3-3~~~~~~~~~~~~~~~----------------|

GtrII
|-----------------------------------|
|-----------------------------------|
|-7-9~~~~~~~~~~~~~~~~~~~~~~~~~~-----|
|-x-x-------------------------------|
|-5-7~~~~~~~~~~~~~~~~~~~~~~~~~~-----|
|-----------------------------------|
comments
print report bad tab
2 comments total.
0 reply
giobautista02 wrote on August 6 2008, 06:15 am

tol mas maganda to tignan mo...

|------------------------------------------------|
|------------------------------------------------|
|------------------------------------------------|
|-2-x-2---5p0 4h5--2h3-2-0-----------------------|
|-2-x-2------------------------------------------|
|-2-x-2------------------------------------------|

0 reply
giobautista02 wrote on August 6 2008, 06:16 am

sa intro yan

I want to post or [tab]
guest
You may want to rate the tab now too:
select rating
Please do not post tabs as comments. Select "correction" instead!