Oops, an error
Loading. Please wait.

Shadow Of The Swastika Tab

by Tyr
1,448 views 9 this week
no commentswrite comment
1 2 3 4 5
accurate
x 1
Autoscroll
+/-
esc
set tempo
stop
Contributor
Difficulty
Tuning
intermediate
B E A D F# B
Hey! There's an official Ultimate Guitar app which is ideal
for learning songs when you're away from computer. Get the app
WARNING: You are trying to view
                                    content from Ultimate-Guitar.com
                                    in an unauthorized application,
                                    which is prohibited.

                                    Please use an official Ultimate
                                    Guitar Tabs application for iPhone,
                                    iPad or Android to access legitimate
                                    chords, guitar, bass, and drum tabs
                                    from Ultimate-Guitar.com database.

                                    Type "ultimate guitar tabs" in Apple
                                    App Store's or Android Market's
                                    search to find the application.
-This song is played with a 7 String guitar in B Standard tuning.
-Ive listened to this song numerous times slowed down and figured this out by ear, i can 
say with confidence that everything is correct with the exception of the small scale 
before the chorus which is as close as i cared to get.
-I did not mark palm mutes, but i trust you can figure it out with your ears
-I know the intro lead riff uses a bend, but i choose not to do bends, so i wrote the 
tab accordingly.
-Good luck, have fun with this great song!



::::Intro::::
==Rythm==
e|----------------------------------------------------|
B|----------------------------------------------------|
G|----------------------------------------------------|
D|----------------------------------------------------|
A|-3---3-1-3-5---3-1-0--0-0-1-0-----------------------|
E|------------------------------3---------------------|
B|----------------------------------------------------|

==Lead==
e|---------------------------------------------------------------------------|
B|---------------------------------------------------------------------------|
G|---------------------------------------------------------------------------|
D|-10---10-8-10-12---10-8-7--7-7-8-7-5---------------------------------------|
A|---------------------------------------------------------------------------|
E|---------------------------------------------------------------------------|
B|---------------------------------------------------------------------------|

::::Intro Part 2::::
==Lead==
Repeat 4x
e|---------------------------------------------------------------------------|
B|---------------------------------------------------------------------------|
G|-12--12-12-11-12-14--12-14-15--15-15-14-12-11--14--------------------------|
D|---------------------------------------------------------------------------|
A|---------------------------------------------------------------------------|
E|---------------------------------------------------------------------------|
B|---------------------------------------------------------------------------|


Repeat 2x
e|---------------------------------------------------------------------------|
B|---------------------------------------------------------------------------|
G|-12--12-12-11-12-14--12-14-15--15-15-14-12-11--14--------------------------|
D|---------------------------------------------------------------------------|
A|---------------------------------------------------------------------------|
E|---------------------------------------------------------------------------|
B|---------------------------------------------------------------------------|

e|---------------------------------------------------------------------------|
B|---------------------------------------------------------------------------|
G|-12--12-12-----------------------------------------------------------------|
D|------------12-14-15--14-12-11--11-11-12-14-12-13--------------------------|
A|---------------------------------------------------------------------------|
E|---------------------------------------------------------------------------|
B|---------------------------------------------------------------------------|


e|---------------------------------------------------------------------------|
B|---------------------------------------------------------------------------|
G|---10--10-10-8-10-12--10-8-7--7-7-8-7-5------------------------------------|
D|---------------------------------------------------------------------------|
A|---------------------------------------------------------------------------|
E|---------------------------------------------------------------------------|
B|---------------------------------------------------------------------------|

==Rythm==
Repeat 2x
e|----------------------------------------------------|
B|----------------------------------------------------|
G|----------------------------------------------------|
D|----------------------------------------------------|
A|----------------------------------------------------|
E|-3--3-3-2-3-5--3-5-6--6-6-5-3-2--3------------------|
B|----------------------------------------------------|


e|----------------------------------------------------|
B|----------------------------------------------------|
G|----------------------------------------------------|
D|----------------------------------------------------|
A|-5-----------5-----------5---------3-5-----3--------|
E|---3-3-3-3-3---------------3-3-3-3------------------|
B|---------------3-3-3-3-3---------------3-3---3-3----|


e|----------------------------------------------------|
B|----------------------------------------------------|
G|----------------------------------------------------|
D|----------------------------------------------------|
A|-6-----------6-----------5---------3-5-----3--------|
E|---------------------------6-6-6-6------------------|
B|---4-4-4-4-4---6-6-6-6-6---------------3-3---3-3----|

e|----------------------------------------------------|
B|----------------------------------------------------|
G|----------------------------------------------------|
D|----------------------------------------------------|
A|-5-----------5-----------4---------4-5-----6--------|
E|---3-3-3-3-3---------------5-5-5-5-----3-3---3-3----|
B|---------------3-3-3-3-3----------------------------|

e|----------------------------------------------------|
B|----------------------------------------------------|
G|----------------------------------------------------|
D|----------------------------------------------------|
A|-3-----------5-----------3---------3-5-----3--------|
E|---------------3-3-3-3-3---------------3-3---3-3----|
B|---1-1-1-1-1---------------3-3-3-3------------------|

::::Verse::::
e|----------------------------------------------------|
B|----------------------------------------------------|
G|----------------------------------------------------|
D|----------------------------------------------------|
A|-5--5-5-5-5--3--5-5-5-5-----------------------------|
E|-3--3-3-3-3--3--3-3-3-3--5--5-5-5-5--5--5-5-5-5-----|
B|-------------------------3--3-3-3-3--3--3-3-3-3-----|

e|----------------------------------------------------|
B|----------------------------------------------------|
G|----------------------------------------------------|
D|----------------------------------------------------|
A|-5--5-5-5-5--3--5-5-5-5-----------------------------|
E|-3--3-3-3-3--3--3-3-3-3--5--5-5-5-5--5--5-5-5-5-----|
B|-------------------------3--3-3-3-3--3--3-3-3-3-----|

e|----------------------------------------------------|
B|----------------------------------------------------|
G|----------------------------------------------------|
D|----------------------------------------------------|
A|----------------------------------------------------|
E|-6--6-6-6-6--6--6-6-6-6--8--8-8-8-8--8--8-8-8-8-----|
B|-4--4-4-4-4--4--4-4-4-4--6--6-6-6-6--6--6-6-6-6-----|

e|----------------------------------------------------|
B|----------------------------------------------------|
G|----------------------------------------------------|
D|----------------------------------------------------|
A|-8--8-8-8-8--8--8-8-8-8-----------------------------|
E|-6--6-6-6-6--6--6-6-6-6--5--5-5-5-5--5--5-5-5-5-----|
B|-------------------------3--3-3-3-3--3--3-3-3-3-----|

e|----------------------------------------------------|
B|----------------------------------------------------|
G|----------------------------------------------------|
D|----------------------------------------------------|
A|-5--5-5-5-5--3--5-5-5-5-----------------------------|
E|-3--3-3-3-3--3--3-3-3-3--5--5-5-5-5--5--5-5-5-5-----|
B|-------------------------3--3-3-3-3--3--3-3-3-3-----|

e|----------------------------------------------------|
B|----------------------------------------------------|
G|----------------------------------------------------|
D|----------------------------------------------------|
A|-7--7-7-7-7--7--7-7-7-7--5--5-5-5-5--5--5-5-5-5-----|
E|-5--5-5-5-5--5--5-5-5-5--3--3-3-3-3--3--3-3-3-3-----|
B|----------------------------------------------------|
::::Pre-Chorus::::
==Rythm==
e|----------------------------------------------------|
B|----------------------------------------------------|
G|----------------------------------------------------|
D|----------------------------------------------------|
A|---------------555555-5--5-----------------5--------|
E|-333333-3-3-3--333333-3--3--555555-5-5-3---3--------|
B|-111111-1-1-1---------------333333-3-3-3------------|

==Lead 1==
e|-------------------------------------------------------------|
B|-------------------------------------------------------------|
G|----------------------------------------------------------5-7|
D|--------------------------------------5-4-5-7-5-7-8-7-5-8----|
A|-333333-3-1-3-555555-3-1-000000-0-1-0------------------------|
E|-------------------------------------------------------------|
B|-------------------------------------------------------------|

==Lead 2==
e|----------------------------------------------------------------------------------------|
B|-----------------------------------------------------------------------------------11-15|
G|-----------------------------------------------------12-11-12-14-12-14-15-14-12-15------|
D|-101010101010-10-8-10-121212121212-10-8-777777-7-8-7------------------------------------|
A|----------------------------------------------------------------------------------------|
E|----------------------------------------------------------------------------------------|
B|----------------------------------------------------------------------------------------|

::::Chorus::::

Rythm

e|----------------------------------------------------|
B|----------------------------------------------------|
G|----------------------------------------------------|
D|----------------------------------------------------|
A|-5-----------5-----------5---------3-5-----3--------|
E|---3-3-3-3-3---------------3-3-3-3------------------|
B|---------------3-3-3-3-3---------------3-3---3-3----|


e|----------------------------------------------------|
B|----------------------------------------------------|
G|----------------------------------------------------|
D|----------------------------------------------------|
A|-6-----------6-----------5---------3-5-----3--------|
E|---------------------------6-6-6-6------------------|
B|---4-4-4-4-4---6-6-6-6-6---------------3-3---3-3----|

e|----------------------------------------------------|
B|----------------------------------------------------|
G|----------------------------------------------------|
D|----------------------------------------------------|
A|-5-----------5-----------4---------4-5-----6--------|
E|---3-3-3-3-3---------------5-5-5-5-----3-3---3-3----|
B|---------------3-3-3-3-3----------------------------|
=End line 1=
e|----------------------------------------------------|
B|----------------------------------------------------|
G|----------------------------------------------------|
D|----------------------------------------------------|
A|-3-----------5-----------3---------3-5-----3--------|
E|---------------3-3-3-3-3---------------3-3---3-3----|
B|---1-1-1-1-1---------------3-3-3-3------------------|
=End line 2=
e|----------------------------------------------------|
B|----------------------------------------------------|
G|----------------------------------------------------|
D|----------------------------------------------------|
A|-3--3-3-1-3-5---3-1-0--0-0-1-0----------------------|
E|------------------------------3---------------------|
B|----------------------------------------------------|

==Lead 1==
e|----------------------------------------------------|
B|----------------------------------------------------|
G|----------------------------------------------------|
D|-8-----------7-----------8---------7-8-----7--------|
A|---5-5-5-5-5---5-5-5-5-5---5-5-5-5-----5-5---5-5----|
E|----------------------------------------------------|
B|----------------------------------------------------|

e|----------------------------------------------------|
B|----------------------------------------------------|
G|----------------------------------------------------|
D|-8-----------7-----------8---------7-8-----7--------|
A|---6-6-6-6-6---6-6-6-6-6---5-5-5-5-----5-5---5-5----|
E|----------------------------------------------------|
B|----------------------------------------------------|

e|----------------------------------------------------|
B|----------------------------------------------------|
G|----------------------------------------------------|
D|-8-----------7-----------7---------7-8-----10-------|
A|---5-5-5-5-5---5-5-5-5-5---4-4-4-4-----5-5----6-6---|
E|----------------------------------------------------|
B|----------------------------------------------------|
=End line 1=
e|----------------------------------------------------|
B|----------------------------------------------------|
G|----------------------------------------------------|
D|-7-----------8-----------7---------7-8-----7--------|
A|---3-3-3-3-3---5-5-5-5-5---4-4-4-4-----5-5---5-5----|
E|----------------------------------------------------|
B|----------------------------------------------------|
=End line 2=
e|----------------------------------------------------|
B|----------------------------------------------------|
G|---10--10-10-8-10-12--10-8-7--7-7-8-7-5-------------|
D|----------------------------------------------------|
A|----------------------------------------------------|
E|----------------------------------------------------|
B|----------------------------------------------------|

==Lead Guitar 2==
e|---------------------------------------------------------------------------|
B|---------------------------------------------------------------------------|
G|-15----------------14----------------15-------------14-15-------14---------|
D|----12-12-12-12-12----12-12-12-12-12----12-12-12-12-------12-12----12-12---|
A|---------------------------------------------------------------------------|
E|---------------------------------------------------------------------------|
B|---------------------------------------------------------------------------|

e|---------------------------------------------------------------------------|
B|---------------------------------------------------------------------------|
G|-15----------------14----------------15-------------14-15-------14---------|
D|----13-13-13-13-13----13-13-13-13-13----12-12-12-12-------12-12----12-12---|
A|---------------------------------------------------------------------------|
E|---------------------------------------------------------------------------|
B|---------------------------------------------------------------------------|

e|---------------------------------------------------------------------------|
B|---------------------------------------------------------------------------|
G|-15----------------14----------------14-------------14-15-------17---------|
D|----12-12-12-12-12----12-12-12-12-12----11-11-11-11-------12-12----13-13---|
A|---------------------------------------------------------------------------|
E|---------------------------------------------------------------------------|
B|---------------------------------------------------------------------------|
=End Line 1=
e|---------------------------------------------------------------------------|
B|---------------------------------------------------------------------------|
G|-14----------------15----------------14-------------14-15-------14---------|
D|----10-10-10-10-10----12-12-12-12-12----10-10-10-10-------12-12----12-12---|
A|---------------------------------------------------------------------------|
E|---------------------------------------------------------------------------|
B|---------------------------------------------------------------------------|
=End line 2=
e|---------------------------------------------------------------------------|
B|---------------------------------------------------------------------------|
G|--17--17-17-15-17-19--17--15--14--14-14-15-14--12--------------------------|
D|---------------------------------------------------------------------------|
A|---------------------------------------------------------------------------|
E|---------------------------------------------------------------------------|
B|---------------------------------------------------------------------------|

::::Verse 2::::

::::Pre-Chorus::::

::::Chorus::::

::::Bridge::::
-Palm Muted
e|----------------------------------------------------|
B|----------------------------------------------------|
G|----------------------------------------------------|
D|----------------------------------------------------|
A|-5--5-5-5-5--5--5-5-5-5--5--5-5-5-5--5--5-5-5-5-----|
E|-3--3-3-3-3--3--3-3-3-3--3--3-3-3-3--3--3-3-3-3-----|
B|----------------------------------------------------|
-No Palm
e|----------------------------------------------------|
B|----------------------------------------------------|
G|----------------------------------------------------|
D|----------------------------------------------------|
A|-5--5-5-5-5--5--5-5-5-5--5--5-5-5-5--5--5-5-5-5-----|
E|-3--3-3-3-3--3--3-3-3-3--3--3-3-3-3--3--3-3-3-3-----|
B|----------------------------------------------------|

::::Solo Rythm::::
Repeat Verse

::::Intro Repeat::::

::::Chorus::::

::::Outro::::
Same as intro
comments
We did not receive enough feedback on this tab! Please rate:
print report bad tab
1 2 3 4 5
I want to post or [tab]
guest
You may want to rate the tab now too:
select rating
Please do not post tabs as comments. Select "correction" instead!