Oops, an error
Loading. Please wait.

Only You Can Love Me This Way Tab

ver1
ver1

Whole song

More versions @911Tabs.com
86,487 views 24 this week
3 commentsread comments
1 2 3 4 5
accurate
x 6
Autoscroll
+/-
esc
set tempo
stop
Difficulty
Tuning
intermediate
D A D G B E
Hey! There's an official Ultimate Guitar app which is ideal
for learning songs when you're away from computer. Get the app
WARNING: You are trying to view
                                    content from Ultimate-Guitar.com
                                    in an unauthorized application,
                                    which is prohibited.

                                    Please use an official Ultimate
                                    Guitar Tabs application for iPhone,
                                    iPad or Android to access legitimate
                                    chords, guitar, bass, and drum tabs
                                    from Ultimate-Guitar.com database.

                                    Type "ultimate guitar tabs" in Apple
                                    App Store's or Android Market's
                                    search to find the application.
-----------------------------------------------------------
Title: Keith Urban - Only You can Love Me this way (Drop D)
Tabber: D.Bo - high_joe69@hotmail.com
-----------------------------------------------------------


I didn't like the sound of the chords!, I think its played in drop D myself
But check it out! you'll have to figure out the strumming pattern yourself..
but these are the chords that i think sound better!....Try it!


   (Intro/Verses)
E||-----------------------------------|----------------------|
B||--5h----7-----7p----5----5----3----|--3----2----2----0----|
G||--6h----7-----7p----6----6----4----|--4----2----2----0----|
D||--0-----0-----0-----0----0----0----|--0----0----0----0----|
A||--0-----0-----0-----0----0----0----|--0----0----0----0----|
D||--0-----0-----0-----0----0----0----|--0----0----0----0----|


----------------------|----------------------|--0----0---0-----------|
----------------------|----------------------|--3----3---3-----------|
--2----2----2----2----|--2----2----2----2----|--2----2---2-----------|
--0----0----0----0----|--0----0----0----0----|--0----0---0-----------|
--5----5----5----5----|--5----5----5----5----|--0----0---0-----------|
--5----5----5----5----|--5----5----5----5----|--0----0---0-x----x----|


  (verse end)           (chorus)
----------------------|----------------------|-----------------0----|
----------------------|----------------------|-----------------3----|
--4----2--------------|--2----2----2----2----|--2----2----2----2----|
--2----0--------------|--0----0----0----0----|--0----0----0----0----|
--2----5--------------|--5----5----5----5----|--5----5----5----0----|
--2----5----x----x----|--5----5----5----5----|--5----5----5----0----|


--0----0----0----0----|--0----0---------------------------|
--3----3----3----3----|--3----3---------------------------|
--2----2----2----2----|--2----2------------4-4-4-4-4-4-4--|
--0----0----0----0----|--0----0-x2---------4-4-4-4-4-4-4--|
--0----0----0----0----|--0----0------------2-2-2-2-2-2-2--|
--0----0----0----0----|--0----0----x----x-----------------|

(theres another chord before the last one, I havn't figured out yet!)
--------------------------------||
--------------------------------||
-6-6-6-6-6-6-6---2-2------------||
-4-4-4-4-4-4-4---0-0------------||
-4-4-4-4-4-4-4---5-5------------||
-4-4-4-4-4-4-4---5-5------------||



Lyrics:

Well I know theres a reason
And I know theres a rhyme
We were meant to be together
Thats why

We can roll with the punches
We can stroll hand in hand
And when I say its forever
You understand

That youre always in my heart
Youre always on my mind
And when it all becomes too much
Youre never far behind
And theres no one that comes close to you
Could ever take your place
Cause only you can love me this way

I couldve turned a different corner
I couldve gone another place
But Id a never had this feeling
That I feel today, yeah
comments
print report bad tab
3 comments total.
0 reply
blur819 wrote on October 4 2009, 11:28 am

The chorus (the part you're uncertain of...)

The chords could be (assuming it is in Drop D):

|-3-2---3-|
|-4-2---0-|
|-4-2-6-0-|
|-2-0-6-5-|
|-----6-5-|

I also think it is a straight up "G", not really (5-5-0-0-2-0)... IMHO.

Sounds good in Drop D!

Nice Tab man!

0 reply
Gable_Brandon wrote on October 13 2009, 12:08 pm

I like this. Great job. One suggestion however. I think your,

|---- |----
|---- |--3-
|--2- |--0-
|--0- should be |--0-
|--5- |--5-
|--5- |--5-

try it out. Sounds better to me atleast.

0 reply
Jordan_D wrote on October 22 2009, 08:23 pm

try dropping both E strings and instead of muting the high E(now D) string, play it open

I want to post or [tab]
guest
You may want to rate the tab now too:
select rating
Please do not post tabs as comments. Select "correction" instead!