Oops, an error
Loading. Please wait.

All That You Cant Leave Behind Tab

by U2
34,383 views 36 this week
no commentswrite comment
1 2 3 4 5
excellent!
x 6
Autoscroll
+/-
esc
set tempo
stop
Difficulty
intermediate
Hey! There's an official Ultimate Guitar app which is ideal
for learning songs when you're away from computer. Get the app
WARNING: You are trying to view
                                    content from Ultimate-Guitar.com
                                    in an unauthorized application,
                                    which is prohibited.

                                    Please use an official Ultimate
                                    Guitar Tabs application for iPhone,
                                    iPad or Android to access legitimate
                                    chords, guitar, bass, and drum tabs
                                    from Ultimate-Guitar.com database.

                                    Type "ultimate guitar tabs" in Apple
                                    App Store's or Android Market's
                                    search to find the application.
Wow, my first album tab, took me a long time, please rate it and enjoy your playing and 
fun with it.

Tabbed by Taz Mckell

U2 - Beautiful Day
Standard Tuning

Verse/Chorus:
e |--0---2---2---3----------------------------------------------------|
b |--2---3---3---0----------------------------------------------------|
g |--2---4---2---0----------------------------------------------------|
d |--2---4---0---0----------------------------------------------------|
a |--0---2-------x----------------------------------------------------|
e |--------------3----------------------------------------------------|

Main Verse Fill: (here's the notes played, they're different every verse,
                  but stay in the same area)
e |----2-----0----0---------2-----------------------------------------|
b |--2---3-----0----0----0-----2--------------------------------------|
g |-------------------------------------------------------------------|
d |-------------------------------------------------------------------|
a |-------------------------------------------------------------------|
e |-------------------------------------------------------------------|

Chorus Fill: (different every time again. here's the main notes)
e |----10----10-----10-------9-------9--------------------------------|
b |-10-----8-----7-------10-----10------------------------------------|
g |-------------------------------------------------------------------|
d |-------------------------------------------------------------------|
a |-------------------------------------------------------------------|
e |-------------------------------------------------------------------|


Enjoy!

BEAUTIFUL DAY by U2
From the album "All That You Can't Leave Behind"

INTRO:
A Bm D G D D A
A Bm D G D D A

VERSE 1:
                   A Bm D G
The heart is a bloom
       D                    A
Shoots up through the stony ground
              A Bm D G
There's no room
   D                A
No space to rent in this town
               A Bm D G
You're out of luck
        D                      A
And the reason that you had to care
             A Bm D G
The traffic is stuck
               D          A
And you're not moving anywhere
                 A  Bmin  D  G
You thought you found a friend
            D           A
To take you out of this place
        A   Bm    D      G
Someone you could lend a hand
     D        A
In return for grace

CHORUS:  (same chords)
It's a beautiful day
Sky falls you feel like
A beautiful day
Don't let it get away

VERSE 2:
You're on the road
But you've got no destination
You're in the mud
In the maze of her imagination
The love is done
Even if that doesn't ring true
You've been all over
And it's been all over you

CHORUS

F#m     G
Touch me
D               A
Take me to that other place
F#m      G
Teach me
D                A
I know I'm not a hopeless case

BRIDGE:
Em
See the world in green and blue
D
See time move right in front of you
Em              G
See the canyons broken by cloud
D
See the tuna fleets clearing the sea out
Em              G
See the Bedouin fires at night
D
See the oil fields at first light
Em                      G
And see the bird with a leaf in her mouth
D                       A
After the flood all the colors came out

CHORUS

Touch me
Take me to that other place
Reach me
I know I'm not a hopeless case

What you don't have you don't need it now
What you don't know you can feel it somehow
What you don't have you don't need it now
Don't need it now
It's a beautiful day

CHORDS USED:
A   (x02220)
Bm  (x24432)
D   (xx0232)
G   (320003)
F#m (244222)
Em  (022000)


STUCK IN A MOMENT YOU CAN'T GET OUT OF by U2
From the album "All That You Can't Leave Behind"

INTRO:
E  E/G#  A  E/G#  B  C#m  A  E

VERSE:
E       E/G#      A                E/G#
I'm not afraid of anything in this world
        B               C#m                A                E
There's nothing you can throw at me that I haven't  already heard
E                  E/G#   A         E/G#
I'm just trying to find a decent melody
  B               C#m        A        E
A song that I can sing in my own company
C#m                        A
I never thought you were a fool
F#m(2nd verse: F#7)  A
But darling, look at you
C#m                A                          C#m
You gotta stand up straight, carry your own weight
                      B
These tears are going nowhere, baby

CHORUS:
E      E/G#   A            E/G#
You've got to get yourself together
           B          C#m                A         E
You've got stuck in a moment and now you can't get out of it
E     E/G#     A             E/G#              G#/C       C#m
Don't say that later will be better now you're stuck in a moment
        A                          E
And you can't get out of it

VERSE 2:
I will not forsake, the colours that you bring
But the nights you filled with fireworks
They left you with nothing
I am still enchanted by the light you brought to me
I still listen through your ears, and through your eyes I can see
And you are such a fool
To worry like you do
I know it's tough, and you can never get enough
Of what you don't really need now... my oh my

CHORUS

BRIDGE:
F#m
I was unconscious, half asleep
    A                                   E
The water is warm till you discover how deep...
F#m
I wasn't jumping... for me it was a fall
A                                  D     B
It's a long way down to nothing at all

CHORUS

E   E/G#   A          E/G#
And if the night runs over
B   C#m    A         E
And if the day won't last
E   E/G#   A          E/G#
And if our way should falter
G#/C C#m  A     E(1st x only)
Along the stony pass
(repeat)

It's just a moment
               E
This time will pass

CHORDS USED:
E   (022100)
E/G#(4x2100)
A   (x02220)
B   (x2444x)
C#m (x46654)
F#m (244222)
F#7 (242322)
G#/C(x3654x)
D   (xx0232)

U2 - Elevation
Standard Tuning

Main Riff:
|---------------------------------------------------end-riff-here---|
|-------------------------------------------------------------------|
|--9--9-/--14-14---9--9--/--14--14-----------------16-16--x-x-14-14-|
|--9--9-/--14-14---9--9--/--14--14-- repeat--------16-16--x-x-14-14-|
|--7--7----0--0----7--7-----0---0------------------14-14--x-x-12-12-|
|--0--0------------0--0---------------------------------------------|

Verse Riff: (palm muted / deadened)
|------------------------------------------------------------------|
|------------------------------------------------------------------|
|--9p7-9--9p7-9p7--9-----------------------------------------------|
|---------------------9--------------------------------------------|
|------------------------------------------------------------------|
|------------------------------------------------------------------|

tabbed by zipztabs.com
Enjoy!


ELEVATION by U2
From the album "All That You Can't Leave Behind"

INTRO:
not sure if it's a guitar with fx, but it alternates
between E (5th str. 7th fret) and A (6th str. 5th fret)
enter guitar:
 E5     A5
---------------------|
--------10-10-10-10--|
-9--9---9--9--9--9---|
-9--9---7--7--7--7---|
-7--7----------------|
---------------------|
(repeat 7x)
       A5
--------------------|
-------10-10-10-10--|
-------9--9--9--9---|
-9--9--7--7--7--7---|
-------0--0--0--0---|
-7--7---------------|

VERSE:
intro instrument repeats this on low E(6th) string:
e--7----5--5--5----0---0--0--0----

after 4x, enter acoustic:
e-----------------------------------------------|
b--5p3-5---3-5-5p3-5p3-0----5p3-5---5--3---3----|

e-----------------------------------------------|
b--5p3-5---3-5p3-5---0----5p3-5---5--3---0------|

e-----------------------------------------------|
b--5p3-5---3--5p3--5--0----5p3-5---5--3---3-----|

e-----------------------------------------------|
b--5p3-5---5p3-5p3-5--3----5p3-5p3--5--0--------|

(this is the figure that the acoustic always plays)

solo guitar at end of tune (with envelope filter?)
--------------------|
--------------------|
--------------------|
-9--9--8--8--7--7---|
--------------------|
-7--7--6--6--5--5---|
(repeat)

...that's all the parts

U2 - Walk On
Standard Tuning

I think sometimes the E minor chord may actually be an E major, especially the
Intro/Chorus part, I couldn't really tell.  Anyways they both actually
sound ok...

Intro/Main Riff: (play the chords anywhere you like, D A G Em progression)
|--------10----5----3----0--------------------------------------------------|
|--(12)--10----5----3----0--------------------------------------------------|
|--------11----6----4----0--------------------------------------------------|
|--------12----7----5----2--------------------------------------------------|
|--------12----7----5----2--------------------------------------------------|
|--------10----5----3----0--------------------------------------------------|
                         Em (maybe Emajor)

Guitar 2:
|-----------12--------------------------------------------12----------------|
|--------------10--------------------------------------------12-------------|
|--------11--------- repeat 7x ---- end with ----------13-------------------|
|--12-12-----------------------------------------12-12----------------------|
|---------------------------------------------------------------------------|
|---------------------------------------------------------------------------|

Bridge:
|---2---3---0---0----2---3---0---0---0---0---0------------------------------|
|---3---0---0---2----3---0---0---2---2---2---2------------------------------|
|---4---0---0---2----4---0---0---2---2---2---2------------------------------|
|---4---0---2---2----4---0---2---2---2---2---2------------------------------|
|---2---2---2---0----2---2---2---0---0---0---0------------------------------|
|-------3---0------------3---0----------------------------------------------|

After Bridge:
|---2---0---3---3-----------------------2---0---0---0----------------------|
|---3---2---3---3-----------------------3---2---0---0----------------------|
|---2---2---0---0-- repeat once, then---2---2---0---0----------------------|
|---0---2---0---0-----------------------0---2---2---2----------------------|
|-------0---x---x---------------------------0---2---2----------------------|
|-----------3---3-------------------------------0---0----------------------|


Song Ending: (this progression played til end of song)
|----0----3----2----0-------------------------------------------------------|
|----0----3----3----2-------------------------------------------------------|
|----0----0----2----2-------------------------------------------------------|
|----2----0----0----2-------------------------------------------------------|
|----2----x---------0-------------------------------------------------------|
|----0----3-----------------------------------------------------------------|

WALK ON by U2
From the album "All That You Can't Leave Behind"

INTRO (spoken):
Dm       Cadd9
And love it's not the easy thing
G
The only baggage That you can bring
Dm
Love It's not the easy thing
Cadd9
The only baggage you can bring
   G
Is all that you can't leave behind

then gtr1 plays:
D     Asus4     G     Em7
D     Asus4     G     E

gtr2 plays the following 7x:
--------------12----|
-----------------10-|
--------11----------|
-12--12----12-------|
--------------------|
--------------------|

then the following 1x:
--------------12----|
-----------------12-|
--------13----------|
-12--12----12-------|
--------------------|
--------------------|

VERSE:
D             A              G        Em7
   And if the darkness is to keep us apart
D              A                  G               Em7
   And if the daylight feels like it's a long way off
D         A                       G
   And if your glass heart should crack
            Em7            D
Before the second you turn back
   A      E
Oh no, be strong ...  ohhh

CHORUS:
     D
Walk on
     Asus4
Walk on
          G
What you got, they can't steal it
   Em7
No they can't even feel it
     D
Walk on
     Asus4
Walk on
G              E
  Stay safe tonight

VERSE 2:
D                    Asus4         G
   You're packing a suitcase for a place
               Em7
None of us has been
D               Asus4
   A place that has to be believed
G        Em7
   To be seen
D                 Asus4
   You could have flown away
   G
A singing bird
      Em7
In an open cage
        D
Who will only fly
Asus4            E
  Only fly for freedom ... Ohhh

CHORUS

      D
And I know it aches
         Asus4
How your heart it breaks
        E
You can only take so much
Bm   G  Em7  A
Walk on
Bm  G  Em7   A (then stay on A)
  Walk on

D   A/C#
Home
        G
Hard to know what it is if you never had one
D   A/C#
Home
        G
I can't say where it is but I know I'm going
D   A/C#
Home
                 E
That's where the heart is
        D
And I know it aches
         Asus4
How your heart it breaks
        E
You can only take so much
     Em7     G     D    Asus4
Walk on
           Em7  G                       D    Asus4
Leave it behind..you've got to leave it behind

             Em7                    G
All that you fashion.. all that you make
             D                    A
All that you build.. all that you break
             Em7                    G
All that you measure.. all that you feel
             D            A
All this you can leave behind
(repeat and fade)

CHORDS USED:
Dm   (xx0231)
Cadd9(x32033)
G    (320033)
Em7  (022030)
Asus4(x02230)
E    (022100)
A    (x02220)
Bm   (x24432)
A/C# (x4222x)

KITE by U2
From the album "All That You Can't Leave Behind"

INTRO:
E     A  (repeat)

lead gtr (w. slide):
------
-14\--
-14\--
------|
------|
------|

VERSE:
E        A            E        A
Something is about to give
              E      A                       E      A
I can feel it coming  I think I know what it is
                  E   A                  E      A
I'm not afraid to die  I'm not afraid to live
             E          A                          E   A
And when I'm flat on my back I hope to feel like I did

(enter 2 slide guitar tracks):
-------------------------|
--4/5--4/5--4/5\4\2------|
--4/6--4/6--4/6\4\2------|
-------------------------|
-------------------------|
-------------------------|
(repeat)
    A
And hardness It sets in
                 C#m                     A
You need some protection the thinner the skin
E             A         C#m                      A
I want you to know that you don't need me anymore
E             A                   C#m
I want you to know You don't need anyone
               A
Or anything at all

CHORUS:
E
Who's to say where the wind will take you
B
Who's to say what it is will break you
A
I don't know which way the wind will blow
E
Who's to know when the time has come around
B                     A
Don't want to see you cry
                            E
I know that this is not goodbye

Lead guitar chords on above chorus:
  E   B   A
------0---7--------------|
--9---7---5---------(0)--|
--9---8---6-(8)-(6)------|
--9---9---7--------------|
--7-------0--------------|
--0----------------------|
(play with variations of these)


slide solo in second verse:
e-7/9--9---12\11--11\7--7\5--5-|
b------------------------------|

e-7/9--9---12\11--11\7--7\4--4-|
b------------------------------|

e-2/4--4\2--0--0--|
b-----------------|

CHORDS USED:
E   (022100)
A   (x02220)
C#m (x46654)
B   (x2444x)

IN A LITTLE WHILE by U2
From the album "All That You Can't Leave Behind"

CHORDS USED:
Bm   (x24432)
G    (320033)
D    (xx0232)
A    (x02220)


INTRO:
  A           F#        Bm       G    D          A
------------------------------------------------------------------|
-----5----------7-------------7----8-8--7-------7--5--------------|
-/6----6----------6-----------7----7-7--7----7--7--6--------------|
-/7------7--(7)/8---8---8/(9)------9-9--7-------7--7--------------|
------------------------------------------------------------------|
------------------------------------------------------5-----------|(let ring)

  A           F#        Bm       G    D          A
---------------------------------------------------5-------------|
-----5----------7-------------7----8-8--7-------7--5-------------|
-/6----6----------6-----------7----7-7--7-----7-7--6-------------|
-/7------7--(7)/8---8---8/(9)------9-9--7-------7--x-------------|
---------------------------------------------------7-------------|
---------------------------------------------------5-------------|

VERSE (continue above chords):
Sometimes he adds this fill to the end during the verse...

  A           F#        Bm       G    D          A
---------------------------------------------------5-------5-----|
-----5----------7-------------7----8-8--7-------7--5------5------|
-/6----6----------6-----------7----7-7--7-------7--6-----6-------|
-/7------7--(7)/8---8---8/(9)------9-9--7-------7--x-------------|
---------------------------------------------------7-------------|
---------------------------------------------------5-------------|
(repeat)

In a little while
Surely you'll be mine
In a little while I'll be there
In a little while
This hurt will hurt no more
I'll be home, love
When the night takes a deep breath
And the daylight has no air
If I crawl, if I come crawling home
Will you be there?

Bm       G
Ah   ooohh
D        A
Ah   ooohh

(back to original verse)
In a little while
I won't blow by every breeze
Friday night running
To Sunday on my knees
That girl, that girl
She's mine
And I've know her since
Since she was a little girl
With Spanish eyes
Oh, when I saw her
In a pram they pushed her by
Oooh, my how you've grown
Well it's been
It's been a little while

Bm       G
Ah   ooohh
D        A
Ah   ooohh
Bm       G
Ah   ooohh
D            A
Slow down my beating heart
Bm             G
Man dreams one day to fly
  A           D           A        D
A man takes a rocket ship into the skies
Bm                              G
He lives on a star that's dying in the night
    A              D
And follows in the trail
    A          D
The scatter of light

(back to original verse)
Turn it on, turn it on
You turn me on..

(back to chords)
Bm               G
Slow down my beating heart
    A           D
Slowly, slowly love
Bm               G
Slow down my beating heart
    A           D
Slowly, slowly love
Bm               G
Slow down my beating heart
    A           D
Slowly, slowly love


...that's it.


WILD HONEY by U2
From the album "All That You Can't Leave Behind"

INTRO:
GtrI
------------------------------|
-------0--1--3------3--2--1---|
-----0------------------------|
---0--------------------------|
------------------------------|
-3----------------------------|
(repeat)
GtrII
----------------------------------------|
-12-12\10--12-12\10--12--12/13--10--10--|
----------------------------------------|
--9--9\7----9--9\7----9---9/10---7---7--|
----------------------------------------|
----------------------------------------|
(repeat)

VERSE:
       G
In the days

When we were swinging form the trees
        C
I was a monkey
                      G
Stealing honey from a swarm of bees
        G
I could taste

I could taste you even then
            C                  G
And I would chase you down the wind

CHORUS:
Em      C               G
You can go there if you please
     D
Wild honey
Em         C               G
And if you go then go with me
     D
Wild honey

VERSE 2:
      G
Did I know you

Did I know you even then
           C
Before the clocks kept time
           G
Before the world was made
         G
From the cruel sun
         C
You were shelter
            G
You were my shelter and my shade

CHORUS x2

INTRO

VERSE 3:
          G
I'm still standing

I'm still standing where you left me
              C
Are you still growing wild?
                G
With everything tame around you
           G
I send you flowers

Cut flowers for your hall
            C
I know your garden is full
             G
But is there sweetness at all
Em      C
What is soul
Am
Love me
        C
Give me soul

CHORUS (2x)

INTRO and end on G

CHORDS USED:
G  (320003)
C  (x32010)
Em (022000)
Am (x02210)

Peace on Earth**

G
Heaven on Earth
C
We need it now
G
I'm sick of all of this
C
Hanging around

G
Sick of sorrow
C
I'm sick of the pain
Am
I'm sick of hearing
D
Again and again
Am
That there's gonna be
G
Peace on Earth

G
Where I grew up
C
There weren't many trees
G
Where there was we'd tear them down
C
And use them on our enemies

G
They say that what you mock
C
Will surely overtake you
Am
And you become a monster
D
So the monster will not break you

Am
And it's already gone too far
You said that if you go in hard
G
You won't get hurt

G
Jesus can you take the time
Am
To throw a drowning man a line
Em      C
Peace on Earth

G
Tell the ones who hear no sound
Am
Whose sons are living in the ground
Em      C
Peace on Earth

G
No who's or why's
Am
No one cries like a mother cries
Em      C
For peace on Earth

G
She never got to say goodbye
Am
To see the color in his eyes
Em      C
Now he's in the dirt
G
Peace on Earth

G
They're reading names out
C
Over the radio
G
All the folks the rest of us
C
Won't get to know

Am
Sean and Julia
D
Gareth, Anne, and Breeda
Am
Their lives are bigger than
D
Any big idea

G
Jesus can you take the time
Am
To throw a drowning man a line
Em      C
Peace on Earth


To tell the ones who hear no sound
Whose sons are living in the ground
Peace on Earth


Jesus in the song you wrote
The words are sticking in my throat
Peace on Earth


Hear it every Christmas time
But hope and history won't rhyme
So what's it worth


This peace on Earth
G Peace on Earth
C Peace on Earth
G Peace on Earth

=============================================================
Peace On Earth


I'm not really sure about the
"base-tones" in the chorus.

Peace on Earth

G
Heaven on Earth
C
We need it now
G
I'm sick of all of this
C
Hanging around
G
Sick of sorrow
C
Sick of the pain
Am
And sick of hearing
D
Again and again
Am
That there's gonna be
G
Peace on Earth

Where I grew up
There weren't many trees
Where there was we'd tear them down
And use them on our enemies
They say that what you mock
Will surely ovetake you
Am
And you become a monster
D
Soon a monster will not break you
Am
And it's already gone too far
You said that if you go in hard
     G
You wont get hurt

 G
Jesus can you take the time
     Em/B
To throw a drowning man a line
 Bm/C             C/A
Peace on Earth
 G
Tell the ones who hear no sound
       Em/B
Whose sons are living in the ground
 Bm/F#           C
Peace on earth
     G
No who's or why's. No one cries
 Em/B
Like a mother cries
     Bm/C            C/A
For peace on Earth
     G
She never got to say goodbye
    Em/B
To see the colour in his eyes
         Bm/F#            C
Now he's in the dirt
 G
Peace on Earth

They're reading names out
Over the radio
All the folks the rest of us
Won't get to know
Am
Sean and Julia
D
Garett, Ann, and Breeda
Am
Their lives are bigger than
G
Any big idea

Jesus can you take the time
To throw a drowning man a line
Peace on earth
To tell the ones who hear no sound
Whose sons are living in the ground
Peace on earth
Jesus and the song you wrote
The words are sticking in my throat
Peace on earth
Hear it every christmas time
But hope and history won't rhyme
So what's it worth
There's peace on Earth
Peace on Earth
Peace on Earth
Peace on Earth

======================================================

PEACE ON EARTH:


PEACE ON EARTH
G                         C
Heaven on Earth We need it now
G                            C
I'm sick of all this hanging around
G                       C                     Am                          D
Sick of sorrow sick of the pain I'm sick of hearing Again and again
                     Am         G
That there's gonna be Peace on Earth
G                         C
Where I grew up There weren't many trees
G
Where there was we'd tear them down
        C
And use them on our enemies
G                                              C
They say that what you mock Will surely overtake you
Am                                       D
And you become a monster So the monster will not break you
Am
And it's already gone too far You said that if you go in too hard
        G
You won't get hurt
G                                          D
Jesus can you take the time To throw a drowning man a line
C                      Am
Peace on Earth
G                                                              Bm
Tell the ones who hear no sound Whose sons are lying in the ground
                         C
Peace on Earth
G                                                  Bm
No who's or why's No one cries like a mother cries
      C                      Am
For Peace on Earth
G                                              Bm
She never got to say goodbye To see the colour in his eyes
                                 C        G
Now he's in the dirt            Peace on Earth
G                                         C
They're reading names out Over the radio
G                                       C
All the folks the rest of us Won't get to know
Am                  D
Sean and Julia Gareth Anne and Breeda
Am                                      G
Their lives are bigger than any big idea


U2  - When I Look At The World
All That You Can't Leave Behind

Intro

e----5\4---      Asus4 A Asus4 E    Pause  Asus4  A  Asus4  A  Asus4  Gbm  E

Verse 1
Asus4                   A
  When you look at the world
Asus4                  A
  What is it that you see
Asus4                    Gbm
  People find all kinds of things
        E
  That bring them to their knees

Verse 2
Asus4        A
  I see an expression
Asus4              A
  So clear and so true
Asus4               Gbm
  That changes the atmosphere

e---9\7----
            E
  When you walk to the room

CHORUS

Play this riff over Chorus (echo):

e---7/9---9\7---7/9---9\7---7/9--9\7---7/9---9\7--
        D              A
  So i try to be like you
          D          E
  Try to feel lucky too
        D                A
  Going up till it's no use
           E
  I can't see what you see

  When I look at the world


Verse 3
When the night is someone else's
And you're trying to get some sleep
When your thoughts are too expensive
To ever wanna keep

Verse 4
When there's all kinds of chaos
And everyone is walking lame
You don't even blink there do you
Don't even look away

Chorus

Solo

e--12\------12\-----21-21-17-17-14-17-19---17-16-12-14-19-21-\

Bridge- the lead is same as over Chorus
           D         A
  I can't wait any longer
           D            E
  I can't wait til i'm stronger
           D        A
  I can't wait any longer
           E
  To see what you see

  When I look at the world

Verse 5
I'm in the way of you
I can't see through smoke
I think of you and your holy book
When the rest of us choke

Outro:  Asus4  A  repeat

Tell me tell me what do you see
Tell me tell me whats gone on with me

=======================================================


WHEN I LOOK AT THE WORLD:


D A x3 D F#m E


New York

A G C G

[That's all]

song : Grace
album: All that you can't leave behind
band : U2


Someone else has to write tab, It wouldn't be correct if I did, and anyway I don't have 
the effects and stuf,I just can give give the chords. Listening to the bassline I think 
F should be a F/C
the whole song is some kind of 12-bar blues scheme in C, repeated over and over, but it's 2 X slower.
Listening to the bassline I think the F should maybe be a F/C, but it sounds good with 
I guess you all know the chords C, F and G  so I don't have to write them out...
oh, and it's just standard tuning.

intro :(and rest of the song)
| C | C | C | C | C | C | C | C |
| F | F | F | F | C | C | C | C |
| G | G | F | F | C | C | C | C |

C
Grace...   she takes the blame  she covers the shame
removes the stain it could be her name
F
Grace  It's a name for a girl
            C
It's also a thought that changed the world
             G
and when she walks on the street
                 F
you can hear the strings
C
grace finds goodness in everything

C
grace... she's got the walk not on a wrapper on chalk
she's got the time to talk
F
she travels outside of karma, karma
C
she travels outside of karma
          G
when she goes to work
                 F
you can hear the strings
C                                  etc...
grace finds beauty in everything


grace... she carries a world on her hips
no champagne flute for her lips
no twirls or skips between her fingertips
She carries a pearl in perfect condition
what once was hers, what once was friction
what left a mark no longer stains

because grace makes beauty out of ugly things
grace finds beauty in everything
grace finds goodness in everything

===================================================================

Main melody for "Grace" is:

e------------------------------------------------------------------|
B------------------------------------------------------------------|
G------------------------------------------------------------------|
D------14----12---10---10---(10)-----------10----12----10-----10---|
A-------------------------------------------12---------------------|
E------------------------------------------------------------------|


Hope that helps!


========================================================


GRACE:


C F

Thanks...took a while but it was worth it, please rate!
comments
print report bad tab
I want to post or [tab]
guest
You may want to rate the tab now too:
select rating
Please do not post tabs as comments. Select "correction" instead!