Oops, an error
Loading. Please wait.

Angels Too Tied To The Ground Tab

by U2
364 views 1 this week
2 commentsread comments
1 2 3 4 5
please rate
add to favorites launch autoscroll
font size
0
reset
Autoscroll
+/-
esc
set tempo
stop
Contributor
WARNING: You are trying to view
                                    content from Ultimate-Guitar.com
                                    in an unauthorized application,
                                    which is prohibited.

                                    Please use an official Ultimate
                                    Guitar Tabs application for iPhone,
                                    iPad or Android to access legitimate
                                    chords, guitar, bass, and drum tabs
                                    from Ultimate-Guitar.com database.

                                    Type "ultimate guitar tabs" in Apple
                                    App Store's or Android Market's
                                    search to find the application.
Artist: U2
Song: Angels Too Tied To The Ground
Tab by: Headache90

Intro:

 Piano
e|---|---2---4----2-4-6-11-|----2---4----2-4-6-11-|----2---4----2-4-6-11-|
B|---|-4---4---------------|--4---4---------------|--4---4---------------|
G|---|---------------------|----------------------|----------------------|
D|---|---------------------|----------------------|----------------------|
A|---|---------------------|----------------------|----------------------|
E|---|---------------------|----------------------|----------------------|
 |Guitar
e|-2-|---------------------|---2-------------2----|---2-------------2-----|
B|---|---------------------|---3------------------|---3-------------------|
G|---|---------------------|---4------------------|---4-------------------|
D|---|---------------------|---4------------------|---4-------------------|
A|---|---------------------|---2------------------|---2-------------------|
E|---|---------------------|---2------------------|---2-------------------|
 |
e|----2---4----2-4-6-11-|--6-4-2-------6-4----|
B|--4---4---------------|--------4------------|
G|----------------------|---------------------|
D|----------------------|---------------------|
A|----------------------|---------------------|
E|----------------------|---------------------|
 |Guitar
e|--2--------------2----|--2------------------|
B|--3-------------------|--2------------------|
G|--4-------------------|--2------------------|
D|--4-------------------|--4------------------|
A|--2-------------------|--4------------------|
E|--2-------------------|--2------------------|
 |  Piano
e|----2---4----2-4-6-11----23-|----2---4----2-4-6---11-|----2---4----2-4-6-11-|--6-4-2--------6-|
B|--4---4---------------------|--4---4-----------------|--4---4---------------|--------4--------|
G|----------------------------|------------------------|----------------------|-----------------|
D|----------------------------|------------------------|----------------------|-----------------|
A|----------------------------|------------------------|----------------------|-----------------|
E|----------------------------|------------------------|----------------------|-----------------|
 |Guitar
e|-----------------------|-----------------------------|-----------------------|--------|
B|-----------------------|-----------------------------|-----------------------|--------|
G|-----------------------|-----------------------------|-----------------------|--------|
D|-----------------------|-----------------------------|-----------------------|--------|
A|-----------------------|-----------------------------|-----------------------|--------|
E|-----------------------|-----------------------------|-----------------------|--------|
 |Piano
e|-21-18-16-14-16-11---|-21-18-16-14-16-11--|-21-18-16-14-16-11---|
B|---------------------|--------------------|---------------------|
G|---------------------|--------------------|---------------------|
D|---------------------|--------------------|---------------------|
A|---------------------|--------------------|---------------------|
E|---------------------|--------------------|---------------------|
 |Guitar
e|-2-------------------|--------------------|---2-2-2-------------|
B|-3-------------------|--------------------|---3-3-3-------------|
G|-4-------------------|--------------------|---4-4-4-------------|
D|-4-------------------|--------------------|---4-4-4-------------|
A|-2-------------------|--------------------|---2-2-2-------------|
E|-2-------------------|--------------------|---2-2-2-------------|
 |
 |Piano
e|-21-18-16-14-16-11---|-21-18-16-14-16-11--|-21-18-16-14-16-11---|
B|---------------------|--------------------|---------------------|
G|---------------------|--------------------|---------------------|
D|---------------------|--------------------|---------------------|
A|---------------------|--------------------|---------------------|
E|---------------------|--------------------|---------------------|
 |Guitar
e|-2-------------------|--------------------|---2-2-2-------------|
B|-3-------------------|--------------------|---3-3-3-------------|
G|-4-------------------|--------------------|---4-4-4-------------|
D|-4-------------------|--------------------|---4-4-4-------------|
A|-2-------------------|--------------------|---2-2-2-------------|
E|-2-------------------|--------------------|---2-2-2-------------|
|Piano
e|-21-18-16-14-16-11---|-21-18-16-14-16-11--|-21-18-16-14-16-11---|
B|---------------------|--------------------|---------------------|
G|---------------------|--------------------|---------------------|
D|---------------------|--------------------|---------------------|
A|---------------------|--------------------|---------------------|
E|---------------------|--------------------|---------------------|
 |Guitar
e|-2-------------------|--------------------|---2-2-2-------------|
B|-3-------------------|--------------------|---3-3-3-------------|
G|-4-------------------|--------------------|---4-4-4-------------|
D|-4-------------------|--------------------|---4-4-4-------------|
A|-2-------------------|--------------------|---2-2-2-------------|
E|-2-------------------|--------------------|---2-2-2-------------|
 |
 |Piano
e|-21-18-16-14-16-11---|-21-18-16-14-16-11--|-21-18-16-14-16-11---|-6---4-2------|
B|---------------------|--------------------|---------------------|--------------|
G|---------------------|--------------------|---------------------|--------------|
D|---------------------|--------------------|---------------------|--------------|
A|---------------------|--------------------|---------------------|--------------|
E|---------------------|--------------------|---------------------|--------------|
 |Guitar
e|---------------------|--------------------|----------------------|-2---2--------|
B|---------------------|--------------------|----------------------|-2---2--------|
G|---------------------|--------------------|----------------------|-2---2--------|
D|---------------------|--------------------|----------------------|-4---4--------|
A|---------------------|--------------------|----------------------|-4---4--------|
E|---------------------|--------------------|----------------------|-2---2--------|
 |
 |Verse:
 |What is it that keeps..  What is it when I....      What is it when we've..
e|----2---4----2-4-6-11---|----2---4----2-4-6-11---23-|----2---4----2-4-6-11-|
B|--4---4-----------------|--4---4--------------------|--4---4---------------|
G|------------------------|---------------------------|----------------------|
D|------------------------|---------------------------|----------------------|
A|------------------------|---------------------------|----------------------|
E|------------------------|---------------------------|----------------------|
 |Guitar
e|------------------------|---------------------------|----------------------|
B|------------------------|---------------------------|----------------------|
G|------------------------|---------------------------|----------------------|
D|------------------------|---------------------------|----------------------|
A|------------------------|---------------------------|----------------------|
E|------------------------|---------------------------|----------------------|
  But savor the mess...   What is it when the clock... What is it when our love...
e|----2---4----2-4-6-11---|----2---4----2-4-6-11--------|----2---4----2-4-6-11----23-|
B|--4---4-----------------|--4---4----------------------|--4---4---------------------|
G|------------------------|-------------------------1---|----------------------------|
D|------------------------|-----------------------4-----|----------------------------|
A|------------------------|-----------------------------|----------------------------|
E|------------------------|-----------------------------|----------------------------|
 |Guitar
e|------------------------|-2---------------------------|-2--------------------------|
B|------------------------|-2---------------------------|-2--------------------------|
G|------------------------|-3---------------------------|-3--------------------------|
D|------------------------|-4---------------------------|-4--------------------------|
A|------------------------|-4---------------------------|-4--------------------------|
E|------------------------|-2---------------------------|-2--------------------------|
 |I'm telling you    Waving a white flag             Baby got a white flag fly for...
e|--6-4-2---------6-4----|----2---4----2-4-6-11---|----2---4----2-4-6-11---------23-|
B|--------4--------------|--4---4-----------------|--4---4--------------------------|
G|-----------------------|------------------------|---------------------------------|
D|-----------------------|------------------------|---------------------------------|
A|-----------------------|------------------------|---------------------------------|
E|-----------------------|------------------------|---------------------------------|
 |Guitar
e|-(2)-------------------|-(2)--------------------|----------(2)--------------------|
B|-(2)-------------------|-(2)--------------------|----------(3)--------------------|
G|-(3)-------------------|-(3)--------------------|----------(4)--------------------|
D|-(4)-------------------|-(4)--------------------|----------(4)--------------------|
A|-(4)-------------------|-(4)--------------------|----------(2)--------------------|
E|-(2)-------------------|-(2)--------------------|----------(2)--------------------|
 |             Got a white flag    a white flag
e|----2---4----2-4-6-11----------|--6-4-2-------6-4----|
B|--4---4------------------------|--------4------------|
G|-------------------------------|---------------------|
D|--------------------------1----|---------------------|
A|------------------------1---4--|---------------------|
E|-------------------------------|---------------------|
 |
e|-(2)---------------------------|-(2)-----------------|
B|-(2)---------------------------|-(2)-----------------|
G|-(3)---------------------------|-(3)-----------------|
D|-(4)---------------------------|-(4)-----------------|
A|-(4)---------------------------|-(4)-----------------|
E|-(2)---------------------------|-(2)-----------------|
 |
 |Chorus:
 |Oooooooooooooooooooooooooooooo      Angels too tied to the ground
e|-21-18-16-14-16-11---|-21-18-16-14-16-11--|-21-18-16-14-16-11---|
B|---------------------|--------------------|---------------------|
G|---------------------|--------------------|---------------------|
D|---------------------|--------------------|---------------------|
A|---------------------|--------------------|---------------------|
E|---------------------|--------------------|---------------------|
 |Guitar
e|-2-------------------|--------------------|---2-2-2-------------|
B|-3-------------------|--------------------|---3-3-3-------------|
G|-4-------------------|--------------------|---4-4-4-------------|
D|-4-------------------|--------------------|---4-4-4-------------|
A|-2-------------------|--------------------|---2-2-2-------------|
E|-2-------------------|--------------------|---2-2-2-------------|
 |
 |Oooooooooooooooooooooooooooooo      Angels too tied to the ground
e|-21-18-16-14-16-11---|-21-18-16-14-16-11--|-21-18-16-14-16-11---|
B|---------------------|--------------------|---------------------|
G|---------------------|--------------------|---------------------|
D|---------------------|--------------------|---------------------|
A|---------------------|--------------------|---------------------|
E|---------------------|--------------------|---------------------|
 |Guitar
e|-2-------------------|--------------------|---2-2-2-------------|
B|-3-------------------|--------------------|---3-3-3-------------|
G|-4-------------------|--------------------|---4-4-4-------------|
D|-4-------------------|--------------------|---4-4-4-------------|
A|-2-------------------|--------------------|---2-2-2-------------|
E|-2-------------------|--------------------|---2-2-2-------------|
 |Oooooooooooooooooooooooooooooo      Angels too tied to the ground
e|-21-18-16-14-16-11---|-21-18-16-14-16-11--|-21-18-16-14-16-11---|
B|---------------------|--------------------|---------------------|
G|---------------------|--------------------|---------------------|
D|---------------------|--------------------|---------------------|
A|---------------------|--------------------|---------------------|
E|---------------------|--------------------|---------------------|
 |Guitar
e|-2-------------------|--------------------|---2-2-2-------------|
B|-3-------------------|--------------------|---3-3-3-------------|
G|-4-------------------|--------------------|---4-4-4-------------|
D|-4-------------------|--------------------|---4-4-4-------------|
A|-2-------------------|--------------------|---2-2-2-------------|
E|-2-------------------|--------------------|---2-2-2-------------|
 |
 |Ooooooooooooooooooooooooooooo
e|-21-18-16-14-16-11---|-21-18-16-14-16-11--|-21-18-16-14-16-11---|-6---4-2------|
B|---------------------|--------------------|---------------------|--------------|
G|---------------------|--------------------|---------------------|--------------|
D|---------------------|--------------------|---------------------|--------------|
A|---------------------|--------------------|---------------------|--------------|
E|---------------------|--------------------|---------------------|--------------|
 |Guitar
e|-----------------------|-----------------------------|-----------------------|
B|-----------------------|-----------------------------|-----------------------|
G|-----------------------|-----------------------------|-----------------------|
D|-----------------------|-----------------------------|-----------------------|
A|-----------------------|-----------------------------|-----------------------|
E|-----------------------|-----------------------------|-----------------------|
 |Piano
e|-----------------------|-----------------------------|--------------------------|
B|-----------------------|-----------------------------|--------------------------|
G|-----------------------|-------1----------------------|-------------------------|
D|-----------------------|---1--------------------------|-------------------------|
A|-----------------------|-----------4------------------|-------------------------|
E|-----------------------|-----------------------------|--------------------------|
 |
e|-----------------------|-----------------------------|---------------------------------|
B|-2\-4---4-/-2----------|-----------------------------|-------2/-4--2--2----------------|
G|-----------------------|-----------------------------|--1-1-------------1--1-4-1-------|
D|-----------------------|-----------------------------|---------------------------------|
A|-----------------------|-----------------------------|---------------------------------|
E|-----------------------|-----------------------------|---------------------------------|
 |Piano
e|---------6-4-2---------|-----------------6-4-2-------|-------6-4-2--11-14-16-|
B|---------------4-2-----|-----------------------4-2---|-----------------------|
G|-----------------------|-----------------------------|-----------------------|
D|-----------------------|-----------------------------|-----------------------|
A|-----------------------|-----------------------------|-----------------------|
E|-----------------------|-----------------------------|-----------------------|
 |
e|--4/-2-----------------|--4-/-2----4-/-2-------------|--4/-2-----------------|
B|-----------------------|-----------------------------|-----------------------|
G|-----------------------|-----------------------------|-----------------------|
D|-----------------------|-----------------------------|-----------------------|
A|-----------------------|-----------------------------|-----------------------|
E|-----------------------|-----------------------------|-----------------------|
 |
e|-----------------------|-------------------11-14-16-18-|-11-14-16-18-21--------|
B|-----------------------|-------------------------------|-----------------------|
G|-----------------------|-------------------------------|-----------------------|
D|-----------------------|-------------------------------|-----------------------|
A|-----------------------|-------------------------------|-----------------------|
E|-----------------------|-------------------------------|-----------------------|
 |
<--Hear how play
    harmonics
e|-----------------------|---------------<7>----------<7>------|-----------------------|
B|-----------------------|----<7>-----<7>---<7>----<7>---------|------------------<7>--|
G|-----------------------|----<7>--<7>------<7>-<7>------------|------------------<7>--|
D|-----------------------|----<7>-----------<7>----------------|------------------<7>--|
A|-----------------------|-------------------------------------|-----------------------|
E|-----------------------|-------------------------------------|-----------------------|
 | Chorus:
 |Oooooooooooooooooooooooooooooo      Angels too tied to the ground
e|-21-18-16-14-16-11---|-21-18-16-14-16-11--|-21-18-16-14-16-11---|
B|---------------------|--------------------|---------------------|
G|---------------------|--------------------|---------------------|
D|---------------------|--------------------|---------------------|
A|---------------------|--------------------|---------------------|
E|---------------------|--------------------|---------------------|
 |Guitar
e|-2-------------------|--------------------|---2-2-2-------------|
B|-3-------------------|--------------------|---3-3-3-------------|
G|-4-------------------|--------------------|---4-4-4-------------|
D|-4-------------------|--------------------|---4-4-4-------------|
A|-2-------------------|--------------------|---2-2-2-------------|
E|-2-------------------|--------------------|---2-2-2-------------|
 |
 |Oooooooooooooooooooooooooooooo      Angels too tied to the ground
e|-21-18-16-14-16-11---|-21-18-16-14-16-11--|-21-18-16-14-16-11---|
B|---------------------|--------------------|---------------------|
G|---------------------|--------------------|---------------------|
D|---------------------|--------------------|---------------------|
A|---------------------|--------------------|---------------------|
E|---------------------|--------------------|---------------------|
 |Guitar
e|-2-------------------|--------------------|---2-2-2-------------|
B|-3-------------------|--------------------|---3-3-3-------------|
G|-4-------------------|--------------------|---4-4-4-------------|
D|-4-------------------|--------------------|---4-4-4-------------|
A|-2-------------------|--------------------|---2-2-2-------------|
E|-2-------------------|--------------------|---2-2-2-------------|
 |Oooooooooooooooooooooooooooooo      Angels too tied to the ground
e|-21-18-16-14-16-11---|-21-18-16-14-16-11--|-21-18-16-14-16-11---|
B|---------------------|--------------------|---------------------|
G|---------------------|--------------------|---------------------|
D|---------------------|--------------------|---------------------|
A|---------------------|--------------------|---------------------|
E|---------------------|--------------------|---------------------|
 |Guitar
e|-2-------------------|--------------------|---2-2-2-------------|
B|-3-------------------|--------------------|---3-3-3-------------|
G|-4-------------------|--------------------|---4-4-4-------------|
D|-4-------------------|--------------------|---4-4-4-------------|
A|-2-------------------|--------------------|---2-2-2-------------|
E|-2-------------------|--------------------|---2-2-2-------------|
 |
 |Ooooooooooooooooooooooooooooo
e|-21-18-16-14-16-11---|-21-18-16-14-16-11--|-21-18-16-14-16-11---|-6---4-2------|
B|---------------------|--------------------|---------------------|--------------|
G|---------------------|--------------------|---------------------|--------------|
D|---------------------|--------------------|---------------------|--------------|
A|---------------------|--------------------|---------------------|--------------|
E|---------------------|--------------------|---------------------|--------------|
 |Guitar
e|-----------------------|-----------------------------|-----------------------|
B|-----------------------|-----------------------------|-----------------------|
G|-----------------------|-----------------------------|-----------------------|
D|-----------------------|-----------------------------|-----------------------|
A|-----------------------|-----------------------------|-----------------------|
E|-----------------------|-----------------------------|-----------------------|
 |Oooooooooooooooooooooooooooooo      Angels too tied to the ground
e|-21-18-16-14-16-11---|-21-18-16-14-16-11--|-21-18-16-14-16-11---|
B|---------------------|--------------------|---------------------|
G|---------------------|--------------------|---------------------|
D|---------------------|--------------------|---------------------|
A|---------------------|--------------------|---------------------|
E|---------------------|--------------------|---------------------|
 |Guitar
e|-2-------------------|--------------------|---2-2-2-------------|
B|-3-------------------|--------------------|---3-3-3-------------|
G|-4-------------------|--------------------|---4-4-4-------------|
D|-4-------------------|--------------------|---4-4-4-------------|
A|-2-------------------|--------------------|---2-2-2-------------|
E|-2-------------------|--------------------|---2-2-2-------------|
 |
 |Oooooooooooooooooooooooooooooo      Angels too tied to the ground
e|-21-18-16-14-16-11---|-21-18-16-14-16-11--|-21-18-16-14-16-11---|
B|---------------------|--------------------|---------------------|
G|---------------------|--------------------|---------------------|
D|---------------------|--------------------|---------------------|
A|---------------------|--------------------|---------------------|
E|---------------------|--------------------|---------------------|
 |Guitar
e|-2-------------------|--------------------|---2-2-2-------------|
B|-3-------------------|--------------------|---3-3-3-------------|
G|-4-------------------|--------------------|---4-4-4-------------|
D|-4-------------------|--------------------|---4-4-4-------------|
A|-2-------------------|--------------------|---2-2-2-------------|
E|-2-------------------|--------------------|---2-2-2-------------|
 |Oooooooooooooooooooooooooooooo      Angels too tied to the ground
e|-21-18-16-14-16-11---|-21-18-16-14-16-11--|-21-18-16-14-16-11---|
B|---------------------|--------------------|---------------------|
G|---------------------|--------------------|---------------------|
D|---------------------|--------------------|---------------------|
A|---------------------|--------------------|---------------------|
E|---------------------|--------------------|---------------------|
 |Guitar
e|-2-------------------|--------------------|---2-2-2-------------|
B|-3-------------------|--------------------|---3-3-3-------------|
G|-4-------------------|--------------------|---4-4-4-------------|
D|-4-------------------|--------------------|---4-4-4-------------|
A|-2-------------------|--------------------|---2-2-2-------------|
E|-2-------------------|--------------------|---2-2-2-------------|
 |
 |Ooooooooooooooooooooooooooooo
e|-21-18-16-14-16-11---|-21-18-16-14-16-11--|-21-18-16-14-16-11---|-11-14-16-18--16-14-11---|
B|---------------------|--------------------|---------------------|-------------------------|
G|---------------------|--------------------|---------------------|-------------------------|
D|---------------------|--------------------|---------------------|-------------------------|
A|---------------------|--------------------|---------------------|-------------------------|
E|---------------------|--------------------|---------------------|-------------------------|
 |Guitar
e|-----------------------|-----------------------------|-----------------------|
B|-----------------------|-----------------------------|-----------------------|
G|-----------------------|-----------------------------|-----------------------|
D|-----------------------|-----------------------------|-----------------------|
A|-----------------------|-----------------------------|-----------------------|
E|-----------------------|-----------------------------|-----------------------|
 |
 |Oooooooooooooooooooooooooooooo      Angels too tied to the ground
e|-21-18-16-14-16-11---|-21-18-16-14-16-11--|-21-18-16-14-16-11---|
B|---------------------|--------------------|---------------------|
G|---------------------|--------------------|---------------------|
D|---------------------|--------------------|---------------------|
A|---------------------|--------------------|---------------------|
E|---------------------|--------------------|---------------------|
 |Guitar
e|-x--x-x-x-x-x-x-------------|--x--x-x-x-x-x-x-----------|-x--x-x-x-x-x-x----|
B|-x--x-x-x-x-x-x-------------|--x--x-x-x-x-x-x-----------|-x--x-x-x-x-x-x----| <--Hear how to
G|-x--x-x-x-x-x-x-------------|--x--x-x-x-x-x-x-----------|-x--x-x-x-x-x-x----| play this
D|-x--x-x-x-x-x-x-------------|--x--x-x-x-x-x-x-----------|-x--x-x-x-x-x-x----|
A|-x--x-x-x-x-x-x-------------|--x--x-x-x-x-x-x-----------|-x--x-x-x-x-x-x----|
E|-x--x-x-x-x-x-x-------------|--x--x-x-x-x-x-x-----------|-x--x-x-x-x-x-x----|
 |
 |Oooooooooooooooooooooooooooooo      Angels too tied to the ground
e|-21-18-16-14-16-11---|-21-18-16-14-16-11--|-21-18-16-14-16-11---|
B|---------------------|--------------------|---------------------|
G|---------------------|--------------------|---------------------|
D|---------------------|--------------------|---------------------|
A|---------------------|--------------------|---------------------|
E|---------------------|--------------------|---------------------|
 |Guitar
e|-x--x-x-x-x-x-x-------------|--x--x-x-x-x-x-x-----------|-x--x-x-x-x-x-x----|
B|-x--x-x-x-x-x-x-------------|--x--x-x-x-x-x-x-----------|-x--x-x-x-x-x-x----|
G|-x--x-x-x-x-x-x-------------|--x--x-x-x-x-x-x-----------|-x--x-x-x-x-x-x----|
D|-x--x-x-x-x-x-x-------------|--x--x-x-x-x-x-x-----------|-x--x-x-x-x-x-x----|
A|-x--x-x-x-x-x-x-------------|--x--x-x-x-x-x-x-----------|-x--x-x-x-x-x-x----|
E|-x--x-x-x-x-x-x-------------|--x--x-x-x-x-x-x-----------|-x--x-x-x-x-x-x----|
 |Oooooooooooooooooooooooooooooo      Angels too tied to the ground
e|-21-18-16-14-16-11---|-21-18-16-14-16-11--|-21-18-16-14-16-11---|
B|---------------------|--------------------|---------------------|
G|---------------------|--------------------|---------------------|
D|---------------------|--------------------|---------------------|
A|---------------------|--------------------|---------------------|
E|---------------------|--------------------|---------------------|
 |Guitar
e|-x--x-x-x-x-x-x-------------|--x--x-x-x-x-x-x-----------|-x--x-x-x-x-x-x----|
B|-x--x-x-x-x-x-x-------------|--x--x-x-x-x-x-x-----------|-x--x-x-x-x-x-x----|
G|-x--x-x-x-x-x-x-------------|--x--x-x-x-x-x-x-----------|-x--x-x-x-x-x-x----|
D|-x--x-x-x-x-x-x-------------|--x--x-x-x-x-x-x-----------|-x--x-x-x-x-x-x----|
A|-x--x-x-x-x-x-x-------------|--x--x-x-x-x-x-x-----------|-x--x-x-x-x-x-x----|
E|-x--x-x-x-x-x-x-------------|--x--x-x-x-x-x-x-----------|-x--x-x-x-x-x-x----|
 |
 |Ooooooooooooooooooooooooooooo
e|-21-18-16-14-16-11---|-21-18-16-14-16-11--|-21-18-16-14-16-11---|-11-14-16-18--16-14-11---|
B|---------------------|--------------------|---------------------|-------------------------|
G|---------------------|--------------------|---------------------|-------------------------|
D|---------------------|--------------------|---------------------|-------------------------|
A|---------------------|--------------------|---------------------|-------------------------|
E|---------------------|--------------------|---------------------|-------------------------|
 |Guitar
e|-x--x-x-x-x-x-x-------------|--x--x-x-x-x-x-x-----------|-x--x-x-x-x-x-x----|
B|-x--x-x-x-x-x-x-------------|--x--x-x-x-x-x-x-----------|-x--x-x-x-x-x-x----|
G|-x--x-x-x-x-x-x-------------|--x--x-x-x-x-x-x-----------|-x--x-x-x-x-x-x----|
D|-x--x-x-x-x-x-x-------------|--x--x-x-x-x-x-x-----------|-x--x-x-x-x-x-x----|
A|-x--x-x-x-x-x-x-------------|--x--x-x-x-x-x-x-----------|-x--x-x-x-x-x-x----|
E|-x--x-x-x-x-x-x-------------|--x--x-x-x-x-x-x-----------|-x--x-x-x-x-x-x----|
 |Piano
e|-------------6---------|----4------------------------|
B|-----------------------|-----------------------------|
G|-----------------------|-----------------------------|
D|-----------------------|-----------------------------|
A|-----------------------|-----------------------------|
E|-----------------------|-----------------------------|
 |Guitar
e|--2---------------------|---2--------------------------|
B|--3---------------------|---2--------------------------|
G|--4---------------------|---2--------------------------|
D|--4---------------------|---4--------------------------|
A|--2---------------------|---4--------------------------|
E|--2---------------------|---2--------------------------|
comments
We did not receive enough feedback on this tab! Please rate:
1 2 3 4 5
2 comments total.
0 reply
Headache90 wrote on May 9 2009, 07:03 am

Sorry but I made mistake
That's good:
e|----------------------------|
B|-------2/-4--2--2-----------|
G|--1-1-------------1--1-4-1--|
D|----------------------------|
A|----------------------------|
E|----------------------------|

0 reply
Headache90 wrote on May 10 2009, 07:31 am

http://www.youtube.com/watch?v=-lVRTjNNAXc&feature=PlayList&p=C7F716DF535B74E3&index=0 this is that song

I want to post or [tab]
guest
You may want to rate the tab now too:
select rating
Please do not post tabs as comments. Select "correction" instead!