Oops, an error
Loading. Please wait.

Sunday Bloody Sunday Tab

by U2
ver7
4,522 views 3 this week
2 commentsread comments
1 2 3 4 5
accurate
x 3
add to favorites launch autoscroll
font size
0
reset
Autoscroll
+/-
esc
set tempo
stop
Contributor
WARNING: You are trying to view
                                    content from Ultimate-Guitar.com
                                    in an unauthorized application,
                                    which is prohibited.

                                    Please use an official Ultimate
                                    Guitar Tabs application for iPhone,
                                    iPad or Android to access legitimate
                                    chords, guitar, bass, and drum tabs
                                    from Ultimate-Guitar.com database.

                                    Type "ultimate guitar tabs" in Apple
                                    App Store's or Android Market's
                                    search to find the application.
Sunday bloody sunday by U2 : how to play without tuning down a half step.


e|-----------------------------------------|
b|------6--------6--------4--------4-------|
g|----6---6----6---6----6---6----6---6-----|
d|--8--------6--------4--------4------(4)--|
a|-----------------------------------------|
e|-----------------------------------------|

e|-----------------------------------------|
b|------6--------6--------4--------4-------|
g|----6---6----6---6----6---6----6---6-----|
d|--8--------6--------4--------4------(4)--|
a|-----------------------------------------|
e|-----------------------------------------|

e|-----------------------------------------|
b|------6--------6--------4--------4-------|
g|----6---6----6---6----6---6----6---6-----|
d|--8--------6--------4--------4------(4)--|
a|-----------------------------------------|
e|-----------------------------------------|

e|-----------------------------------------|
b|------6--------6--------4--------4-------|
g|----6---6----6---6----6---6----6---6-----|
d|--8--------6--------4--------4------(4)--|
a|-----------------------------------------|
e|-----------------------------------------|

e|-----------------------------------------|
b|------6--------6--------4--------4-------|
g|----6---6----6---6----6---6----6---6-----|
d|--8--------6--------4--------4------(4)--|
a|-----------------------------------------|
e|-----------------------------------------|

e|-----------------------------------------|
b|------6--------6--------4--------4-------|
g|----6---6----6---6----6---6----6---6-----|
d|--8--------6--------4--------4------(4)--|
a|-----------------------------------------|
e|-----------------------------------------|

now riff two
  how long   how long must we sing this song  how long  how long...
e|--8--------6---------8--------6---6-6-6-6--6-6--6---6-6-6-8--|
b|--9--------8---------9--------8---8-8-8-8--8-8--8---8-8-8-8--|
g|--10-------8---------10-------8---8-8-8-8--8-8--8---8-8-8-8--|
d|--10-------8---------10-------8---8-8-8-8--8-8--8---8-8-8-8--|
a|--8--------6---------8--------6---6-6-6-6--6-6--6---6-6-6-6--|
e|--8--------6---------8--------6---6-6-6-6--6-6--6---6-6-6-6--|

and here is riff 3

A#5           C5             F5                         G5 F5
e|-------------------------------------------------------------|
b|-------------------------------------------------------------|
g|-------------------------------------------------------------|
d|--x-x--8-8--x-x-x-x-11-11--x-x-16-16-16-16--x-x-16-16-18-16--|
a|--x-x--8-8--x-x-x-x-11-11--x-x-16-16-16-16--x-x-16-16-18-16--|
e|--x-x--6-6--x-x-x-x-9--9---x-x-14-14-14-14--x-x-14-14-16-14--|

A#5           C5             F5                         G5 F5
e|-------------------------------------------------------------|
b|-------------------------------------------------------------|
g|-------------------------------------------------------------|
d|--x-x--8-8--x-x-x-x-11-11--x-x-16-16-16-16--x-x-16-16-18-16--|
a|--x-x--8-8--x-x-x-x-11-11--x-x-16-16-16-16--x-x-16-16-18-16--|
e|--x-x--6-6--x-x-x-x-9--9---x-x-14-14-14-14--x-x-14-14-16-14--|

A#5           C5             F5                         G5 F5
e|-------------------------------------------------------------|
b|-------------------------------------------------------------|
g|-------------------------------------------------------------|
d|--x-x--8-8--x-x-x-x-11-11--x-x-16-16-16-16--x-x-16-16-18-16--|
a|--x-x--8-8--x-x-x-x-11-11--x-x-16-16-16-16--x-x-16-16-18-16--|
e|--x-x--6-6--x-x-x-x-9--9---x-x-14-14-14-14--x-x-14-14-16-14--|
 riff one again
e|-----------------------------------------|
b|------6--------6--------4--------4-------|
g|----6---6----6---6----6---6----6---6-----|
d|--8--------6--------4--------4------(4)--|
a|-----------------------------------------|
e|-----------------------------------------|

e|-----------------------------------------|
b|------6--------6--------4--------4-------|
g|----6---6----6---6----6---6----6---6-----|
d|--8--------6--------4--------4------(4)--|
a|-----------------------------------------|
e|-----------------------------------------|

e|-----------------------------------------|
b|------6--------6--------4--------4-------|
g|----6---6----6---6----6---6----6---6-----|
d|--8--------6--------4--------4------(4)--|
a|-----------------------------------------|
e|-----------------------------------------|

e|-----------------------------------------|
b|------6--------6--------4--------4-------|
g|----6---6----6---6----6---6----6---6-----|
d|--8--------6--------4--------4------(4)--|
a|-----------------------------------------|
e|-----------------------------------------|

e|-----------------------------------------|
b|------6--------6--------4--------4-------|
g|----6---6----6---6----6---6----6---6-----|
d|--8--------6--------4--------4------(4)--|
a|-----------------------------------------|
e|-----------------------------------------|

riff four

(harmonics)

e|------------------|
b|-------------7----|
g|-------7--5----7--|
d|----7-------------|
a|--7---------------|
e|------------------|

e|------------------|
b|-------------7----|
g|-------7--5----7--|
d|----7-------------|
a|--7---------------|
e|------------------|

riff three

A#5           C5             F5                         G5 F5
e|-------------------------------------------------------------|
b|-------------------------------------------------------------|
g|-------------------------------------------------------------|
d|--x-x--8-8--x-x-x-x-11-11--x-x-16-16-16-16--x-x-16-16-18-16--|
a|--x-x--8-8--x-x-x-x-11-11--x-x-16-16-16-16--x-x-16-16-18-16--|
e|--x-x--6-6--x-x-x-x-9--9---x-x-14-14-14-14--x-x-14-14-16-14--|

A#5           C5             F5                         G5 F5
e|-------------------------------------------------------------|
b|-------------------------------------------------------------|
g|-------------------------------------------------------------|
d|--x-x--8-8--x-x-x-x-11-11--x-x-16-16-16-16--x-x-16-16-18-16--|
a|--x-x--8-8--x-x-x-x-11-11--x-x-16-16-16-16--x-x-16-16-18-16--|
e|--x-x--6-6--x-x-x-x-9--9---x-x-14-14-14-14--x-x-14-14-16-14--|

A#5           C5             F5                         G5 F5
e|-------------------------------------------------------------|
b|-------------------------------------------------------------|
g|-------------------------------------------------------------|
d|--x-x--8-8--x-x-x-x-11-11--x-x-16-16-16-16--x-x-16-16-18-16--|
a|--x-x--8-8--x-x-x-x-11-11--x-x-16-16-16-16--x-x-16-16-18-16--|
e|--x-x--6-6--x-x-x-x-9--9---x-x-14-14-14-14--x-x-14-14-16-14--|

riff one again

e|-----------------------------------------|
b|------6--------6--------4--------4-------|
g|----6---6----6---6----6---6----6---6-----|
d|--8--------6--------4--------4------(4)--|
a|-----------------------------------------|
e|-----------------------------------------|

e|-----------------------------------------|
b|------6--------6--------4--------4-------|
g|----6---6----6---6----6---6----6---6-----|
d|--8--------6--------4--------4------(4)--|
a|-----------------------------------------|
e|-----------------------------------------|

e|-----------------------------------------|
b|------6--------6--------4--------4-------|
g|----6---6----6---6----6---6----6---6-----|
d|--8--------6--------4--------4------(4)--|
a|-----------------------------------------|
e|-----------------------------------------|

e|-----------------------------------------|
b|------6--------6--------4--------4-------|
g|----6---6----6---6----6---6----6---6-----|
d|--8--------6--------4--------4------(4)--|
a|-----------------------------------------|
e|-----------------------------------------|

e|-----------------------------------------|
b|------6--------6--------4--------4-------|
g|----6---6----6---6----6---6----6---6-----|
d|--8--------6--------4--------4------(4)--|
a|-----------------------------------------|
e|-----------------------------------------|

e|-----------------------------------------|
b|------6--------6--------4--------4-------|
g|----6---6----6---6----6---6----6---6-----|
d|--8--------6--------4--------4------(4)--|
a|-----------------------------------------|
e|-----------------------------------------|

riff two

  how long   how long must we sing this song  how long  how long...
e|--8--------6---------8--------6---6-6-6-6--6-6--6---6-6-6-8--|
b|--9--------8---------9--------8---8-8-8-8--8-8--8---8-8-8-8--|
g|--10-------8---------10-------8---8-8-8-8--8-8--8---8-8-8-8--|
d|--10-------8---------10-------8---8-8-8-8--8-8--8---8-8-8-8--|
a|--8--------6---------8--------6---6-6-6-6--6-6--6---6-6-6-6--|
e|--8--------6---------8--------6---6-6-6-6--6-6--6---6-6-6-6--|

A#5           C5             F5                         G5 F5
e|-------------------------------------------------------------|
b|-------------------------------------------------------------|
g|-------------------------------------------------------------|
d|--x-x--8-8--x-x-x-x-11-11--x-x-16-16-16-16--x-x-16-16-18-16--|
a|--x-x--8-8--x-x-x-x-11-11--x-x-16-16-16-16--x-x-16-16-18-16--|
e|--x-x--6-6--x-x-x-x-9--9---x-x-14-14-14-14--x-x-14-14-16-14--|

A#5           C5             F5                         G5 F5
e|-------------------------------------------------------------|
b|-------------------------------------------------------------|
g|-------------------------------------------------------------|
d|--x-x--8-8--x-x-x-x-11-11--x-x-16-16-16-16--x-x-16-16-18-16--|
a|--x-x--8-8--x-x-x-x-11-11--x-x-16-16-16-16--x-x-16-16-18-16--|
e|--x-x--6-6--x-x-x-x-9--9---x-x-14-14-14-14--x-x-14-14-16-14--|

A#5           C5             F5                         G5 F5
e|-------------------------------------------------------------|
b|-------------------------------------------------------------|
g|-------------------------------------------------------------|
d|--x-x--8-8--x-x-x-x-11-11--x-x-16-16-16-16--x-x-16-16-18-16--|
a|--x-x--8-8--x-x-x-x-11-11--x-x-16-16-16-16--x-x-16-16-18-16--|
e|--x-x--6-6--x-x-x-x-9--9---x-x-14-14-14-14--x-x-14-14-16-14--|

A#5           C5             F5                         G5 F5
e|-------------------------------------------------------------|
b|-------------------------------------------------------------|
g|-------------------------------------------------------------|
d|--x-x--8-8--x-x-x-x-11-11--x-x-16-16-16-16--x-x-16-16-18-16--|
a|--x-x--8-8--x-x-x-x-11-11--x-x-16-16-16-16--x-x-16-16-18-16--|
e|--x-x--6-6--x-x-x-x-9--9---x-x-14-14-14-14--x-x-14-14-16-14--|


and now the solo!!

e--11-11p9--9--9--11-11p9--9--9--------------------------------------------|
b---------------------------------------11-11p9--9--9--11-11p9--9--9-------|
g--------------------------------------------------------------------------|
d--------------------------------------------------------------------------|
a--------------------------------------------------------------------------|
e--------------------------------------------------------------------------|

e--11-11p9--9--9--11-11p9--9--9--------------------------------------------|
b---------------------------------------11-11p9--9--9--11-11p9--9--9-------|
g--------------------------------------------------------------------------|
d--------------------------------------------------------------------------|
a--------------------------------------------------------------------------|
e--------------------------------------------------------------------------|


e--------------------------------------------------------------------------|
b-9--9--9----7--7---6-6-6---4-4-4---2-2-2-----2-2---1-1-1------1-----------|
g------------------------------------------------------------------3-3-3---|
d--------------------------------------------------------------------------|
a--------------------------------------------------------------------------|
e--------------------------------------------------------------------------|


e--------------------------------------------------------------------------|
b---2-2-2--4-4--6-6-6--7-7--9--9--9---11-11-11--14-14-14--13--9---11--11---|
g-3------------------------------------------------------------------------|
d--------------------------------------------------------------------------|
a--------------------------------------------------------------------------|
e--------------------------------------------------------------------------|


             scratching now, you need to listen to play it correct
e--------------------------------------------------------------------------|
b--------------------------------------------------------------------------|
g--------------------------------------------------------------------------|
d--------------------------------------------------------------------------|
a--------------------------------------------------------------------------|
e--------------------------------------------------------------------------|

e--------------------------------------------------------------------------|
b--------------------------------------------------------------------------|
g--------------------------------------------------------------------------|
d--------------------------------------------------------------------------|
a--------------------------------------------------------------------------|
e--------------------------------------------------------------------------|

e--------------------------------------------------------------------------|
b--------------------------------------------------------------------------|
g--------------------------------------------------------------------------|
d--------------------------------------------------------------------------|
a--------------------------------------------------------------------------|
e--------------------------------------------------------------------------|

e--------------------------------------------------------------------------|
b--------------------------------------------------------------------------|
g--------------------------------------------------------------------------|
d--------------------------------------------------------------------------|
a--------------------------------------------------------------------------|
e--------------------------------------------------------------------------|

riff five
(harmonics)

e|------------------|
b|-------------7----|
g|-------7--5----7--|
d|----7-------------|
a|--7---------------|
e|------------------|

e|------------------|
b|-------------7----|
g|-------7--5----7--|
d|----7-------------|
a|--7---------------|
e|------------------|

e|------------------|
b|-------------7----|
g|-------7--5----7--|
d|----7-------------|
a|--7---------------|
e|------------------|

e|------------------|
b|-------------7----|
g|-------7--5----7--|
d|----7-------------|
a|--7---------------|
e|------------------|

A#5           C5             F5                         G5 F5
e|-------------------------------------------------------------|
b|-------------------------------------------------------------|
g|-------------------------------------------------------------|
d|--x-x--8-8--x-x-x-x-11-11--x-x-16-16-16-16--x-x-16-16-18-16--|
a|--x-x--8-8--x-x-x-x-11-11--x-x-16-16-16-16--x-x-16-16-18-16--|
e|--x-x--6-6--x-x-x-x-9--9---x-x-14-14-14-14--x-x-14-14-16-14--|

A#5           C5             F5                         G5 F5
e|-------------------------------------------------------------|
b|-------------------------------------------------------------|
g|-------------------------------------------------------------|
d|--x-x--8-8--x-x-x-x-11-11--x-x-16-16-16-16--x-x-16-16-18-16--|
a|--x-x--8-8--x-x-x-x-11-11--x-x-16-16-16-16--x-x-16-16-18-16--|
e|--x-x--6-6--x-x-x-x-9--9---x-x-14-14-14-14--x-x-14-14-16-14--|

A#5           C5             F5                         G5 F5
e|-------------------------------------------------------------|
b|-------------------------------------------------------------|
g|-------------------------------------------------------------|
d|--x-x--8-8--x-x-x-x-11-11--x-x-16-16-16-16--x-x-16-16-18-16--|
a|--x-x--8-8--x-x-x-x-11-11--x-x-16-16-16-16--x-x-16-16-18-16--|
e|--x-x--6-6--x-x-x-x-9--9---x-x-14-14-14-14--x-x-14-14-16-14--|

A#5           C5             F5                         G5 F5
e|-------------------------------------------------------------|
b|-------------------------------------------------------------|
g|-------------------------------------------------------------|
d|--x-x--8-8--x-x-x-x-11-11--x-x-16-16-16-16--x-x-16-16-18-16--|
a|--x-x--8-8--x-x-x-x-11-11--x-x-16-16-16-16--x-x-16-16-18-16--|
e|--x-x--6-6--x-x-x-x-9--9---x-x-14-14-14-14--x-x-14-14-16-14--|


A#5           C5             F5                         G5 F5
e|-------------------------------------------------------------|
b|-------------------------------------------------------------|
g|-------------------------------------------------------------|
d|--x-x--8-8--x-x-x-x-11-11--x-x-16-16-16-16--x-x-16-16-18-16--|
a|--x-x--8-8--x-x-x-x-11-11--x-x-16-16-16-16--x-x-16-16-18-16--|
e|--x-x--6-6--x-x-x-x-9--9---x-x-14-14-14-14--x-x-14-14-16-14--|

A#5           C5             F5                         G5 F5
e|-------------------------------------------------------------|
b|-------------------------------------------------------------|
g|-------------------------------------------------------------|
d|--x-x--8-8--x-x-x-x-11-11--x-x-16-16-16-16--x-x-16-16-18-16--|
a|--x-x--8-8--x-x-x-x-11-11--x-x-16-16-16-16--x-x-16-16-18-16--|
e|--x-x--6-6--x-x-x-x-9--9---x-x-14-14-14-14--x-x-14-14-16-14--|

A#5           C5             F5                         G5 F5
e|-------------------------------------------------------------|
b|-------------------------------------------------------------|
g|-------------------------------------------------------------|
d|--x-x--8-8--x-x-x-x-11-11--x-x-16-16-16-16--x-x-16-16-18-16--|
a|--x-x--8-8--x-x-x-x-11-11--x-x-16-16-16-16--x-x-16-16-18-16--|
e|--x-x--6-6--x-x-x-x-9--9---x-x-14-14-14-14--x-x-14-14-16-14--|

A#5           C5             F5                         G5 F5
e|-------------------------------------------------------------|
b|-------------------------------------------------------------|
g|-------------------------------------------------------------|
d|--x-x--8-8--x-x-x-x-11-11--x-x-16-16-16-16--x-x-16-16-18-16--|
a|--x-x--8-8--x-x-x-x-11-11--x-x-16-16-16-16--x-x-16-16-18-16--|
e|--x-x--6-6--x-x-x-x-9--9---x-x-14-14-14-14--x-x-14-14-16-14--|

A#5           C5             F5                         G5 F5
e|-------------------------------------------------------------|
b|-------------------------------------------------------------|
g|-------------------------------------------------------------|
d|--x-x--8-8--x-x-x-x-11-11--x-x-16-16-16-16--x-x-16-16-18-16--|
a|--x-x--8-8--x-x-x-x-11-11--x-x-16-16-16-16--x-x-16-16-18-16--|
e|--x-x--6-6--x-x-x-x-9--9---x-x-14-14-14-14--x-x-14-14-16-14--|

A#5           C5             F5                         G5 F5
e|-------------------------------------------------------------|
b|-------------------------------------------------------------|
g|-------------------------------------------------------------|
d|--x-x--8-8--x-x-x-x-11-11--x-x-16-16-16-16--x-x-16-16-18-16--|
a|--x-x--8-8--x-x-x-x-11-11--x-x-16-16-16-16--x-x-16-16-18-16--|
e|--x-x--6-6--x-x-x-x-9--9---x-x-14-14-14-14--x-x-14-14-16-14--|

e|----------|
b|----------|
g|----------|
d|--x-x--8--|
a|--x-x--8--|
e|--x-x--6--|

so, this was my version of bloody sunday, have fun with it;)
comments
We did not receive enough feedback on this tab! Please rate:
print report bad tab
1 2 3 4 5
2 comments total.
0 reply
Barkeeper wrote on December 8 2007, 08:36 am

Yes this is kinda what to play if you can't be bothered to tune down, but still play along. For all other tabs you have
tune down a half step, which makes the song much easier to play, especially riff one.

0 reply
camloveshockey wrote on October 19 2008, 03:20 pm

yes, this tab is a little harder, but their both extremely easy this one should be 5 stars its the best.

I want to post or [tab]
guest
You may want to rate the tab now too:
select rating
Please do not post tabs as comments. Select "correction" instead!