Oops, an error
Loading. Please wait.

The Fly Tab

by U2
ver1
ver1

Solo

Whole song

Interactive

More versions @911Tabs.com
25,207 views 51 this week
1 commentread comment
1 2 3 4 5
worth learning
x 5
Autoscroll
+/-
esc
set tempo
stop
WARNING: You are trying to view
                                    content from Ultimate-Guitar.com
                                    in an unauthorized application,
                                    which is prohibited.

                                    Please use an official Ultimate
                                    Guitar Tabs application for iPhone,
                                    iPad or Android to access legitimate
                                    chords, guitar, bass, and drum tabs
                                    from Ultimate-Guitar.com database.

                                    Type "ultimate guitar tabs" in Apple
                                    App Store's or Android Market's
                                    search to find the application.
The fly by U2
Tabbed by Quynh Lam

Play fast               |   Play 4 times              |
------------------------|-----------------------------|
------------------------|-----------------------------|
------------------------|-----------------------------|
---5--------------------|-----------------------------|
-7---7--5----7---7---7--|--7\-0-7-7--0-7--0-7-7--5----|
-----------0---0---0----|---------------------------0-|

RIFF 1
Play 8 times
-----------------------|
-----------------------|
-----------------------|
-----------------------|
---7-7---7----7--7--5--|
-0-----0----0----------|

Verse

--------------------|-----------------------|
--12/14\12---12--12-|-----------------------|  
--12/14\12---12--12-|-----------------------|
--12/14\12---12--12-|-----------------------|
--------------------|---7-7---7----7--7--5--|
--------------------|-0-----0----0----------|

Chorus
[Gospel voice]
C#m      E                 A                 [Lower voice]
Love.......we shine like a burning star      A man will beg a man will 
                       C#m      E   A        on the sheer face of love
We're falling from the sky....... tonight    like a fly on the wall. 
                                             It's no secret at all.

------------------------|
--12-x-x--x-x-x--12\9---|
--12-x-x--x-x-x--12\9---|
--12-x-x--x-x-x--12\9---|
------------------------|
------------------------|

---------------------------|
---------------------------|<<<Play thoughout verse 2
--12\-----------------12\--|
--12\-----------------12\--|
--10\--7-7---7---7----10\--|
-----0-----0---0-----------|

Chorus
[Gospel voice]
C#m      E                 A                 [Lower voice]
Love.......we shine like a burning star      A man will beg a man will 
                       C#m      E   A        on the sheer face of love
We're falling from the sky....... tonight    like a fly on the wall. 
                                             It's no secret at all.


--------------------------|            -----------------------|  
--------12----------12----|            -----------------------|
--------12----------12----|<<<<play x2 -------/11--11--11-----|<<play x4
--2-2/--12----2-2/--12----|            -------/11--11--11-----|
--2-2/--10\---2-2/--10\---|            -------/11--11--11-----|
--0-0/--------0-0/--------|            -0--0------------------| 

The solo played on the 2nd string B string
                                                    
-20--19--15--5/20--20--19--15--12--5/20--20--19--15--17--20--15-15-15-15-

-14h15--14--12h14--12--10h12--10--9h10--9--7h9--7--5h7--5--7/10--9--7--5--5/10-

-9--7--9--9--/14--14--14--14--12--14--12--12--10--10--12--14--12--12--10--10

-9h10--9--7h9--7--5h7--5--7--9--7--5--7--9--7--5--7--5--7--9--7--9--10--10--12-

-12--14--14--16--16--17--17--17--17


Chorus
[Gospel voice]
C#m      E                 A                 [Lower voice]
Love.......we shine like a burning star      A man will beg a man will 
                       C#m      E   A        on the sheer face of love
We're falling from the sky....... tonight    like a fly on the wall. 
                                             It's no secret at all.

outro

Played on 6th (high e) string
-15-15-15-17-0-17-15-15-15-17-0-17-15-15-15-17-17-15-15-15-17-0-17-15-15-15-17-

e 0-17--15-15-15-17-17-16-14-16----------------------
B --------------------------------10--10--8--10--8--5
comments
print report bad tab
1 comment total.
0 reply
Edge_rules wrote on January 4 2003, 12:00 am

sorry the solo got cut off here it is
Played 5 string B
20-19-15/17-17-5/20-20-19-15-12-5/20-

20-20-19-15-17-20-15-15-15-15-14h15-14-

12h14-12-10h12-10-9h10-9-7h9-7-5h7-5-7-

10-9-7-5-5-10-9-7-9-9-9/14-14-14-12-14-

12-12-10h12-10-9h10-9-7h9-7-5h7-5-9-7-

5-7-9-7-5-7-9-5-7-5-7-9-10-12-12-14-16-

16-17-17

I want to post or [tab]
guest
You may want to rate the tab now too:
select rating
Please do not post tabs as comments. Select "correction" instead!