Oops, an error
Loading. Please wait.

The Joshua Tree Tab

by U2
41,531 views 42 this week
no commentswrite comment
1 2 3 4 5
excellent!
x 6
add to favorites launch autoscroll
font size
0
reset
Autoscroll
+/-
esc
set tempo
stop
WARNING: You are trying to view
                                    content from Ultimate-Guitar.com
                                    in an unauthorized application,
                                    which is prohibited.

                                    Please use an official Ultimate
                                    Guitar Tabs application for iPhone,
                                    iPad or Android to access legitimate
                                    chords, guitar, bass, and drum tabs
                                    from Ultimate-Guitar.com database.

                                    Type "ultimate guitar tabs" in Apple
                                    App Store's or Android Market's
                                    search to find the application.
hey josh here!!!! here is the incredibly amazing joshua tree album in tabs enjoy!
(and remember to rate highly coz i'm only 11!!) :)

Where the streets have no Name

Note: the main technic for this song is to play the chords in the highr way posible,
the stings with palm-mute and to change the chords for time to time as the voice change.

Pre-drums-intro (ELECRIC PIANO)
e-12-----------12----12----------|
B------7------------------7------|
G----------7-------------------7-|
D--------------------------------|
A--------------------------------|
E--------------------------------|

Guitar intro
e-10--------------------10-----|
B-----10-------------10---(10)-| (play a lot of times until you here the guitar
G---------11h12-11-12----------|  playing some king of chords)
D------------------------------|
A------------------------------|
E------------------------------|

e-10-10----10-10----10-10-10-|
B-10-10----10-10----10-10-10-| (play until the verse starts)
G-12-12p11-11-11h12-12-12-12-|
D-12-12----12-12----12-12-12-|
A----------------------------|
E----------------------------|

Verse 1 & Verse 2
I wanna run, I want to hide, I wanna tear down the walls that hold me
I wanna feel, sunlight on my face, See that dust cloud disappear without a
e-------10-(x-x-x-x--x-x-x-x-x-x-x-x-x-x-x-x-x-x-x-x-x-x-x-x-x-x-x-x)-|
B-------10-(x-x-x-x--x-x-x-x-x-x-x-x-x-x-x-x-x-x-x-x-x-x-x-x-x-x-x-x)-|
G-------11-(x-x-x-x--x-x-x-x-x-x-x-x-x-x-x-x-x-x-x-x-x-x-x-x-x-x-x-x)-|
D-------12-(x-x-x-x--x-x-x-x-x-x-x-x-x-x-x-x-x-x-x-x-x-x-x-x-x-x-x-x)-|
A----------(x-x-x-x--x-x-x-x-x-x-x-x-x-x-x-x-x-x-x-x-x-x-x-x-x-x-x-x)-|
E----------(x-x-x-x--x-x-x-x-x-x-x-x-x-x-x-x-x-x-x-x-x-x-x-x-x-x-x-x)-|

  Incide, I wanna reach...out and touch the.......flame
  Trace,  I wanna take.-..shelter from the poison rain
e-10---(x-x-x-x--x-x-x-x-)-10-(x-x-x-x-x-x-x-x-x)-9--|
B-8----(x-x-x-x--x-x-x-x-)-12-(x-x-x-x-x-x-x-x-x)-10-|
G-7----(x-x-x-x--x-x-x-x-)-11-(x-x-x-x-x-x-x-x-x)-9--|
D-7----(x-x-x-x--x-x-x-x-)-9--(x-x-x-x-x-x-x-x-x)-7--|
A------(x-x-x-x--x-x-x-x-)-x--(x-x-x-x-x-x-x-x-x)----|
E------(x-x-x-x--x-x-x-x-)-x--(x-x-x-x-x-x-x-x-x)----|

     Where the streets have no name. Ha, ha all right.
     Where the streets have no name, ho
e-(x-x-x-x-x)--12-12-12-12-12-12-12.....................-|
B-(x-x-x-x-x)--15-15-15-15-15-15-15.....................-|
G-(x-x-x-x-x)--14-14-14-14-14-14-14.keep on playing this-|
D-(x-x-x-x-x)--12-12-12-12-12-12-12.....................-|
A-(x-x-x-x-x)--------------------------------------------|
E-(x-x-x-x-x)--------------------------------------------|

Chorus

  Where the streets have no  name
E-10-10-10-10-10-10-10-10-10-10-10---10-10-|
B-10-10-10-10-10-10-10-10-10-10-10---10-10-|  x2
D-11-11-11-11-11-11-11-11-11-11-12---11-9--|
G-11-11-11-11-11-11-11-11-11-11------------|
A-x----------------------------------------|
E-x----------------------------------------|

  We're still building then  burning down love, burning down love
e-10-10-10-10-10-10-10-10-10-10-8----7----7-----10-8----7----7---|
B-10-10-10-10-10-10-10-10-10-8--8----8----8-----8--8----8----8---|
G-11-11-11-11-11-11-11-11-11-7--7----7----7-----7--7----7----7---|
D-12-12-12-12-12-12-12-12-12-------------------------------------|
A----------------------------------------------------------------|
E----------------------------------------------------------------|

  And when I  go there, I go there with  you, It's all I can
e-7-7-7-7-7-7-12-12-12-12-12-12-12-12-12-9--9--9--9--9--9--9--|
B-8-8-8-8-8-8-10-10-10-10-10-10-10-10-10-10-10-10-10-10-10-10-|
G-7-7-7-7-7-7-11-11-11-11-11-11-11-11-11-9--9--9--9--9--9--9--|
D-------------------------------------------------------------|
A-------------------------------------------------------------|
E-------------------------------------------------------------|

  do
e-10-10---10----10-----play these last tow until-|
B-10-10---10----10-----the verse 3 starts--------|
G-11-11—--11h12-12p11----------------------------|
D-12-12------------------------------------------|
A------------------------------------------------|
E------------------------------------------------|

Verse 3: this verse is play with the same patrono f the firt two but insted of playing
chords you have to pick notes and then play the palm-mute, if you preffer only play the palm-mute

The city's a flood, and our ... to rust, We're ... by the wind, trampled in
e----------------10-(x-x-x-x-x-x-x-x-x-x-x-x-x-x-x-x-x-x-x-x-x-x-x-x-x-x-x-x)-|
B---------------10--(x-x-x-x-x-x-x-x-x-x-x-x-x-x-x-x-x-x-x-x-x-x-x-x-x-x-x-x)-|
G------------11-----(x-x-x-x-x-x-x-x-x-x-x-x-x-x-x-x-x-x-x-x-x-x-x-x-x-x-x-x)-|
D------------12-----(x-x-x-x-x-x-x-x-x-x-x-x-x-x-x-x-x-x-x-x-x-x-x-x-x-x-x-x)-|
A-------------------(x-x-x-x-x-x-x-x-x-x-x-x-x-x-x-x-x-x-x-x-x-x-x-x-x-x-x-x)-|
E-------------------(x-x-x-x-x-x-x-x-x-x-x-x-x-x-x-x-x-x-x-x-x-x-x-x-x-x-x-x)-|

  Dust, I'll show you a ....place high on a...........desert plain
e-----10(x-x-x-x--x-x-x-x-)-----10-(x-x-x-x-x-x-x-x-x)----9--|
B---8---(x-x-x-x--x-x-x-x-)---12---(x-x-x-x-x-x-x-x-x)--10---|
G-7-----(x-x-x-x--x-x-x-x-)-11-----(x-x-x-x-x-x-x-x-x)9------|
D-7-----(x-x-x-x--x-x-x-x-)-9------(x-x--x-x-x-x-x-x)-7------|
A-------(x-x-x-x--x-x-x-x-)--------(x-x-x-x-x-x-x-x-x)-------|
E-------(x-x-x-x--x-x-x-x-)--------(x-x-x-x-x-x-x-x-x)-------|

e-(x-x-x-x-x)--12-12-12-12-12-12-12.....................-|
B-(x-x-x-x-x)--15-15-15-15-15-15-15.....................-|
G-(x-x-x-x-x)--14-14-14-14-14-14-14.keep on playing this-|
D-(x-x-x-x-x)--12-12-12-12-12-12-12.....................-|
A-(x-x-x-x-x)--------------------------------------------|
E-(x-x-x-x-x)--------------------------------------------|

Chorus (repeat as the one above)


Bridge

  Our love turns to rust, We're beaten and
e------10-10-10-10-10-10-10-10-10-10-10-10-|
B------10-10-10-10-10-10-10-10-10-10-10-10-|
G------11-11-11-11-11-11-11-11-11-11-11-11-|
D------12-12-12-12-12-12-12-12-12-12-12-12-|
A------------------------------------------|
E------------------------------------------|

  blown by the wind, Blown by the wind. Oh and I
e-10----10-8---7-----10----10-8---7----7-7-7-7-7-|
B-8-----8--8---8-----8-----8--8---8----8-8-8-8-8-|
G-7-----7--7---7-----7-----7--7---7----7-7-7-7-7-|
D-7-----7--7---7-----7-----7--7---7----7-7-7-7-7-|
A------------------------------------------------|
E------------------------------------------------|

  see love, see our love turn to rust, And we're beaten and
e-10-10-10-10-10-10-10-10-10-10-10-10-10-10-10-10-10-10-10---|
B-10-10-10-10-10-10-10-10-10-10-10-10-10-10-10-10-10-10-10---|
G-11-11-11-11-11-11-11-11-11-11-11-11-11-11-11-11-11-11-11---|
D-12-12-12-12-12-12-12-12-12-12-12-12-12-12-12-12-12-12-12---|
A------------------------------------------------------------|
E------------------------------------------------------------|


  blown by the wind, blown by the wind, Oh when I
e-10----10-8---7-----10----10-8---7----7-7-7-7-7-|
B-8-----8--8---8-----8-----8--8---8----8-8-8-8-8-|
G-7-----7--7---7-----7-----7--7---7----7-7-7-7-7-|
D-7-----7--7---7-----7-----7--7---7----7-7-7-7-7-|
A------------------------------------------------|
E------------------------------------------------|

  go there, I go there with you, it's all I can do
e-10-10-10-10-10-10-10-9--9--9--9--9--9--9--9---10-10-10-10-10-----|
B-12-12-12-12-12-12-12-10-10-10-10-10-10-10-10--10-10-10-10-10...--|
G-11-11-11-11-11-11-11-9--9--9--9--9--9--9--9---11-11-12-11-12-----|
D------------------------------------------------------------------|
A------------------------------------------------------------------|
E------------------------------------------------------------------|

Outro

e-10--------------------10-----------------------------------|
B-----10-------------10---(10--------------------------------|
G---------11h12-11-12----------------------------------------|
D------------------------------------------------------------|
A------------------------------------------------------------|
E------------------------------------------------------------|
(play a lot of times until the song ends)
But the las few times it's play like this

e--10-------------10---------------------10----------------|
B-------10--------------10-----------------------10--------|
G-------------12----------------12----------------------12-|
D----------------------------------------------------------|
A----------------------------------------------------------|
E----------------------------------------------------------|

e--10-------------10---------------------10----------------|
B-------10--------------10-----------------------10--------|
G-------------11----------------11----------------------11-|
D----------------------------------------------------------|
A----------------------------------------------------------|
E----------------------------------------------------------|

I STILL HAVEN'T FOUND WHAT I'M LOOKING FOR

Music by U2 - Lyrics by Bono & The Edge

(LIVE VERSION FROM POPMART TOUR - 1997)

[Note: Tune down your guitar 1/2 step - Capo I]

1----------------4-----------------|
2----5--5------5---5---------------|
3--2--2--2---2-------2-------------|
4----------------------------------| x2
5----------------------------------|
6----------------------------------|

I have climbed the highest mountains
I have run through the fields

1--------------------4-----------------------------------4-----|
2-------5--5-------5---5---------------------5--5------5---5---|
3-----2--2--2----2------2------------------2--2--2---2-------2-|
4---0----------0-----------------------------------------------|
5----------------------------------------0----------0----------|
6--------------------------------------------------------------|

Only to be with you                      Only to be with you

1----------------4-----------------|
2----5--5------5---5---------------|
3--2--2--2---2-------2-------------|
4----------------------------------| x2
5----------------------------------|
6----------------------------------|

I have run I have crawled
I have scaled these city walls

1--------------------4-----------------------------------4-----|
2-------5--5-------5---5---------------------5--5------5---5---|
3-----2--2--2----2------2------------------2--2--2---2-------2-|
4---0----------0-----------------------------------------------|
5----------------------------------------0----------0----------|
6--------------------------------------------------------------|

these city walls                  Only to be with you

1-----------------------------------------------|
2-------5--5-------5--5-------5--5------5--5----|
3-----2--2--2----2--5--2----2--2--2---2--2--2---|
4--------------0--------------------------------| x2
5-------------------------0----------0----------|
6---0-------------------------------------------|

But I still haven't found
What I'm looking for
But I still haven't found
What I'm looking for

1----------------4-----------------|
2----5--5------5---5---------------|
3--2--2--2---2-------2-------------|
4----------------------------------| x2
5----------------------------------|
6----------------------------------|

I have kissed honey lips
Felt the healing in her fingertips

1--------------------4-----------------------------------4-----|
2-------5--5-------5---5---------------------5--5------5---5---|
3-----2--2--2----2------2------------------2--2--2---2-------2-|
4---0----------0-----------------------------------------------|
5----------------------------------------0----------0----------|
6--------------------------------------------------------------|

It burned like fire                 This burning desire

1----------------4-----------------|
2----5--5------5---5---------------|
3--2--2--2---2-------2-------------|
4----------------------------------| x2
5----------------------------------|
6----------------------------------|

I have spoken with the tongue of angels
I have held the hand of a devil

1--------------------4-----------------------------------4-----|
2-------5--5-------5---5---------------------5--5------5---5---|
3-----2--2--2----2------2------------------2--2--2---2-------2-|
4---0----------0-----------------------------------------------|
5----------------------------------------0----------0----------|
6--------------------------------------------------------------|

It was warm in the night         I was cold as a stone

1-----------------------------------------------|
2-------5--5-------5--5-------5--5------5--5----|
3-----2--2--2----2--5--2----2--2--2---2--2--2---|
4--------------0--------------------------------| x2
5-------------------------0----------0----------|
6---0-------------------------------------------|

But I still haven't found
What I'm looking for
But I still haven't found
What I'm looking for

1-------------------------------------------|
2-----------3--3--2----2--2--3------3--3--2-|
3-----------2--2--2----2--2--2------2--2--2-|
4-----------2--2--2----2--2--2------2--2--2-|
5-0-0-0-0-0---------------------------------|
6-------------------------------------------|

1----------------4-----------------|
2----5--5------5---5---------------|
3--2--2--2---2-------2-------------|
4----------------------------------| x2
5----------------------------------|
6----------------------------------|

I believe in the Kingdom come
Then all the colours will bleed into one

1--------------------4-----------------------------------4-----|
2-------5--5-------5---5---------------------5--5------5---5---|
3-----2--2--2----2------2------------------2--2--2---2-------2-|
4---0----------0-----------------------------------------------|
5----------------------------------------0----------0----------|
6--------------------------------------------------------------|

bleed into one                   But yes I'm still running

1----------------4-----------------|
2----5--5------5---5---------------|
3--2--2--2---2-------2-------------|
4----------------------------------| x2
5----------------------------------|
6----------------------------------|

You broke the bonds
You loosed the chains
You carried the cross
And my shame

1--------------------4-----------------------------------4-----|
2-------5--5-------5---5---------------------5--5------5---5---|
3-----2--2--2----2------2------------------2--2--2---2-------2-|
4---0----------0-----------------------------------------------|
5----------------------------------------0----------0----------|
6--------------------------------------------------------------|

And my shame                    You know I believe it

1-----------------------------------------------|
2-------5--5-------5--5-------5--5------5--5----|
3-----2--2--2----2--5--2----2--2--2---2--2--2---|
4--------------0--------------------------------| x2
5-------------------------0----------0----------|
6---0-------------------------------------------|


But I still haven't found
What I'm looking for
But I still haven't found
What I'm looking for

[PALM MUTE]

1-----------------------------------------------|
2-----------------------------------------------|
3-----------------------------------------------|
4-----------0-0-0-0-----------------------------| x2
5--------------------0-0-0-0-0----0-0-0-0-0-----|
6---0-0-0-0-------------------------------------|

U2   "With or Without You"

Same four chords repeat throughout song:

 D D/A Bm7 G/D

 D     x x 0 2 3 2
 D/A   x x 4 2 3 0
 Bm7   x x 0 4 3 2
 G/D   x x 0 0 3 3

 TAB (Guitar parts during chorus):
|---10---10-10---10--------------------|
|-8----8-------8----7------------------|
|---------------------------0-0-0------|
|---------------------0-0-0------------|
|--------------------------------------|
|--------------------------------------|

Solos at end are formation of D chords:
  -2-0-0-2-3----------------|
  -3-3-3-3-3----------------|
  -2-2-0-2-2----------------|
  --------------------------|
  --------------------------|
  --------------------------|
  note that for each chord formation above, each repeats several times, and
  the entire chord sequence of the 5 chord formation above repeats also.

Date: Fri, 10 Jan 1997 17:27:53 -0500 (EST)
From: jp3219@cnsvax.albany.edu
Subject: With or Without You - U2


-With Or Without You
			-U2 From the Album The Joshua Tree

I like to use the following picking pattern when playing this classic.
Play along with the record to get the simple 4-4 rhythm down.

    D		    Dadd9/A 	    D/B             D/G
------------2---------------0---------------2---------------3------------------|
--------3-------3-------3-------3-------3-------3-------3-------3--------------|
------2---2---2---2---2---2---2---2---2---2---2---2---2---2---2---2------------|
----0--------------------------------------------------------------------------|
--------------------0---------------2------------------------------------------|
----------------------------------------------------3--------------------------|
Repeat the above pattern through the entire song.  Towards the end you
can strum the following chords.

D   Dadd9    D    Dsus4

Chord Formations
D       xx0232
Dadd9/A x00230
D/B     x20232
D/G     3x0233
Dadd9   xx0230
Dsus4   xx0233

See the stone set in your eyes
See the thorn twist in your side
I'll Wait for You
Sleight of hand and twist of fate
On a bed of nails she makes me wait
And I wait without you
With or Without you 2x
Through the storm we reach the shore
You give it all but I want more
And I'm waiting for you
With or Without you 2x
I can't live
With or Without you
And you give yourself away 2x
And you give 2x
And you give yourself away
My hands are tied
My body bruised she got me with
Nothing to win and
Nothing left to lose
And you give yourself away 2x
And you give 2x
And you give yourself away
With or Without You 2x
I Can't Live...With or Without You
Ohhhhhhh Ohhhhhhhh
With or Without you 2x
I can't live
With or without you 2x
Hoooooooo Hooooooo

Bullet the blue sky
Tune down 1/2 step. Most of the chords use a slide,
except for the Chorus.

For the slide parts (and solo) he uses distortion
with some slap back delay and echo.

Intro (also played before solo)

----------------------------------|-------------------------------------------|
-12\0---12\0---12\0---12\0--------|-------------------------------------------|
-12\0---12\0---12\0---12\0--------|-------------------------------------------|
-12\0---12\0---12\0---12\0--------|-------------------------------------------|
----------------------------------|-------------------------------------------|
----------------------------------|-0-----------------------------------------|
 Verse                              (second verse w/feedback)

-|-----------|-----------------|-------------------------------|--------------|
-|-----------|-x--x--x--x--x---|---14v-------------------------|--------------|
-|-----------|-x--x--x--x--x---|-------------------------------|--------------|
-|-----------|-x--x--x--x--x---|-------------------------------|--------------|
-|-----------|-x--x--x--x--x---|-------------------------------|--------------|
-|-0v--------|-x--x--x--x--x---|-------------------------------|--------------|
 Chorus (repeat 6 times)(no slide)

-----------------------|---------|--------------------------------------------|
-7-7-9----------9-9----|---------|--------------------------------------------|
-7-7-9----------9-9----|---------|--------------------------------------------|
-7-7-9----------9-9----|---------|--------------------------------------------|
-----------------------|--7v-----|--------------------------------------------|
-----------------------|---------|--------------------------------------------|
 Solo

------------------------------------------------------------------------------|
-12-----12------12-----12-----12/14--12/14--14--------------------------------|
---12-----12------12-----12---12/14--12/14-----14-----------------------------|
-----12-----12------12-----12-12/14--12/14--------14--------------------------|
------------------------------------------------------------------------------|
------------------------------------------------------------------------------|


------------------------------------------------------------------------------|
-12-----12------12-----12-----12/14--14---14-----14----15---15----17\---------|
---12-----12------12-----12---12/14----14---14------14---15---15--17\---------|
-----12-----12------12-----12-12/14-----------14------------------------------|
------------------------------------------------------------------------------|
------------------------------------------------------------------------------|
 No slide here:

----14-----14-----14-----14----14-----14\-------------------------------------|
-16b----16b---16b-----16b---16b---16------------------------------------------|
------------------------------------------------------------------------------|
------------------------------------------------------------------------------|
------------------------------------------------------------------------------|
------------------------------------------------------------------------------|
   repeat 4 times                fun w/feedback            more feedback

-|-------------------------|-----------------------------|--------|-----------|
-|-----16--16/18\16/18\16--|-----------------------------|--------|-----------|
-|-----16--16/18\16/18\16--|-----------------------------|---14v--|-----------|
-|-----16--16/18\16/18\16--|-----------------------------|--------|-----------|
-|-------------------------|-----------------------------|--------|-----------|
-|-0-0---------------------|-0\/v------------------------|--------|-----------|
 "...fighter planes..."    (fade notes in and out)

------------------------|-----------------------------------------------------|
------------------------|-----------------------------------------------------|
------------------------|-----------------------------------------------------|
------------------------|-----------------------------------------------------|
-0----------------------|--0--------------------------------------------------|
------------------------|-----------------------------------------------------|
 somewhere in the song he does this as a fill


------------------------------------------------------------------------------|
------------------------------------------------------------------------------|
-19\--------------------------------------------------------------------------|
------------------------------------------------------------------------------|
------------------------------------------------------------------------------|
------------------------------------------------------------------------------|

U2 - Running To Stand Still

Chords: D G A A? G
Intro: / = slides, and ~ = fast strumming (listen to the song)

Guitar 1:
E--------|-------------------|------------------|----------------------|
B--------|-------------------|------------------|----------------------|
G--------|-----------0-------|------------------|----------------------|
D-0------|---------0--------0|------------12---0|---------------0-----0|
A-------5|-5/8/9-/-10--------|-10/11/12---------|-9/10/12\10-\9--\8----|
E--------|-------------------|------------------|----------------------|
Guitar 2:
E---7~7--|---------------7~7/|----------14------|---3~3-----------3~3\-|
B---7~7--|---------------7~7/|------------15----|---3~3-----------3~3\-|
G--------|-------------------|------------------|----------------------|
D--------|-------------------|---------------0--|----------------------|
A--------|-------------------|------------------|----------------------|
E--------|-------------------|------------------|----------------------|


Guitar 1:
E---------|
B---------|
G---------|
D---------|
A-8-\-7---|
E---------|
Guitar 2:
E-5-5-5-5-|
B-0-0-0-0-|
G-7-7-7-7-|      then, segue...
D-5-5-5-5-|
A---------|
E---------|

Verse 1: (Guitar)
E-5-5-5-5-5-5-5-5-|
B-7-7-7-7-7-7-7-7-|
G-7-7-7-7-7-7-7-7-|  (Repeat)
D-7-----7---------|
A-----------------|
E-----------------|

E-5-5-5-----------|
B-3-3-3-3-3---3---|
G-4-4-4-4---4-4-4-|  (Repeat)
D-5-----5-----5---|
A-----------------|
E-----------------|

E-5-5-5-5-5---5---|-5-5-5-3-3---3---|
B-5-5-5-5-5---5---|-5-5-5-3-3---3---|
G-6-6-6-6-6---6---|-5-5-5-4-4---4---|	(Repeat-slide back up)
D-7-7-7-7-7-7-7-7-|-5-5-5-5-5-5-5-5-|
A-----------------|-----------------|
E-----------------|-----------------|

Verse 2: Repeat with second guitar playing:
E------------------|
B----------*7*-----|   * = harmonic
G------------------|    over and over
D------------------|
A------------------|
E------------------|

Additional Second Guitar:
("You gotta cry without weeping..." and "Woo-ooo...")
E------------------|
B-------7---7---7--|
G---------7---7----|
D------------------|
A------------------|
E------------------|

("She walks through the streets...")
E-5-----5----------|
B------------------|
G---7-----7--------|	   (Repeat)
D------------------|
A------------------|
E------------------|

E-------5----------|-------5----------|
B-------------0----|------------------|
G---7-------7------|---7---------7p0--|
D-5----------------|-5----------------|
A------------------|------------------|
E------------------|------------------|


Over the harmonica, strum
E-5-5-5-5-5-5-5-5-|
B-7-7-7-7-7-7-7-7-|
G-7-7-7-7-7-7-7-7-|  (Repeat)
D-7-----7---------|
A-----------------|
E-----------------|




Red Hill Mining Town
--- ---- ------ ----
Intro:
 GUITAR
    G                              C
E-----7-----7-----7-----7------7-----0-----0-----0-----0-----0---|
B---8-----8-----8-----8------8-----1-----1-----1-----1-----1-----|
G-7-----7-----7-----7------7-----0-----0-----0-----0-----0-------|
|
| BASS
|
D-----------------------------------------------------------------|
A-----------------------------------------------------------------|
E------------------------------------------------------------83---|
 GUITAR
    G                              C
E-----7-----7-----7-----7------7-----0-----0-----0-----0-----0--|
B---8-----8-----8-----8------8-----1-----1-----1-----1-----1----|
G-7-----7-----7-----7------7-----0-----0-----0-----0-----0------|
|
| BASS
|
D----------------------------------------------------------------|
A----------------------------------------------------------------|
E------------------------------83--------------------------8/10--|
 GUITAR
    D                              A
E-----2-----2-----2-----2------2-----5-----5-----5-----5-----5--|
B---3-----3-----3-----3------3-----5-----5-----5-----5-----5----|
G-2-----2-----2-----2------2-----6-----6-----6-----6-----6------|
|
| BASS
|
D----------------------------------------------------------------|
A----------------------------------------------------------------|
E-----------------------------105---------------------------5/1--|
 GUITAR
    F                              F
E-----1-----1-----1-----1------1-----1-----1-----1-----1-----1--|
B---1-----1-----1-----1------1-----1-----1-----1-----1-----1----|
G-2-----2-----2-----2------2-----2-----2-----2-----2-----2------|
 G                C
From Father to Son the blood runs thin
 G                C
Our faces frozen (still) against the wind
 G                C
The seam is split, the coal face cracked
 G                C
The lines are long and there's no going back
 G                    C
Through hands of steel and a heart of stone
 G                C             D
Our labour day has come and gone
         A
And you leave us holding on
    F
In Red Hill Town, as the lights go down
 G              D
I'm hanging on
                           F          C
You're all that's left to hold on to
 G              D
I'm holding on
                           F          C
You're all that's left to hold on to
The glass is cut, the bottle runs dry
Our love runs cold in the caverns of the night
We're wounded by fear, injured in doubt
I can lose myself, you I can't live without
Because you keep me holding on
In Red Hill Town, as the lights go down
I'm hanging on ...
And we scorch the earth, set fire to the sky
Stoop so low to reach so hihgh
A link is lost, the chain undone
Now we wait all day for the night to come
And it comes
And it comes
Like a hunter (child)
I'm hanging on
You're all that's left to hold on to
I'm hanging on
You're all that's left to hold on to
        G     D
We see love slowly stripped away
     F          C
Our love, has seen a better day
I'm hanging on
You're all that's left to hold on to
I'm holding on
You're all that's left to hold on to
See the lights go down on Red Hill Town
See lights go down on Red Hill Town

In god's country
first bit is done with standard D Am chords
with 7th fret harmonics over it

then edge plays these two chords for D and Am:

   E  A  D  G  B  e
D= x  x  x 14 15 14
Am=x  x  x 14 13 12

but cuts out after 4 times through

then its just the bass and acoustic guitar (plus a bit of an
overlayed electric playing D (barred at the 5th) and Am (also
barred at the 5th)

on "Desert Rose..."  An electric comes in with this little riff

e--17-17-17-17-17-17-15-15-14-14-12-12-12-12-------

(timing is not exact here...play with it)
repeated once or twice and stops at the chorus

after the chorus, for the short intstrumental, play the two D
and Am chords up high (tabbed at the top) and cut out for the
verse

on "She is Liberty..." play the two high D and Am again in
place of the standard chords (until chorus)

after this chorus, play this

D D Am (riff)       A---3-2-0-----|
low E tuned down to D---------0---|

(altho you dont HAVE
to play it like that.
just dont play the
last note...)

repeat above once and immediately play this solo

e--19-19-19-19-19-17-17-19-19-15-15-14-14-14
  (play through 4 times)

and once the verse starts again, jam on one of these two things

e--10-10-10-10-10-10-10-10-10-9-10-10-10-10-10-10-14 (etc...)

or the two high D and Am chords

the last intensely high little bit is this

e==21-21-21-21-21-21-21-21-22-22-22-22-22-22-21-21-21-21-21-22-

e==22-22-22-22-22-22-22 (again, timing not exact)

and slide down to end on a standard D (sounds cool if you slide
the D up indefinitely at the end like Edge does...)

just listen to the album or rattle and hum version (the movie)
to get the timing right...the solos don't sound quite right
unless you play with a delay, but im sure you can figure
something out...




                             TRIP THROUGH YOUR WIRES
                                As recorded by U2
                      (From the 1987 Album THE JOSHUA TREE)

Words by Bono

Music by U2
Arranged by oranno@yahoo.fr
Transcribed by oranno@yahoo.fr

          G/B                  C5                 F6add9                  C
      x 2 0 0 3 3          x 3 x 0 x x          x x 3 2 3 3          x 3 x 0 5 3

          G5                  G5/E                 G5/D                 Cadd9
      3 x 0 0 3 3          x x 2 0 3 3          x x 0 0 3 3          x 3 2 0 3 3

        Bbadd9                 C6                    G                 G/BXII
      x 1 0 3 1 1          x 3 5 2 x 3          3 2 0 0 3 3        x 14 12 12 12 x

          F/A                  C/G
    x 12 10 10 10 x        x x 5 5 5 x

Gtr I (E A D G B E) - 'Untitled'
Gtr II (E A D G B E) - 'Untitled'
Gtr III (E A D G B E) - 'Untitled'

 Intro
  Q.=76
  G/B  C5     F6add9      G/B   C
 6/8
  Gtr I
                                       PM----------|
  Q.   Q.     Q.   Q  E    Q.   Q.     E E E E   E E
|-----------|-3---------|------------|---------------|
|-----------|-3-------3-|-(3)---5----|---------------|
|-0----0----|-2-------0-|-(0)---0----|---------------|
|-----------|-3---------|------------|---------------|
|-2----3----|------3----|--2----3----|-3-2-0-----0---|
|-----------|-----------|------------|-------3b5---0-|


  G5   C      F6addG5/E   G5   C      F6addG5/E
  Q.   Q.     Q.   Q.     Q.   Q.     Q.   Q.
|-3----3----|-3----3----|-3----3----|-3----3----|
|-3----5----|-3----3----|-3----5----|-3----3----|
|-0----0----|-2----0----|-0----0----|-2----0----|
|-----------|-3----2----|-----------|-3----2----|
|------3----|-----------|------3----|-----------|
|-3---------|-----------|-3---------|-----------|


  G5   G5/D     F6add9Cadd9       G5     G5/D
  Q  E E. E S   E S E S E S E S   E E. S E S S S S
|-3--3-3--3-3-|-3-3-3-3-3-3-3-3-|-3-3--3-3-3-3-3-3-|
|-3--3-3--3-3-|-3-3-3-3-3-3-3-3-|-3-3--3-3-3-3-3-3-|
|-0--0-0--0-0-|-2-0-2-0-0-0-0-0-|-0-0--0-0-0-0-0-0-|
|------0--0-0-|-3-3-3-2-2-2-2-2-|--------0-0-0-0-0-|
|-------------|-------3-3-3-3-3-|------------------|
|-3--3--------|-----------------|-3-3--3-----------|


                    Verse
  F6add9Cadd9        G5        G5/D      F6add9    Cadd9
  E S E S E S E S    E S S S S E S E S   E S S S S E. E S
|-3-3-3-3-3-3-3-3-||-3-3-3-3-3-3-3-3-3-|-3-3-3-3-3-3--3-3-|
|-3-3-3-3-3-3-3-3-||-3-3-3-3-3-3-3-3-3-|-3-3-3-3-3-3--3-3-|
|-2-0-2-0-0-0-0-0-||-0-0-0-0-0-0-0-0-0-|-2-2-2-2-2-0--0-0-|
|-3-3-3-2-2-2-2-2-||-----------0-0-0-0-|-3-3-3-3-3-2--2-2-|
|-------3-3-3-3-3-||-------------------|-----------3--3-3-|
|-----------------||-3-3-3-3-3---------|------------------|


  G5   G5/D        F6add9 Cadd9       G5        G5/D
  Q  E E S S S S   E. E S E S S S S   E S S S S E S S S S
|-3--3-3-3-3-3-3-|-3--3-3-3-3-3-3-3-|-3-3-3-3-3-3-3-3-3-3--|
|-3--3-3-3-3-3-3-|-3--3-3-3-3-3-3-3-|-3-3-3-3-3-3-3-3-3-3--|
|-0--0-0-0-0-0-0-|-2--2-2-0-0-0-0-0-|-0-0-0-0-0-0-0-0-0-0--|
|------0-0-0-0-0-|-3--3-3-2-2-2-2-2-|-----------0-0-0-0-0--|
|----------------|--------3-3-3-3-3-|----------------------|
|-3--3-----------|------------------|-3-3-3-3-3------------|


  F6add9  Cadd9     G5        G5/D      (G5)
  E S E S E S E S   E S S S S E S E S   E E E  E  E E
|-3-3-3-3-3-3-3-3-|-3-3-3-3-3-3-3-3-3-|-3------3--3-0-|
|-3-3-3-3-3-3-3-3-|-3-3-3-3-3-3-3-3-3-|-3------3--3-0-|
|-2-2-2-2-0-0-0-0-|-0-0-0-0-0-0-0-0-0-|-0-------------|
|-3-3-3-3-2-2-2-2-|-----------0-0-0-0-|---------------|
|---------3-3-3-3-|-------------------|---2-0-(0)-----|
|-----------------|-3-3-3-3-3---------|---------------|
                                        E Q   +E  E E


         (G5/D)    (F6add9)(Cadd9)   (G5)   (G5/D)
  E. S E +E  E E   +E  E E +E  E E   E. S E  E E E
|-3--3-3-(3)-3---|-----3-------3---|----3-3-10-----|
|-3--3-3-(3)---3-|-(3)---3-(3)---3-|-3--3-3----8-3-|
|----------------|-----------------|-0-------------|
|----------------|-----------------|---------------|
|----------------|-----------------|---------------|
|----------------|-----------------|---------------|


  (F6add9)(Cadd9)   (G5)    (G5/D)      (F6add9)    Cadd9
  E S E S +E  E E   +E. E S +E. S S S   S S +S  E S +E  E E
|---3---------3---|-----3-3-(3)-3-3---|-3-------3-3-(3)-3---|
|-----3-3-(3)---3-|-(3)-3-3-(3)-3-5p3-|-5p3-(3)-3-3-(3)---3-|
|-2---------------|-------------------|---------------------|
|-----------------|-------------------|---------------------|
|-----------------|-------------------|---------------------|
|-----------------|-------------------|---------------------|


  (G5)    (G5/D)        F6add9Cadd9             G5        G5/D
  +E  E E +E  S S S S   E S S S S S S S S S S   E S S S S E S S S S
|-----3-------3-3-3-3-|-3-3-3-3-3-3-3-3-3-3-3-|-3-3-3-3-3-3-3-3-3-3-|
|-(3)---3-(3)-3-3-3-3-|-3-3-3-3-3-3-3-3-3-3-3-|-3-3-3-3-3-3-3-3-3-3-|
|-------------0-0-0-0-|-2-2-2-0-0-0-0-0-0-0-0-|-----------0-0-0-0-0-|
|---------------------|-3-3-3-2-2-2-2-2-2-2-2-|-0-0-0-0-0-0-0-0-0-0-|
|---------------------|-------3-3-3-3-3-3-3-3-|---------------------|
|---------------------|-----------------------|-3-3-3-3-3-----------|


  F6add9Cadd9           G5     G5/D       F6add9   Cadd9
  E S S S S E S S S S   E. S E E. S S S   E. S S S E. S S S
|-3-3-3-3-3-3-3-3-3-3-|-3--3-3-3--3-3-3-|-3--3-3-3-3--3-3-3-|
|-3-3-3-3-3-3-3-3-3-3-|-3--3-3-3--3-3-3-|-3--3-3-3-3--3-3-3-|
|-2-2-2-0-0-0-0-0-0-0-|-0--0-0-0--0-0-0-|-2--2-2-2-0--0-0-0-|
|-3-3-3-2-2-2-2-2-2-2-|--------0--0-0-0-|-3--3-3-3-2--2-2-2-|
|-------3-3-3-3-3-3-3-|-----------------|----------3--3-3-3-|
|---------------------|-3--3-3----------|-------------------|


  G5        G5/D        F6add9Cadd9           G5     G5/D
  E S S S S E S S S S   E S S S S E S S S S   E. E S E S S S S
|-3-3-3-3-3-3-3-3-3-3-|-3-3-3-3-3-3-3-3-3-3-|-3--3-3-3-3-3-3-3-|
|-3-3-3-3-3-3-3-3-3-3-|-3-3-3-3-3-3-3-3-3-3-|-3--3-3-3-3-3-3-3-|
|-0-0-0-0-0-0-0-0-0-0-|-2-2-2-0-0-0-0-0-0-0-|--------0-0-0-0-0-|
|-----------0-0-0-0-0-|-3-3-3-2-2-2-2-2-2-2-|-0--0-0-0-0-0-0-0-|
|---------------------|-------3-3-3-3-3-3-3-|------------------|
|-3-3-3-3-3-----------|---------------------|-3--3-3-----------|


                   Chorus
                 $
  F6add9   Cadd9                                       G5
  E. S S S E. E.    E  E E +E  E E   +E  E E +E  E E   +E  E E +E  E E
|-3--3-3-3-3--3--||----3-------3---|-----3-------3---|-----3-------3---|
|-3--3-3-3-3--3--||------3-(3)---3-|-(3)---3-(3)---3-|-(3)---3-(3)---3-|
|-2--2-2-2-0--0--||----------------|-----------------|-----------------|
|-3--3-3-3-2--2--||----------------|-----------------|-----------------|
|----------3--3--||-3-------3------|--3------(3)-3---|-----------------|
|----------------||----------------|-----------------|--3-------3------|
                    Q.      Q.        Q.     +E  Q      Q.      Q.


                   Bbadd9                         C6
  +E  E E +Q.      E  E E E E E   +E  E E E E E   E  E E E E E   E E E Q.
|-----3----------|--------1-----|---------1-----|--------3-----|-3-----------|
|-(3)---3-(3)----|----1-----1---|-------1---1---|--------------|-------------|
|----------------|------3-----3-|-(3)-3-------3-|------2---2---|-2-----------|
|----------------|--------------|---------------|----5-------5-|-5-----------|
|--------------0-|-1------------|--1------------|-3------------|-3-----------|
|--3-------3-----|--------------|---------------|--------------|-------------|
   Q.      Q   E   H.              Q.     E Q     H.


To Coda
  G5        G5/D        F6add9    Cadd9
  E S S S S E S S S S   E S S S S E S S S S
|-3-3-3-3-3-3-3-3-3-3-|-3-3-3-3-3-3-3-3-3-3-|
|-3-3-3-3-3-3-3-3-3-3-|-3-3-3-3-3-3-3-3-3-3-|
|-0-0-0-0-0-0-0-0-0-0-|-2-2-2-2-2-0-0-0-0-0-|
|-----------0-0-0-0-0-|-3-3-3-3-3-2-2-2-2-2-|
|---------------------|-----------3-3-3-3-3-|
|-3-3-3-3-3-----------|---------------------|


  G5     G5/D     F6add9 Cadd9
  E. E S E. E S   E. E S E S S S S
|-3--3-3-3--3-3-|-3--3-3-3-3-3-3-3---|
|-3--3-3-3--3-3-|-3--3-3-3-3-3-3-3---|
|-0--0-0-0--0-0-|-2--2-2-0-0-0-0-0---|
|--------0--0-0-|-3--3-3-2-2-2-2-2---|
|---------------|--------3-3-3-3-3---|
|-3--3-3--------|--------------------|


    G5        G5/D        F6add9    Cadd9
    E S S S S E S S S S   E S S S S E S S S S
||--3-3-3-3-3-3-3-3-3-3-|-3-3-3-3-3-3-3-3-3-3-|
||o-3-3-3-3-3-3-3-3-3-3-|-3-3-3-3-3-3-3-3-3-3-|
||--0-0-0-0-0-0-0-0-0-0-|-2-2-2-2-2-0-0-0-0-0-|
||------------0-0-0-0-0-|-3-3-3-3-3-2-2-2-2-2-|
||o---------------------|-----------3-3-3-3-3-|
||--3-3-3-3-3-----------|---------------------|


  G5     G5/D     F6add9 Cadd9
  E. E S E. E S   E. E S E S S S S
|-3--3-3-3--3-3-|-3--3-3-3-3-3-3-3---||
|-3--3-3-3--3-3-|-3--3-3-3-3-3-3-3--o||
|-0--0-0-0--0-0-|-2--2-2-0-0-0-0-0---||
|--------0--0-0-|-3--3-3-2-2-2-2-2---||
|---------------|--------3-3-3-3-3--o||
|-3--3-3--------|--------------------||


 Guitar Solo
  G5                             G5/D
   E        S    S     S    S     E        S    S     S    S
|--3--------3----3-----3----3-----3--------3----3-----3----3----|
|--3--------3----3-----3----3-----3--------3----3-----3----3----|
|--0--------0----0-----0----0-----0--------0----0-----0----0----|
|---------------------------------0--------0----0-----0----0----|
|---------------------------------------------------------------|
|--3--------3----3-----3----3-----------------------------------|
|
| Gtr II
|  |--3--|  |---3---|  |---3---|  |--3--|  |---3---|  |---3---|
|  S  S  S  S  S    S  S  S    S  S  S  S  S  S    S  S  S    S
|-15-15-15-15-15---15-15-15---15-15-15-15-15-15---15-15-15---15-|
|-12-12-12-12-12---12-12-12---12-12-12-12-12-12---12-12-12---12-|
|--0--0--0--0--0----0--0--0----0--0--0--0--0--0----0--0--0----0-|
|---------------------------------------------------------------|
|---------------------------------------------------------------|
|---------------------------------------------------------------|


  F6add9                         Cadd9
   E        S    S     S    S     E        S    S     S    S
|--3--------3----3-----3----3-----3--------3----3-----3----3------|
|--3--------3----3-----3----3-----3--------3----3-----3----3------|
|--2--------2----2-----2----2-----0--------0----0-----0----0------|
|--3--------3----3-----3----3-----2--------2----2-----2----2------|
|---------------------------------3--------3----3-----3----3------|
|-----------------------------------------------------------------|
|
|  |--3--|  |---3---|  |---3---|  |--3--|  |---3---|  |---3---|
|  S  S  S  S  S    S  S  S    S  S  S  S  S  S    S  S  S    S
|-15-15-15-15-15---15-15-15---15-15-15-15-15-15---15-15-15---15---|
|-13-13-13-13-13---13-13-13---13-15-15-15-15-15---15-13-13---13---|
|--0--0--0--0--0----0--0--0----0--0--0--0--0--0----0--0--0----0---|
|-----------------------------------------------------------------|
|-----------------------------------------------------------------|
|-----------------------------------------------------------------|


  G5                              G5/D
   E.             E          S     E.             E          S
|--3--------------3----------3-----3--------------3----------3----|
|--3--------------3----------3-----3--------------3----------3----|
|--0--------------0----------0-----0--------------0----------0----|
|----------------------------------0--------------0----------0----|
|-----------------------------------------------------------------|
|--3--------------3----------3------------------------------------|
|
|  |--3---|  |---3---|  |---3---|  |--3---|  |---3---|  |---3---|
|  S   S  S  S  S    S  S  S    S  S   S  S  S  S    S  S  S    S
|-15--15-15-15-15---15-15-15---15-15--15-15-15-15---15-15-15---15-|
|-15--15-15-15-15---15-15-15---15-13--13-13-13-13---13-13-13---13-|
|--0---0--0--0--0----0--0--0----0--0---0--0--0--0----0--0--0----0-|
|-----------------------------------------------------------------|
|-----------------------------------------------------------------|
|-----------------------------------------------------------------|


  F6add9                          Cadd9
   E.             E          S     E        S    S     S    S
|--3--------------3----------3-----3--------3----3-----3----3------|
|--3--------------3----------3-----3--------3----3-----3----3------|
|--2--------------2----------2-----0--------0----0-----0----0------|
|--3--------------3----------3-----2--------2----2-----2----2------|
|----------------------------------3--------3----3-----3----3------|
|------------------------------------------------------------------|
|
|  |--3---|  |---3---|  |---3---|  |--3--|  |---3---|  |---3---|
|  S   S  S  S  S    S  S  S    S  S  S  S  S  S    S  S  S    S
|-15--15-15-15-15---15-15-15---15-15-15-15-15-15---15-15-15---15---|
|-12--12-12-12-12---12-12-12---12-13-13-13-12-12---12-13-13---13---|
|--0---0--0--0--0----0--0--0----0--0--0--0--0--0----0--0--0----0---|
|------------------------------------------------------------------|
|------------------------------------------------------------------|
|------------------------------------------------------------------|


  G5                             G5/D
   E        S    S     S    S     E        S     S     S    S
|--3--------3----3-----3----3-----3--------3-----3-----3----3----|
|--3--------3----3-----3----3-----3--------3-----3-----3----3----|
|--0--------0----0-----0----0-----0--------0-----0-----0----0----|
|---------------------------------0--------0-----0-----0----0----|
|----------------------------------------------------------------|
|--3--------3----3-----3----3------------------------------------|
|
|  |--3--|  |---3---|  |---3---|  |--3--|  |---3----|  |---3---|
|  S  S  S  S  S    S  S  S    S  S  S  S  S   S    S  S  S    S
|-15-15-15-15-15---15-15-15---15-15-15-15-15--15---15-15-15---15-|
|-15-15-15-15-15---15-15-15---15-15-15-15-15--15---15-15-15---15-|
|--0--0--0--0--0----0--0--0----0--0--0--0--0---0----0--0--0----0-|
|----------------------------------------------------------------|
|----------------------------------------------------------------|
|----------------------------------------------------------------|
|
| Gtr III
|  |--3--|  |---3---|  |---3---|  |--3--|
|  S  S  S  S  S    S  S  S    S  S  S  S  E           E
|----------------------------------------------------------------|
|-12-12-12-12-12---12-12-12---12-15-15-15-15\---------10---------|
|----------------------------------------------------------------|
|----------------------------------------------------------------|
|----------------------------------------------------------------|
|----------------------------------------------------------------|


  F6add9                         Cadd9
   E        S    S     S    S     E        S    S      S    S
|--3--------3----3-----3----3-----3--------3----3------3----3------|
|--3--------3----3-----3----3-----3--------3----3------3----3------|
|--2--------2----2-----2----2-----0--------0----0------0----0------|
|--3--------3----3-----3----3-----2--------2----2------2----2------|
|---------------------------------3--------3----3------3----3------|
|------------------------------------------------------------------|
|
|  |--3--|  |---3---|  |---3---|  |--3--|  |---3---|   |---3---|
|  S  S  S  S  S    S  S  S    S  S  S  S  S  S    S   S  S    S
|-15-15-15-15-15---15-15-15---15-15-15-15-15-15---15--15-15---15---|
|-15-15-15-15-15---15-15-15---15-15-15-15-15-15---15--15-15---15---|
|--0--0--0--0--0----0--0--0----0--0--0--0--0--0----0---0--0----0---|
|------------------------------------------------------------------|
|------------------------------------------------------------------|
|------------------------------------------------------------------|
|
|  |--3--|  |---3---|  |---3---|  |--3--|  |---3---|
|  S  S  S  S  S    S  S  S    S  S  S  S  S  S    S   E
|------------------------------------------------------------------|
|-10-10-10-10-10---10-10-10---10-10-10-10-10-10---10\--8-----------|
|------------------------------------------------------------------|
|------------------------------------------------------------------|
|------------------------------------------------------------------|
|------------------------------------------------------------------|


  G5                              G5/D
   E.             E          S     E.             E          S
|--3--------------3----------3-----3--------------3----------3----|
|--3--------------3----------3-----3--------------3----------3----|
|--0--------------0----------0-----0--------------0----------0----|
|----------------------------------0--------------0----------0----|
|-----------------------------------------------------------------|
|--3--------------3----------3------------------------------------|
|
|  |--3---|  |---3---|  |---3---|  |--3---|  |---3---|  |---3---|
|  S   S  S  S  S    S  S  S    S  S   S  S  S  S    S  S  S    S
|-15--15-15-15-15---15-15-15---15-15--15-15-15-15---15-15-15---15-|
|-15--15-15-15-15---15-15-15---15-15--15-15-15-15---15-15-15---15-|
|--0---0--0--0--0----0--0--0----0--0---0--0--0--0----0--0--0----0-|
|-----------------------------------------------------------------|
|-----------------------------------------------------------------|
|-----------------------------------------------------------------|
|
|  |--3---|  |---3---|  |---3---|  |--3---|  |---3---|  |---3---|
|  S   S  S  S  S    S  S  S    S  S   S  S  S  S    S  S  S    S
|----------------------------------8---8--8--7--7----7--7--7----7-|
|--8---8--8--8--8----8--8--8----8--8---8--8--8--8----8--8--8----8-|
|-----------------------------------------------------------------|
|-----------------------------------------------------------------|
|-----------------------------------------------------------------|
|-----------------------------------------------------------------|


  F6add9                          Cadd9
   E.             E          S     E         S    S     S    S
|--3--------------3----------3-----3---------3----3-----3----3------|
|--3--------------3----------3-----3---------3----3-----3----3------|
|--2--------------2----------2-----0---------0----0-----0----0------|
|--3--------------3----------3-----2---------2----2-----2----2------|
|----------------------------------3---------3----3-----3----3------|
|-------------------------------------------------------------------|
|
|  |--3---|  |---3---|  |---3---|
|  S   S  S  S  S    S  S  S    S  Q.
|-13--13-13-13-13---13-13-13---13-12--------------------------------|
|-13--13-13-13-13---13-13-13---13-13--------------------------------|
|--0---0--0--0--0----0--0--0----0--0--------------------------------|
|-------------------------------------------------------------------|
|-------------------------------------------------------------------|
|-------------------------------------------------------------------|
|
|  |--3---|  |---3---|  |---3---|  |--3---|  |---3---|  |---3---|
|  S   S  S  S  S    S  S  S    S  S   S  S  S  S    S  S  S    S
|-10--10-10-10-10---10-10-10---10-10--10-10-10-10---10-10-10---10---|
|--8---8--8--8--8----8--8--8----8--8---8--8--8--8----8--8--8----8---|
|-------------------------------------------------------------------|
|-------------------------------------------------------------------|
|-------------------------------------------------------------------|
|-------------------------------------------------------------------|


  G          G/BXIF/A    C/G      G         G/BXIF/A
   H.              +Q.   E  E E   H.
|-15------------|-(15)---0------|-3------------|
|-12------------|-(12)------3-3-|-0------------|
|--0------------|--(0)------0-0-|-0------------|
|---------------|-----------0-0-|-0------------|
|---------------|---------------|--------------|
|---------------|---------------|--------------|
|
|  Q.   +Q    E     Q.   Q.       Q.   +Q    E
|--3----(3)-----|---------------|-3----(3)-----|
|--3----(3)--12-|--10----5------|-3----(3)--12-|
|--0----(0)--12-|--10----5------|-0----(0)--12-|
|--0----(0)--12-|--10----5------|-0----(0)--12-|
|--2----(2)--14-|--12-----------|-2----(2)--14-|
|--3----(3)-----|---------------|-3----(3)-----|


                       Verse
        C/G             G           G/BXII
  +Q.   E    E    E       H.
|-(3)---3------------||-----------------|
|-(0)---0------------||-----------------|
|-(0)---0--<12>-<12>-||-<12>------------|
|-(0)---0--<12>-<12>-||-<12>------------|
|--------------------||-----------------|
|--------------------||-----------------|
|
|  Q.   Q.                Q.   +Q    E
|--------------------||---3----(3)------|
|-10----5------------||---3----(3)--12--|
|-10----5------------||---0----(0)--12--|
|-10----5------------||---0----(0)--12--|
|-12-----------------||---2----(2)--14--|
|--------------------||---3----(3)------|


  F/A   C/G    G         G/BXIF/A   C/G
  Gtr II
   Q.   Q.     Q.   +Q    E    Q.   Q.
|------------|-3----(3)-----|------------|
|-10----5----|-3----(3)--12-|-10----5----|
|-10----5----|-0----(0)--12-|-10----5----|
|-10----5----|-0----(0)--12-|-10----5----|
|-12---------|-2----(2)--14-|-12---------|
|------------|-3----(3)-----|------------|






  G                          G/BXIF/A      C/G    G         G/BXII
  Gtr I
    E.   +S     +E     +Q.          +H.           W
|-------------------------------|---------------|--------------|
|-<12>-(<12>)-(<12>)-(<12>)-----|-(<12>)--------|--------------|
|-<12>-(<12>)-(<12>)-(<12>)-----|-(<12>)--------|--------------|
|-<12>-(<12>)-(<12>)-(<12>)-----|-(<12>)--------|--------------|
|-------------------------------|---------------|--------------|
|-------------------------------|---------------|--------------|
|
| Gtr II
|   Q.                 +Q     E      Q.    Q.     Q.   +Q    E
|---3------------------(3)------|---------------|-3----(3)-----|
|---3------------------(3)---12-|---10-----5----|-3----(3)--12-|
|---0------------------(0)---12-|---10-----5----|-0----(0)--12-|
|---0------------------(0)---12-|---10-----5----|-0----(0)--12-|
|---2------------------(2)---14-|---12----------|-2----(2)--14-|
|---3------------------(3)------|---------------|-3----(3)-----|


  F/A     C/G          G           G/BXIF/A   C/G
   Q    E  Q    S  S    +H.              Q.    Q.
|-13---13-12---15-15-|-(15)-----------|-13----12----|
|-13---13-13---12-12-|-(12)-----------|-13----13----|
|-14---14-12---------|----------------|-14----12----|
|--------------------|----------------|-------------|
|--------------------|----------------|-------------|
|--------------------|----------------|-------------|
|
|  Q.      Q.            Q.   +Q    E    Q.    Q.
|--------------------|---3----(3)-----|-------------|
|-10-------5---------|---3----(3)--12-|-10-----5----|
|-10-------5---------|---0----(0)--12-|-10-----5----|
|-10-------5---------|---0----(0)--12-|-10-----5----|
|-12-----------------|---2----(2)--14-|-12----------|
|--------------------|---3----(3)-----|-------------|


                                       Chorus
  G         G/BXIF/A       C/G          G5        G5/D
                                     Gtrs I, II
  H.              E   E  E  E   E  E    E S S S S E S S S S
|--------------|-13--13-13-12--12----||-3-3-3-3-3-3-3-3-3-3-|
|-3------------|-13--13-13-13--13----||-3-3-3-3-3-3-3-3-3-3-|
|-4------------|-14--14-14-12--12----||-0-0-0-0-0-0-0-0-0-0-|
|-5------------|------------------14-||-----------0-0-0-0-0-|
|--------------|---------------------||---------------------|
|--------------|---------------------||-3-3-3-3-3-----------|
|
| Q.   +Q    E    Q.        Q.          W
|-3----(3)-----|---------------------||---------------------|
|-3----(3)--12-|-10---------5--------||---------------------|
|-0----(0)--12-|-10---------5--------||---------------------|
|-0----(0)--12-|-10---------5--------||---------------------|
|-2----(2)--14-|-12------------------||---------------------|
|-3----(3)-----|---------------------||---------------------|


  F6add9 Cadd9  G5        G5/D       F6add9    Cadd9
  E. S E Q.     E S S S S E. S S S   E S S S S E S S S S
|-3--3-3-3----|-3-3-3-3-3-3--3-3-3-|-3-3-3-3-3-3-3-3-3-3-|
|-3--3-3-3----|-3-3-3-3-3-3--3-3-3-|-3-3-3-3-3-3-3-3-3-3-|
|-2--2-2-0----|-0-0-0-0-0-0--0-0-0-|-2-2-2-2-2-0-0-0-0-0-|
|-3--3-3-2----|-----------0--0-0-0-|-3-3-3-3-3-2-2-2-2-2-|
|--------3----|--------------------|-----------3-3-3-3-3-|
|-------------|-3-3-3-3-3----------|---------------------|


  G5       G5/D       F6add9   Cadd9
  E. S S S E. S S S   E. S S S E. S S S
|-3--3-3-3-3--3-3-3-|-3--3-3-3-3--3-3-3-|
|-3--3-3-3-3--3-3-3-|-3--3-3-3-3--3-3-3-|
|-0--0-0-0-0--0-0-0-|-2--2-2-2-0--0-0-0-|
|----------0--0-0-0-|-3--3-3-3-2--2-2-2-|
|-------------------|----------3--3-3-3-|
|-3--3-3-3----------|-------------------|


                          D.S. al Coda
  G5       G5/D       F6add9   Cadd9
  E. S S S E. S S S   E. S S S E. S S S
|-3--3-3-3-3--3-3-3-|-3--3-3-3-3--3-3-3-||
|-3--3-3-3-3--3-3-3-|-3--3-3-3-3--3-3-3-||
|-0--0-0-0-0--0-0-0-|-2--2-2-2-0--0-0-0-||
|----------0--0-0-0-|-3--3-3-3-2--2-2-2-||
|-------------------|----------3--3-3-3-||
|-3--3-3-3----------|-------------------||


  &
  G5       G5/D       F6add9   Cadd9
  E. S S S E. S S S   E. S S S E. S S S
|-3--3-3-3-3--3-3-3-|-3--3-3-3-3--3-3-3-|
|-3--3-3-3-3--3-3-3-|-3--3-3-3-3--3-3-3-|
|-0--0-0-0-0--0-0-0-|-2--2-2-2-0--0-0-0-|
|----------0--0-0-0-|-3--3-3-3-2--2-2-2-|
|-------------------|----------3--3-3-3-|
|-3--3-3-3----------|-------------------|


  G5       G5/D       F6add9   Cadd9
  E. S S S E. S S S   E. S S S E. S S S
|-3--3-3-3-3--3-3-3-|-3--3-3-3-3--3-3-3-|
|-3--3-3-3-3--3-3-3-|-3--3-3-3-3--3-3-3-|
|-0--0-0-0-0--0-0-0-|-2--2-2-2-0--0-0-0-|
|----------0--0-0-0-|-3--3-3-3-2--2-2-2-|
|-------------------|----------3--3-3-3-|
|-3--3-3-3----------|-------------------|


  G5       G5/D       F6add9   Cadd9
  E. S S S E. S S S   E. S S S E. S S S
|-3--3-3-3-3--3-3-3-|-3--3-3-3-3--3-3-3-|
|-3--3-3-3-3--3-3-3-|-3--3-3-3-3--3-3-3-|
|-0--0-0-0-0--0-0-0-|-2--2-2-2-0--0-0-0-|
|----------0--0-0-0-|-3--3-3-3-2--2-2-2-|
|-------------------|----------3--3-3-3-|
|-3--3-3-3----------|-------------------|


  G5       G5/D       F6add9   Cadd9
  E. S S S E. S S S   E. S S S E. S S S
|-3--3-3-3-3--3-3-3-|-3--3-3-3-3--3-3-3-|
|-3--3-3-3-3--3-3-3-|-3--3-3-3-3--3-3-3-|
|-0--0-0-0-0--0-0-0-|-2--2-2-2-0--0-0-0-|
|----------0--0-0-0-|-3--3-3-3-2--2-2-2-|
|-------------------|----------3--3-3-3-|
|-3--3-3-3----------|-------------------|


  G5       G5/D       F6add9   Cadd9
  E. S S S E. S S S   E. S S S E. S S S
|-3--3-3-3-3--3-3-3-|-3--3-3-3-3--3-3-3-|
|-3--3-3-3-3--3-3-3-|-3--3-3-3-3--3-3-3-|
|-0--0-0-0-0--0-0-0-|-2--2-2-2-0--0-0-0-|
|----------0--0-0-0-|-3--3-3-3-2--2-2-2-|
|-------------------|----------3--3-3-3-|
|-3--3-3-3----------|-------------------|


  G5       G5/D       F6add9   Cadd9
  E. S S S E. S S S   E. S S S E. S S S
|-3--3-3-3-3--3-3-3-|-3--3-3-3-3--3-3-3-||
|-3--3-3-3-3--3-3-3-|-3--3-3-3-3--3-3-3-||
|-0--0-0-0-0--0-0-0-|-2--2-2-2-0--0-0-0-||
|----------0--0-0-0-|-3--3-3-3-2--2-2-2-||
|-------------------|----------3--3-3-3-||
|-3--3-3-3----------|-------------------||


 Verse
  G5       G5/D       F6add9   Cadd9
  E. S S S E. S S S   E. S S S E. S S S
|-3--3-3-3-3--3-3-3-|-3--3-3-3-3--3-3-3-|
|-3--3-3-3-3--3-3-3-|-3--3-3-3-3--3-3-3-|
|-0--0-0-0-0--0-0-0-|-2--2-2-2-0--0-0-0-|
|----------0--0-0-0-|-3--3-3-3-2--2-2-2-|
|-------------------|----------3--3-3-3-|
|-3--3-3-3----------|-------------------|
|
| Gtr III
| W                   W
|-------------------|-------------------|
|-------------------|-------------------|
|-------------------|-------------------|
|-------------------|-------------------|
|-------------------|-------------------|
|-------------------|-------------------|


  G5       G5/D       F6add9     Cadd9
  E. S S S E. S S S   E.   S S S E.     S S S
|-3--3-3-3-3--3-3-3-|-3----3-3-3-3------3-3-3--|
|-3--3-3-3-3--3-3-3-|-3----3-3-3-3------3-3-3--|
|-0--0-0-0-0--0-0-0-|-2----2-2-2-0------0-0-0--|
|----------0--0-0-0-|-3----3-3-3-2------2-2-2--|
|-------------------|------------3------3-3-3--|
|-3--3-3-3----------|--------------------------|
|
| W                   E  E   E   S  S S S S S
|-------------------|----3-------3--3-3-3-3-3--|
|-------------------|--------3---3--3-3-3-3-3--|
|-------------------|-2----------0--0-0-0-0-0--|
|-------------------|-3------------------------|
|-------------------|------------3--3-3-3-3-3--|
|-------------------|--------------------------|


  G5       G5/D       F6add9   Cadd9
  E. S S S E. S S S   E. S S S E. S S S
|-3--3-3-3-3--3-3-3-|-3--3-3-3-3--3-3-3-|
|-3--3-3-3-3--3-3-3-|-3--3-3-3-3--3-3-3-|
|-0--0-0-0-0--0-0-0-|-2--2-2-2-0--0-0-0-|
|----------0--0-0-0-|-3--3-3-3-2--2-2-2-|
|-------------------|----------3--3-3-3-|
|-3--3-3-3----------|-------------------|
|
| W                   W
|-------------------|-------------------|
|-------------------|-------------------|
|-------------------|-------------------|
|-------------------|-------------------|
|-------------------|-------------------|
|-------------------|-------------------|


  G5       G5/D       F6add9     Cadd9
  E. S S S E. S S S   E.   S S S E.   S S S
|-3--3-3-3-3--3-3-3-|-3----3-3-3-3----3-3-3---|
|-3--3-3-3-3--3-3-3-|-3----3-3-3-3----3-3-3---|
|-0--0-0-0-0--0-0-0-|-2----2-2-2-0----0-0-0---|
|----------0--0-0-0-|-3----3-3-3-2----2-2-2---|
|-------------------|------------3----3-3-3---|
|-3--3-3-3----------|-------------------------|
|
| W                   E  E   E   S  E E   S
|-------------------|----3-------3--3-3---3---|
|-------------------|----3-------3--3-3---3---|
|-------------------|-2------2---0--0-0---0---|
|-------------------|-3----------2--2-2---2---|
|-------------------|------------3--3-3---3---|
|-------------------|-------------------------|


  G5       G5/D       F6add9   Cadd9      G5       G5/D
  E. S S S E. S S S   E. S S S E. S S S   E. S S S E. S S S
|-3--3-3-3-3--3-3-3-|-3--3-3-3-3--3-3-3-|-3--3-3-3-3--3-3-3-|
|-3--3-3-3-3--3-3-3-|-3--3-3-3-3--3-3-3-|-3--3-3-3-3--3-3-3-|
|-0--0-0-0-0--0-0-0-|-2--2-2-2-0--0-0-0-|-0--0-0-0-0--0-0-0-|
|----------0--0-0-0-|-3--3-3-3-2--2-2-2-|----------0--0-0-0-|
|-------------------|----------3--3-3-3-|-------------------|
|-3--3-3-3----------|-------------------|-3--3-3-3----------|


  F6add9   Cadd9      G5       G5/D       F6add9   Cadd9
  E. S S S E. S S S   E. S S S E. S S S   E. S S S E. S S S
|-3--3-3-3-3--3-3-3-|-3--3-3-3-3--3-3-3-|-3--3-3-3-3--3-3-3-|
|-3--3-3-3-3--3-3-3-|-3--3-3-3-3--3-3-3-|-3--3-3-3-3--3-3-3-|
|-2--2-2-2-0--0-0-0-|-0--0-0-0-0--0-0-0-|-2--2-2-2-0--0-0-0-|
|-3--3-3-3-2--2-2-2-|----------0--0-0-0-|-3--3-3-3-2--2-2-2-|
|----------3--3-3-3-|-------------------|----------3--3-3-3-|
|-------------------|-3--3-3-3----------|-------------------|


  G5       G5/D       F6add9     Cadd9  Cadd9 G
  E. S S S E. S S S   E.   S S S E.   S S S   W          W
|-3--3-3-3-3--3-3-3-|-3----3-3-3-3----3-3-3-|---------|--------*|
|-3--3-3-3-3--3-3-3-|-3----3-3-3-3----3-3-3-|---------|--------*|
|-0--0-0-0-0--0-0-0-|-2----2-2-2-0----0-0-0-|---------|--------*|
|----------0--0-0-0-|-3----3-3-3------------|---------|--------*|
|-------------------|------------3----3-3-3-|---------|--------*|
|-3--3-3-3----------|-----------------------|---------|--------*|
|
| Gtr III
| W                   E  E   E   E  E   E     H.        +H.
|-------------------|-3--3---3---3--3---3---|-3-------|-(3)----*|
|-------------------|-3--3---3---3--3---3---|-3-------|-(3)----*|
|-------------------|-2--2---2---0--0---0---|-4-------|-(4)----*|
|-------------------|-3--3---3--------------|-5-------|-(5)----*|
|-------------------|------------3--3---3---|-5-------|-(5)----*|
|-------------------|-----------------------|-3-------|-(3)----*|


Duration Legend
---------------
W - whole; H - half; Q - quarter; E - 8th; S - 16th; T - 32nd; X - 64th; a - acciaccatura
+ - note tied to previous; . - note dotted; .. - note double dotted
Uncapitalized letters represent notes that are staccato (1/2 duration)
Irregular groupings are notated above the duration line
Duration letters will always appear directly above the note/fret number it represents the
duration for.  Duration letters with no fret number below them represent rests.  Multi-
bar rests are notated in the form Wxn, where n is the number of bars to rest for.  Low
melody durations appear below the staff

Tablature Legend
----------------
 h   - hammer-on
 p   - pull-off
 b   - bend
 pb  - pre-bend
 r   - bend release (if no number after the r, then release immediately)
 /\  - slide into or out of (from/to "nowhere")
 s   - legato slide
 S   - shift slide
  - natural harmonic
[n]  - artificial harmonic
n(n) - tapped harmonic
 ~   - vibrato
 tr  - trill
 T   - tap
 TP  - trem. picking
 PM  - palm muting
\n/  - tremolo bar dip; n = amount to dip
 \n  - tremolo bar down
 n/  - tremolo bar up
/n\  - tremolo bar inverted dip
 =   - hold bend; also acts as connecting device for hammers/pulls
 <>  - volume swell (louder/softer)
 x   - on rhythm slash represents muted slash
 o   - on rhythm slash represents single note slash

Misc Legend
-----------
 |  - bar
||  - double bar
||o - repeat start
o|| - repeat end
*|  - double bar (ending)
 :  - bar (freetime)
 $  - Segno
 &  - Coda
Tempo markers -  = BPM(8/16=s8/s16), where s8 = swing 8ths, s16 = swing 16ths

ONE TREE HILL - U2

The following tab gives the main points for playing the complete song.
There are variations and improvisations throughout the song (especially in Riff 2).


This first bit is the synth that plays throughout the song.

 E |-------------------------|
 B |-------------------------|
 G |---17-17-17---17-17-17-17|
 D |-------------------------|
 A |-15---------15-----------|
 E |-------------------------|

Intro:
 E |-------------------------|--------------------------|-------------------------|
 B |-------------------------|--13--13--13--13--13------|-------------13--13--13--|
 G |----5-5---5/7---5--------|--12--12--12--12--12------|-----12--12--12--12--12--|
 D |----5-5---5/7---5--------|--------------12--12--10--|-10--12--12--14--14--14--|
 A |-------------------------|----------------------10--|-10----------------------|
 E |-------------------------|--------------------------|-------------------------|

 E |-------------------------|--------------------------|-------------------------|
 B |-------------------------|--------------------------|-------------------------|
 G |--12--12--------------12-|--12--10--10--10----------|-------------------------|
 D |--12--12--10--10--10--12-|--12--10--10--10--10--10--|--10--10--10-------------|
 A |----------10--10--10-----|------------------10--10--|---8---8---8-------------|
 E |-------------------------|--------------------------|-------------------------|


Riff 1: (Repeated throughout verses with variations)

     (C5)                                                 (F5)
 E |-------------------------|--------------------------|-------------------------|
 B |--------13----13---------|----------13----13--------|---------6-----6---------|
 G |--12----------------12---|--12-12-------------12----|---5-----------------5---|
 D |--10---------------------|--10-10-------------------|---3---------------------|
 A |-------------------------|--------------------------|-------------------------|
 E |-------------------------|--------------------------|-------------------------|

                               (Bb5)                      (F5)
 E |-------------------------|--------------------------|-------------------------|
 B |---------6-----6---------|--------11----11----------|---------6----6----------|
 G |--5-5----------------5---|--10---------------10-----|---5----------------5----|
 D |--3-3--------------------|---8----------------------|---3---------------------|
 A |-------------------------|--------------------------|-------------------------|
 E |-------------------------|--------------------------|-------------------------|

     (C5)                                (C7)  (C5)
 E |-------------------------|--------------------------|
 B |--------13-----13--------|--13---13---11----13------|
 G |--12-----------------12--|--12---12---12----12------|
 D |--10---------------------|--------------------------|
 A |-------------------------|--------------------------|
 E |-------------------------|--------------------------|


Riff 2: ("You run like a river...")

     (Bb)                      (F)                        (C5)

 E |-------------------------|--------------------------|--------------------0----|
 B |-11------11-------11-----|-10------10------10-----10|--8-----8-----8----------|
 G |-----10-------10------10-|-----10------10------10---|-------------------------|
 D |-------------------------|--------------------------|-------------------------|
 A |-------------------------|--------------------------|-------------------------|
 E |-------------------------|--------------------------|-----8-----8-----8-------|

Synth chords: (Played after cello solo, throughout 3rd verse and at very end)

        C         F                Bb5       F/C
 E |-------------------------|--------------------------|
 B |-------------------------|--------------------------|
 G |----9--------10----------|------10--------10--------|
 D |---10---------7----------|-------8---------7--------|
 A |--------------8----------|--------------------------|
 E |----8--------------------|-------6---------8--------|

Distorted guitar: (Played towards end and more extensively when live)

 E |-------------------------|--------------------------|
 B |-------------------------|--------------------------|
 G |-------------------------|--------------------------|
 D |-------------------------|--------------------------|
 A |--1---3---1---3---1---1--|--0---1---0---1-----------|
 E |-------------------------|--------------------------|


 E |-------------------------|--------------------------|
 B |-------------------------|--------------------------|
 G |-------------------------|--------------------------|
 D |-------------------------|--1---1---1---1-----------|
 A |--1--3--3--3--1--3--3----|----3---3---3-------------|
 E |-------------------------|--------------------------|

First verse with Riff 1:

C5                               F5
    We turn away to face the cold, enduring chill

           Bb5             F5     C5         C7 C5
    As the day begs the night for mercy love

C5                                   F5
    The sun's so bright it leaves no shadows, only scars

    Bb5         F5           C5            C7 C5
    carved into stone on the face of earth

C5                          F5
    The moon is up and over One Tree Hill

               Bb5    F5           C5
    We see the sun go down in your eyes


Chorus with Riff 2:

                 Bb   F         C5
    You run like river in like a sea
                   Bb   F              C5
    you run like a river runs to the sea


Second verse same as first verse:
    And in the world a heart of darkness, a firezone
    Where poets speak their hearts, then bleed for it
    Jara sang, his song a weapon, in the hands of love
    You know his blood still cries from the ground


Chorus as before.

Cello Solo.

Now play synth chords (C C F F Bb5 F/C C C)

Third verse with synth chords:

C                              F
    I don't believe in painted roses or bleeding hearts

          Bb5                  F/C          C
    while bullets rape the night of the merciful

                                 F
    I'll see you again when the stars fall from the sky

            Bb5                F/C      C
    and the moon has turned red over one tree hill


Continue to play Riff 2 to end.

Distorted guitar kicks in towards end.

Outro: (With synth chords)

    C        F/C    Bb5       F/C
    Oh great ocean, old great sea

    C          F      Bb5 F/C    C
    run to the ocean, run to the sea.


EXIT - U2

BASS INTRO

A--7-7-7-7-7-7-7-7|-7-7-7-7-7-7-7-7|--3-3-3-3-3-3-3-3|--

A--10-10-10-10-10-10-10-10--
(continue this pattern throughout song)


Edges part (including intro)
-> begin this after playing bass pattern twice - in fact comes in half way
through the last bar (the G's on fret 10)


 (trip.)	    (trip.)
e-------|---|------------|--|-----|
B-------|---|------------|--|-----|
G-------|---|------------|--|-----|
D--9-8-7|---|------------|--|-----|
A-------|-10__10--9-10-9-|-7__7---|
E-------|---|------------|--|-----|

  (harm.)
e--------------------------------------------|
B--------------------------------------------|
G--------------------------------------------|
D------12------12----12-----12---12---12-----|
A--12------12------12----12----12---12--12---|
E--------------------------------------------|

e-----------------------------------------------|
B-----------------------------------------------|
G-----------------------------------------------|
D-----------------------------------------------|
A-----------------------------------------------|
E---0-0---------------------0-0-----------------|


Verse:


You know he got the cure, you know he went astray, he used to
stay awake to drive the dreams he had a way

(harm.)					(not harm.)
e-----------------------------------------------------|
B--------------------------------------------(trip.)--|
G-----------------------------------------------------|
D------12------12-----12-----12----12--------9-8-7----|
A--12------12------12-----12----12----12--------------|
E-----------------------------------------------------|

   He wanted to believe			in the hands of love
e-----------------------------------------------------|
B-----------------------------------------------------|
G-----------------------------------------------------|
D-----------------------------------------------------|
A--10--------------------------9-10-9-7---------------|
E-----------------------------------------------------|


the hands of    Love
	     (P.M - now and again)
e---------------------------------------------|
B---------------------------------------------|       (repeat this rhythm throughout
G------------------9-X-------9-9-X------------|        rest of song, keeping basic Em,
D---------------------------------------------|        and ad.lib. this pattern for
A-------------7-7-------7-7-------------------|        Edge's wild solo section -noise)
E---------------------------------------------|

**Strumming pattern for rhythm shown above**
	The effect can be gained by holding the pick with only about 1
millimetre clearance between the pick and the index finger. Instead of
actually plucking, hit the string at about a 45 degree angle - don't worry
if the string doesn't really sound, Edge doesn't seem to. What you're
basically doing is thumping the strings for all they're worth, and
expecting a far from clean sound.


Mothers of the disappeared
Notation:
s - sixteenth note
e - eighth note
q - quarter note
h - half note
w - whole note
. - play note for one and a half times the value before it (just like a dot in standard notation)
^ - ties two note lengths together
NOTE LENGTHS IN CAPITAL LETTERS MEAN REST FOR THAT VALUE OF TIME!
/ - slide up
\ - slide down
h - hammer-on
p - pull-off

"Mothers of the Disappeared" as performed by U2, from The Joshua Tree
Words by Bono, Music by U2

(Acoustic guitar - let ring)
            A5               A                A5                   A             (Asus9)
    e  e    e  q  q.  e e    q.  q. q. e e    e  q    q.   e   e   h   Q e  e    e  q q.   e e
E---------|----------------|----------------|--------------------|-------------|------------------|
B---------|----------------|----------------|--------------------|-------------|------------------|
G---------|----------------|----------------|--------------------|-------------|------------------|
D---11-12-|-12/14-14-14-12-|-11--11---11-12-|-12/14---14---14-12-|-11----11/12-|-11\9-9----9-11---|
A-0-------|-0--------------|-(0)----0-------|-(0)---0----0-------|-(0)-0-------|-(0)-----0--------|
E---------|----------------|----------------|--------------------|-------------|------------------|
  q.        w                 h^e   q.         q    q.   q.        h^e q.        h^e     q.

  (Asus4)              (A)                                    A5                 A
  e  q    q  e  e  e   s e^e. s s^q s s e    Q  e e Q e  e    e  q  q.    e  e   h^e  q    e
E--------------------|--------------------|-----------------|------------------|------------------|
B--------------------|--------------------|-----------------|------------------|------------------|
G--------------------|--------------------|-----------------|------------------|------------------|
D-11/12---12-12-11-9-|-9\7----7-7---7/9\7-|-----7-7---11-12-|-12/14-14---14-12-|-11---11---12-----|
A-(0)---0------------|-0------0-0---------|-(0)-----0-------|-(0)------0-------|-0--0----0--------|
E--------------------|--------------------|-----------------|------------------|------------------|
   q    h.             q.     s s^h          h   E  q.         h^e     q.        q. q.   q

  A5                 A                (Asus9)         (Asus4)             (A)
  e  q  q.   e  e    q.  q.    e e    e  q q.  e e    e  q    q.   e  e   s e.e q.  q    e  q.  h
E------------------|----------------|---------------|-------------------|-------------|-------------|
B------------------|----------------|---------------|-------------------|-------------|-------------|
G------------------|----------------|---------------|-------------------|-------------|-------------|
D-12/14-14---14-12-|-11--11---11h12-|-11\9-9---9-11-|-11h12---12---11-9-|-9\7-7-7---7-|-(7)-7---7---|
A-(0)------0-------|-(0)----0-------|--------0------|-(0)---0----0------|-(0)-----0---|-(0)---0---0-|
E------------------|----------------|---------------|-------------------|-------------|-------------|
   h^e     q.         h^e   q.        (h^e)  q.        q    q.   q.        h^e    q.     q Q  q  q.

  A5                                                                           E5
Midnight, our  sons and daughters   were cut down   taken from us hear their   heartbeat,
  E q q.  q     e  q e e e s s e     e  q.  q.  e    q    q.  e q              E q.  q   q
E------------|--------------------|---------------|--------------------------|--------------|
B------------|--------------------|---------------|--------------------------|--------------|
G---9-9---9--|-(9)-9-9-9-9-9/11\9-|-(9)-9---9---9-|-(9)---9---9-9------------|--------------|
D------------|--------------------|---------------|--------------------------|---9---9---9\-|
A-0-----0----|--0----0------------|--0----0---0---|-(0)-0---0---0------------|--------------|
E------------|--------------------|---------------|--------------------------|-0---0---0----|
  h^e   q.      q.   h^e             q.   q.  q      e  q.  q   q              q.  q   q.

   (F#m)  (D)       A5
   you hear their   heartbeat.                      In the wind you  hear their laughter,
  e e e e e e e e   E q.  q.  e    q    q.  q   e    e  q.  q.  e     q     q.  q   e
E-----------------|-------------|-----------------|-----------------|-----------------|
B-----------------|-------------|-----------------|-----------------|-----------------|
G-----------7---7-|---9---9---9-|-(9)---9---9---9-|-(9)-9---9---9---|-(9)---9---9---9-|
D---4---4---------|-------------|-----------------|-----------------|-----------------|
A---------5---5---|-0---0---0---|-(0)-0---0---0---|-0-----0---0-----|-(0)-0---0---0---|
E-2---2-----------|-------------|-----------------|-----------------|-----------------|
                    q.  q.  q      e  q.  q   q     q.    q.  q        e  q.  q   q

                                    E5             (F#m) (D)       A5
 in the rain we see their tears, hear their heartbeat, we hear their heartbeat.
   e  q e q.  e    q    q.  q   e   E q.  q   q    e e q e e e e   E q.  q.  e    q    h   e  e
E---------------|-----------------|--------------|---------------|-------------|-------------------|
B---------------|-----------------|--------------|---------------|-------------|-------------------|
G-(9)-9-9-9---9-|-(9)---9---9---9-|--------------|---------7---7-|---9---9---9-|-(9)---9---10-9----|
D---------------|-----------------|---9---9---9\-|---4-----------|-------------|-------------------|
A-0-----0---0---|-(0)-0---0---0---|--------------|-------5---5---|-0---0---0---|-(0)-0---0---------|
E---------------|-----------------|-0---0---0----|-2---2---------|-------------|-------------------|
  q.    q.  q      e  q.  q   q     q.  q   q.                     q.  q.  q      e  q.  h

  D                               A5                             D            D5
  Whoo                   whoo                                    whoo                      whoo
  E q. q e e   e   e q.  q    e   E q. q   e e    e e h   e  e   q.  q.  q    e  q    q.   e  e
E------------|------------------|---------------|--------------|-----------|--------------------|
B---7--7---7-|-(7)---7---10---7-|---------------|--------------|-7---7---7-|-(7)-10---10---10-7-|
G--------7---|-(7)-7------------|---9--9---9/11\|\9-9-9---10-9-|-----------|--------------------|
D-0----------|-0-------0----0---|---------------|--------------|---0-0-0---|-(0)----0----0------|
A------------|------------------|-0------0------|---0---0------|-----------|--------------------|
E------------|------------------|---------------|--------------|-----------|--------------------|
  w            h       q    q     h^e    q.       E h   q.       E q q q.     q     q.   q.

  A5
  E h q.     q.   e q   q   E q   q.  q    e  q   q.    s s  e    e  q e q e e   e   e q e e s s  e
E---------|---------------|-------------|----------------------|---------------|--------------------|
B---------|---------------|-------------|----------------------|---------------|--------------------|
G---9-9---|-(9)---9-9---9-|---9---9---9-|-(9)-9---9-----9/11\9-|-(9)-9-9-9---9-|-(9)---9---9-9/11\9-|
D---------|---------------|-------------|----------------------|-----------7---|-----7---7----------|
A-0-----0-|-(0)-0-----0---|-0---0---0---|-0-----0---0-0--------|-0-----0-------|-0-------0----------|
E---------|---------------|-------------|----------------------|---------------|--------------------|
| h.    q    q  q.    q.    q   q.  q.    q     q   e q.         q.    h^e       h       h
|
|(2nd guitar)
|
|                              h..   e     q q  Q. e                 h..    e    q  q   Q. e
E---------|---------------|-------------|----------------------|---------------|-----------------|
B---------|---------------|-------------|----------------------|---------------|-----------------|
G---------|---------------|-------------|----------------------|---------------|-----------------|
D---------|---------------|-------------|----------------------|---------------|-----------------|
A---------|---------------|-------------|-12-12\---12\---------|---------------|-12-12\----12\---|
E---------|---------------|----5----(5)/|----------------------|-----5-----(5)/|-----------------|

  e q.  q.  e    e  e q e e s s  e   E q.  q.  e    q    q   q   e  e
E-------------|--------------------|-------------|---------------------|
B-------------|--------------------|-------------|---------------------|
G---9---9---9-|-(9)---9---9-9/11\9-|---9---9---9-|-(9)---9---9---------|
D-7-----------|-----7---7----------|-------------|---------------11-12-|
A-0---0---0---|-(0)-----0----------|-0---0---0---|-(0)-0---0---0-------|
E-------------|--------------------|-------------|---------------------|
| q.  q.  q      h      h            q.  q.  q      e  q   q   q.
|
|(2nd guitar)
|
| h..      e    q  q     Q.    e     h..      e    q  q   Q.   e
E-------------|--------------------|-------------|---------------------|
B-------------|--------------------|-------------|---------------------|
G-------------|----14\-------------|-------------|---------------------|
D-------------|----14\-------------|-------------|---------------------|
A-------------|-12-12\---------12\-|-------------|-12-12\-----12\------|
E-5-------(5)/|--------------------|-5-------(5)/|---------------------|

                       A               A5                   A
  e  q    q.   e  e    h.      e  e    e  q    q.    e e    h.      e  e
E--------------------|---------------|--------------------|---------------|
B--------------------|---------------|--------------------|---------------|
G--------------------|---------------|--------------------|---------------|
D-12/14---14---14-12-|-11------11-12-|-12/14---14---14-12-|-11------11-12-|
A-0-----0----0-------|-0--0--0-------|-0-----0----0-------|-0--0--0-------|
E--------------------|---------------|--------------------|---------------|
  q     q.   q.        q  q. q.        q     q.   q.        q  q. q.

(Asus9)             (Asus4)           (A)
  e  q   q.  e  e   q.   q  e  e  e   s e^e.  q e s s s s   e q.  q   e  e
E-----------------|-----------------|---------------------|-----------------|
B-----------------|-----------------|---------------------|-----------------|
G-----------------|-----------------|---------------------|-----------------|
D-11-9---9---9-11-|-12---12-12-11-9-|-9p7-----7-7-7h9p7\5-|-7-7---7---11-12-|
A-0----0---0------|----0------------|-0-------0-----------|-0---0---0-------|
E-----------------|-----------------|---------------------|-----------------|
  q    q.  q.       Q  h.             q.      h^e           q.  q   q.

   A5                 A                A5                   A
   Night hangs       like a prisoner, stretched over        black and blue, hear their
  e  q    q.   e  e    h.      e   e   e  q    q.   e  e    h.      e  e
E--------------------|---------------|--------------------|---------------|
B--------------------|---------------|--------------------|---------------|
G--------------------|---------------|--------------------|---------------|
D-12/14---14---14-12-|-11------11-12-|-12/14---14---14-12-|-11------11-12-|
A-0-----0----0-------|-0--0--0-------|-0-----0----0-------|-0--0--0-------|
E--------------------|---------------|--------------------|---------------|
  q     q.   q.        q  q. q.        q     q.   q.        q  q. q.

  (Asus9)           (Asus4)           (A)
  heartbeats,         we hear their    heartbeats.
  e  q   q.  e e    q.   q  e  e  e   s e^e.  q e s s s s   e q.  q   e  e
E-----------------|-----------------|---------------------|-----------------|
B-----------------|-----------------|---------------------|-----------------|
G-----------------|-----------------|---------------------|-----------------|
D-11-9---9---9-11-|-12---12-12-11-9-|-9p7-----7-7-7h9p7\5-|-7-7---7---11-12-|
A-0----0---0------|----0------------|-0-------0-----------|-0---0---0-------|
E-----------------|-----------------|---------------------|-----------------|
  q    q.  q.       Q  h.             q.      h^e           q.  q   q.

 A5                    A                A5                   A
  In the trees, our  sons stand naked, through the walls, our  daughters cry, see their
  e   q   q.   e   e   h.      e   e   e  q    q.    e e    h.      e  e
E--------------------|---------------|--------------------|---------------|
B--------------------|---------------|--------------------|---------------|
G--------------------|---------------|--------------------|---------------|
D-12/14---14---14-12-|-11------11-12-|-12/14---14---14-12-|-11------11-12-|
A-0-----0----0-------|-0--0--0-------|-0-----0----0-------|-0--0--0-------|
E--------------------|---------------|--------------------|---------------|
  q     q.   q.        q  q. q.        q     q.   q.        q  q. q.

  (Asus9)           (Asus4)           (A)
  tears                       in the  rain fall.
  e  q   q.  e  e   q.   q  e   e e   s e^e.  q e s s s s   e q.  q   e   e
E-----------------|-----------------|---------------------|-----------------|
B-----------------|-----------------|---------------------|-----------------|
G-----------------|-----------------|---------------------|-----------------|
D-11-9---9---9-11-|-12---12-12-11-9-|-9p7-----7-7-7h9p7\5-|-7-7---7---11-12-|
A-0----0---0------|----0------------|-0-------0-----------|-0---0---0-------|
E-----------------|-----------------|---------------------|-----------------|
  q    q.  q.       Q  h.             q.      h^e           q.  q   q.

(Repeat next 4 bars 6 times)
  D                D5                  A5
  Whoo                           Whoo
  e q q.    q      e   q   q.   e  e   E q   q e e e    e   e e e q   e  e
E---------------|--------------------|----------------|--------------------|
B-7-7-7-----7---|--7--10---10---10-7-|----------------|---------------10-9-|
G---------------|--------------------|---9---9-9-9/11\|\9---9-9-9-9--------|
D-0-----0-0---0-|-(0)----0----0------|----------------|--------------------|
A---------------|--------------------|-0---0---0------|-(0)-0-------0------|
E---------------|--------------------|----------------|--------------------|
  h     e q   e    q     q.   q.       q   q.  q.        e  h       q.

(Repeat the next two bars and fade out)
  E e e e  e e  e e    e e q   e  e e e
E-------------------|---------------------|
B-------10-----10---|-10-------10---------|
G-----9------9----9-|----9--------9-9-----|
D---7------7--------|------7----------7\--|
A-0-----------------|--------0------------|
E-------------------|---------------------|
| w                   q.     h^e
|
|(2nd guitar)
|
| h..            e    q  q    Q. e
E-------------------|---------------------|
B-------------------|---------------------|
G-------------------|---------------------|
D-------------------|---------------------|
A-------------------|-12-12\-----12\------|
E-5-------------(5)/|---------------------|


The end. The book also gives this little fill, but for the life of me, I can't figure out where it
is supposed to be played. The book never says. For completeness, however, I'm including it.

  q.   q e  s s  e   e q.    q   q
E------------------|-------------------------------------------|
B------------------|-------------------------------------------|
G------------------|-------------------------------------------|
D-7----7-7-11h12-9-|-7-11---11---11----------------------------|
A----0---0---------|-0----0----0-------------------------------|
E------------------|-------------------------------------------|
  Q  q.  q.          q.   q    q.

There may be discrepancies in the rhythm. Not all of the note values add up in the book, and where
I could, I tried to correct them to the best of my ability. In any case, this should do you fairly
well in terms of thoroughness. It may look like a mess, but trust me: just about everything you
could need to play this song is in there. Dynamics and tempo, maybe, but that you should be able to
get from just a single listen to the song.

thanks for looking at my tab
comments
print report bad tab
I want to post or [tab]
guest
You may want to rate the tab now too:
select rating
Please do not post tabs as comments. Select "correction" instead!