Oops, an error
Loading. Please wait.

Twilight Bass Tab

by U2
859 views 3 this week
no commentswrite comment
1 2 3 4 5
excellent!
x 1
Autoscroll
+/-
esc
set tempo
stop
Contributor
WARNING: You are trying to view
                                    content from Ultimate-Guitar.com
                                    in an unauthorized application,
                                    which is prohibited.

                                    Please use an official Ultimate
                                    Guitar Tabs application for iPhone,
                                    iPad or Android to access legitimate
                                    chords, guitar, bass, and drum tabs
                                    from Ultimate-Guitar.com database.

                                    Type "ultimate guitar tabs" in Apple
                                    App Store's or Android Market's
                                    search to find the application.
                                       H        Q     Q      
F#||-------|-------|-------|-------|------------------------|
C#||-------|-------|-------|-------|--14--------L----14\----|
G#||-------|-------|-------|-------|------------------------|
D#||-------|-------|-------|-------|------------------------|


  H        Q    Q         H        Q     Q        H        Q    Q      
----------------------|------------------------|----------------------|
----------------------|------------------------|----------------------|
--5--------L----5/----|--15--------L----15\----|--2--------L----2/----|
----------------------|------------------------|----------------------|


  H        Q    Q         H        Q     Q        H        Q    Q      
----------------------|------------------------|----------------------|
----------------------|--12--------L----12\----|----------------------|
--7--------L----7/----|------------------------|--3--------L----3/----|
----------------------|------------------------|----------------------|


   Q.      E   E   E   Q        E  E  E  E  E  E  E  E   
-----------------------------|--------------------------|
-----------------------------|--------------------------|
--14------14--14--14--14\----|--7-----x--7-----7--7--7--|
-----------------------------|--------------------------|


  E  E  E  E  E  E  E  E     E  E  E  E  E  E  E  E   
--------------------------|--------------------------|
--------------------------|--------------------------|
--5-----x--5-----5--5--5--|--3-----x--3-----3--3--3--|
--------------------------|--------------------------|


  E  E  E  E  E  E  E  E      Q    Q    Q    Q       Q    Q    Q    Q     
---------------------------|----------------------|----------------------|
---------------------------|-------9---------9----|-------7---------7----|
--2-----x--2-----2--2--2/--|--7---------7---------|--5---------5---------|
---------------------------|----------------------|----------------------|


  Q    Q    Q    Q       E  E  E  E  E  E  E  E      E  E  E  E  E  E  E  E   
----------------------|---------------------------|-----------------9-----9--|
-------5---------5----|---------------------------|--------------------9-----|
--3---------3---------|--2--2--2--2--2--2--2--2/--|--7-----x--7--------------|
----------------------|---------------------------|--------------------------|


  E  E  E  E  E  E  E  E     E  E  E  E  E  E  E  E   
-----------------7-----7--|-----------------5-----5--|
--------------------7-----|--------------------5-----|
--5-----x--5--------------|--3-----x--3--------------|
--------------------------|--------------------------|


  E  E  E  E  E  E  Q        E  E  E  E  E  E  E  E   
--------------------------|-----------------9-----9--|
--------------------------|--------------------9-----|
--2-----x--2-----2--2/----|--7-----x--7--------------|
--------------------------|--------------------------|


  E  E  E  E  E  E  E  E     E  E  E  E  E  E  E  E   
-----------------7-----7--|-----------------5-----5--|
--------------------7-----|--------------------5-----|
--5-----x--5--------------|--3-----x--3--------------|
--------------------------|--------------------------|


  E  E  E  E  E  E  E  E      Q    Q    Q    Q       Q    Q    Q    Q     
---------------------------|----------------------|----------------------|
---------------------------|-------9---------9----|-------7---------7----|
--2--2--2--2--2--2--2--2/--|--7---------7---------|--5---------5---------|
---------------------------|----------------------|----------------------|


  Q    Q    Q    Q       E  E  E  E  E  E  E  E      E  E  E  E  E  E  E  E   
----------------------|---------------------------|--------------------------|
-------5---------5----|---------------------------|--------------------------|
--3---------3---------|--2--2--2--2--2--2--2--2/--|--7-----x--7-----7--7--6--|
----------------------|---------------------------|--------------------------|


  E  E  E  E  E  E  E  E     E  E  E  E  E  E  E  E   
--------------------------|--------------------------|
--------------------------|--------------------------|
--5-----x--5-----5--5--4--|--3-----x--3-----3--3--3--|
--------------------------|--------------------------|


  E  E  E  E  E  E  Q        E  E  E  E  E  E  E  E   
--------------------------|--------------------------|
--------------------------|--------------------------|
--2-----x--2-----2--2/----|--7-----x--7-----7--7--6--|
--------------------------|--------------------------|


  E  E  E  E  E  E  E  E     E  E  E  E  E  E  E  E   
--------------------------|--------------------------|
--------------------------|--------------------------|
--5-----x--5-----5--5--4--|--3-----x--3-----3--3--3--|
--------------------------|--------------------------|


  E  E  E  E  E  E  E  E      E  E  Q    E  E  Q       E  E  Q    E  E  Q     
---------------------------|------------------------|------------------------|
---------------------------|--------9----------9----|--------7----------7----|
--2--2--2--2--2--2--2--2/--|--7--7-------7--7-------|--5--5-------5--5-------|
---------------------------|------------------------|------------------------|


  E  E  Q    E  E  Q       E  E  E  E  E  E  E  E      E  E  E  E  E  E  E  E   
------------------------|---------------------------|--------------------------|
--------5----------5----|---------------------------|--------------------------|
--3--3-------3--3-------|--2--2--2--2--2--2--2--2/--|--7--7--7--7--7--7--7--7--|
------------------------|---------------------------|--------------------------|


  E  E  E  E  E  E  E  E     E  E  E  E  E  E  E  E   
--------------------------|--------------------------|
--------------------------|--------------------------|
--5--5--5--5--5--5--5--5--|--3--3--3--3--3--3--3--3--|
--------------------------|--------------------------|


  E  E  E  E  E  E  E  E      E  E  E  E  E  E  E  E   
---------------------------|--------------------------|
---------------------------|--------------------------|
--2--2--2--2--2--2--2--2/--|--7--7--7--7--7--7--7--7--|
---------------------------|--------------------------|


  E  E  E  E  E  E  E  E     E  E  E  E  E  E  E  E   
--------------------------|--------------------------|
--------------------------|--------------------------|
--5--5--5--5--5--5--5--5--|--3--3--3--3--3--3--3--3--|
--------------------------|--------------------------|


  E  E  E  E  E  E  E  E     E  E  E  E  E  E  E  E   
--------------------------|--------------------------|
--------------------------|--------------------------|
--2--2--2--2--2--2--2--2--|--------------------------|
--------------------------|--0--2--3--0--2--3--0--2--|


  E  E  E  E  E  E  E  E     H        Q.        H.           E  Q     
--------------------------|------------------|-----------------------|
--------------------------|------------------|-----------------------|
--------------------------|--0--------L------|-----------------------|
--3--0--2--3--0--2--3-----|------------------|--3------------L--0----|


  H        Q.        H.           E  Q       H        Q.      
------------------|-----------------------|------------------|
------------------|-----------------------|------------------|
--0--------L------|-----------------------|--0--------L------|
------------------|--3------------L--0----|------------------|


  H.           E  Q       H        Q.        H.           E  E  E   
-----------------------|------------------|------------------------|
-----------------------|------------------|------------------------|
-----------------------|--0--------L------|------------------------|
--3------------L--0----|------------------|--3------------L--0-----|


  E  E  E  E  E  E  E  E     E  E  E  E  E  E  E  E   
--------------------------|--------------------------|
--------5-----------------|--------5-----------------|
--7--7-----7--5--7--4--5--|--7--7-----7--5--7--4--5--|
--------------------------|--------------------------|


  E  E  E  E  E  E  E  E     E  E  E  E  E  E  E  E   
--------------------------|--------------------------|
--------5-----------------|--------5-----------------|
--7--7-----7--5--7--4--5--|--7--7-----7--5--7--4--5--|
--------------------------|--------------------------|


  E  E  E  E  E  E  E  E     E  E  E  E  E  E  E  E   
--------------------------|--------------------------|
--------5-----------------|--------5-----------------|
--7--7-----7--5--7--4--5--|--7--7-----7--5--7--4--5--|
--------------------------|--------------------------|


  E  E  E  E  E  E  E  E     E  E  E  E  E  E  E  E   
--------------------------|--------------------------|
--------------------------|--------------------------|
--7--7--7--7--7--7--7--7--|--5--5--5--5--5--5--5--5--|
--------------------------|--------------------------|


  E  E  E  E  E  E  E  E     E  E  E  E  E  E  E  E      E  E  Q    E  E  Q     
--------------------------|---------------------------|------------------------|
--------------------------|---------------------------|--------9----------9----|
--3--3--3--3--3--3--3--3--|--2--2--2--2--2--2--2--2/--|--7--7-------7--7-------|
--------------------------|---------------------------|------------------------|


  E  E  Q    E  E  Q       E  E  Q    E  E  Q       E  E  E  E  E  E  E  E    
------------------------|------------------------|---------------------------|
--------7----------7----|--------5----------5----|---------------------------|
--5--5-------5--5-------|--3--3-------3--3-------|--2--2--2--2--2--2--2--2/--|
------------------------|------------------------|---------------------------|


  E  E  E  E  E  E  E  E     E  E  E  E  E  E  E  E   
--------------------------|--------------------------|
--------------------------|--------------------------|
--7--7--7--7--7--7--7--7--|--5--5--5--5--5--5--5--5--|
--------------------------|--------------------------|


  E  E  E  E  E  E  E  E     E  E  E  E  E  E  E  E    
--------------------------|---------------------------|
--------------------------|---------------------------|
--3--3--3--3--3--3--3--3--|--2--2--2--2--2--2--2--2/--|
--------------------------|---------------------------|


  E  E  E  E  E  E  E  E     E  E  E  E  E  E  E  E   
--------------------------|--------------------------|
--------------------------|--------------------------|
--7--7--7--7--7--7--7--7--|--5--5--5--5--5--5--5--5--|
--------------------------|--------------------------|


  E  E  E  E  E  E  E  E     E  E  E  E  E  E  E  E   
--------------------------|--------------------------|
--------------------------|--------------------------|
--3--3--3--3--3--3--3--3--|--2--2--2--2--2--2--2--2--|
--------------------------|--------------------------|


  E  E  E  E  E  E  E  E     E  E  E  E  E  E  E  E   
--------------------------|--------------------------|
--------------------------|--------------------------|
--2--2--2--2--2--2--2--2--|--2--2--2--2--2--2--2--2--|
--------------------------|--------------------------|


  E  E  E  E  E  E  E  E     E  E  E  E  E  E  E  E   
--------------------------|--------------------------|
--------------------------|--------------------------|
--2--2--2--2--2--2--2--2--|--7--7--7--7--7--7--7--7--|
--------------------------|--------------------------|


  E  E  E  E  E  E  E  E     E  E  E  E  E  E  E  E   
--------------------------|--------------------------|
--------------------------|--------------------------|
--5--5--5--5--5--5--5--5--|--3--3--3--3--3--3--3--3--|
--------------------------|--------------------------|


  E  E  E  E  E  E  E  E     E  E  E  E  E  E  E  E   
--------------------------|--------------------------|
--------------------------|--------------------------|
--2--2--2--2--2--2--2--2--|--7--7--7--7--7--7--7--7--|
--------------------------|--------------------------|


  E  E  E  E  E  E  E  E     E  E  E  E  E  E  E  E   
--------------------------|--------------------------|
--------------------------|--------------------------|
--5--5--5--5--5--5--5--5--|--3--3--3--3--3--3--3--3--|
--------------------------|--------------------------|


  E  E  E  E  E  E  E  E     E  E  E   E  E  E  E   E   
--------------------------|----------------------------|
--------------------------|-----9--7---------9--7------|
--2--2--2--2--2--2--2--2--|--7--------10--7--------10--|
--------------------------|----------------------------|


  E  E  E  E  E  E  E  E     E  E  E  E  E  E  E  E   
--------------------------|--------------------------|
-----7--5--------7--5-----|-----5--3--------5--3-----|
--5--------7--5--------7--|--3--------5--3--------5--|
--------------------------|--------------------------|


  E  E  E  E  E  E  E  E     E  E  E   E  E  E  E   E   
--------------------------|----------------------------|
--------------------------|-----9--7---------9--7------|
--2--2--2--2--2--2--2--2--|--7--------10--7--------10--|
--------------------------|----------------------------|


  E  E  E  E  E  E  E  E     E  E  E  E  E  E  E  E   
--------------------------|--------------------------|
-----7--5--------7--5-----|-----5--3--------5--3-----|
--5--------7--5--------7--|--3--------5--3--------5--|
--------------------------|--------------------------|


  E  E  E  E  E  E  E  E     E  E  E  E  E  E  E  E   
--------------------------|--------------------------|
--------------------------|--------------------------|
--2--2--2--2--2--2--2--2--|--7--7--7--7--7--7--7--7--|
--------------------------|--------------------------|


  E  E  E  E  E  E  E  E     E  E  E  E  E  E  E  E   
--------------------------|--------------------------|
--------------------------|--------------------------|
--5--5--5--5--5--5--5--5--|--3--3--3--3--3--3--3--3--|
--------------------------|--------------------------|


  E  E  E  E  E  E  E  E     E  E  E  E  E  E  E  E   
--------------------------|--------------------------|
--------------------------|--------------------------|
--2--2--2--2--2--2--2--2--|--7--7--7--7--7--7--7--7--|
--------------------------|--------------------------|


  E  E  E  E  E  E  E  E     E  E  E  E  E  E  E  E   
--------------------------|--------------------------|
--------------------------|--------------------------|
--5--5--5--5--5--5--5--5--|--3--3--3--3--3--3--3--3--|
--------------------------|--------------------------|


  E  E  E  E  E  E  E  E     E  E  Q    E  E  Q       E  E  Q    E  E  Q     
--------------------------|------------------------|------------------------|
--------------------------|--------9----------9----|--------7----------7----|
--2--2--2--2--2--2--2--2--|--7--7-------7--7-------|--5--5-------5--5-------|
--------------------------|------------------------|------------------------|


  E  E  Q    E  E  Q       E  E  E  E  E  E  E  E     E  E  Q    E  E  Q     
------------------------|--------------------------|------------------------|
--------5----------5----|--------------------------|--------9----------9----|
--3--3-------3--3-------|--2--2--2--2--2--2--2--2--|--7--7-------7--7-------|
------------------------|--------------------------|------------------------|


  E  E  Q    E  E  Q       E  E  Q    E  E  Q       E  E  E  E  E  E  E  E    
------------------------|------------------------|---------------------------|
--------7----------7----|--------5----------5----|---------------------------|
--5--5-------5--5-------|--3--3-------3--3-------|--2--2--2--2--2--2--2--2/--|
------------------------|------------------------|---------------------------|


  E  E  E  E  E  E  E  E     E  E  E  E  E  E  E  E   
--------------------------|--------------------------|
--------------------------|--------------------------|
--7--7--7--7--7--7--7--7--|--5--5--5--5--5--5--5--5--|
--------------------------|--------------------------|


  E  E  E  E  E  E  E  E     E  E  E  E  E  E  E  E    
--------------------------|---------------------------|
--------------------------|---------------------------|
--3--3--3--3--3--3--3--3--|--2--2--2--2--2--2--2--2/--|
--------------------------|---------------------------|


  E  E  E  E  E  E  E  E     E  E  E  E  E  E  E  E   
--------------------------|--------------------------|
--------------------------|--------------------------|
--7--7--7--7--7--7--7--7--|--5--5--5--5--5--5--5--5--|
--------------------------|--------------------------|


  E  E  E  E  E  E  E  E       E   E   E   E   E   E   E   E    
--------------------------|------------------------------------|
--------------------------|------------------------------------|
--3--3--3--3--3--3--3--3--|--/14--14--14--14--14--14--14--14\--|
--------------------------|------------------------------------|


  E  E  E  E  E  E  E  E     E  E  E  E  E  E  E  E     H        Q.      
--------------------------|--------------------------|------------------|
--------------------------|--------------------------|------------------|
--------------------------|--------------------------|--0--------L------|
--0--2--3--0--2--3--0--2--|--3--0--2--3--0--2--3-----|------------------|


  H.           E  Q       H        Q.        H.           E  Q     
-----------------------|------------------|-----------------------|
-----------------------|------------------|-----------------------|
-----------------------|--0--------L------|-----------------------|
--3------------L--0----|------------------|--3------------L--0----|


  H        Q.        H.           E  Q       H        Q.      
------------------|-----------------------|------------------|
------------------|-----------------------|------------------|
--0--------L------|-----------------------|--0--------L------|
------------------|--3------------L--0----|------------------|


  H.           E  Q       E  E  E  E  E  E  E  E     E  E  E  E  E  E  E  E   
-----------------------|--------------------------|--------------------------|
-----------------------|--------5-----------------|--------5-----------------|
-----------------------|--7--7-----7--5--7--4--5--|--7--7-----7--5--7--4--5--|
--3------------L--0----|--------------------------|--------------------------|


  E  E  E  E  E  E  E  E     E  E  E  E  E  E  E  E   
--------------------------|--------------------------|
--------5-----------------|--------5-----------------|
--7--7-----7--5--7--4--5--|--7--7-----7--5--7--4--5--|
--------------------------|--------------------------|


  E  E  E  E  E  E  E  E     E  E  E  E  E  E  E  E   
--------------------------|--------------------------|
--------5-----------------|--------5-----------------|
--7--7-----7--5--7--4--5--|--7--7-----7--5--7--4--5--|
--------------------------|--------------------------|


  E  E  E  E  E  E  E  E     E  E  E  E  E  E  E  E   
--------------------------|--------------------------|
--------5-----------------|--------5-----------------|
--7--7-----7--5--7--4--5--|--7--7-----7--5--7--4--5--|
--------------------------|--------------------------|


  E  E  E  E  E  E  E  E     E  E  E  E  E  E  E  E   
--------------------------|--------------------------|
--------5-----------------|--------5-----------------|
--7--7-----7--5--7--4--5--|--7--7-----7--5--7--4--5--|
--------------------------|--------------------------|


  E  E  E  E  E  E  E  E     E  E  E  E  E  E  E  E   
--------------------------|--------------------------|
--------5-----------------|--------5-----------------|
--7--7-----7--5--7--4--5--|--7--7-----7--5--7--4--5--|
--------------------------|--------------------------|


  E  E  E  E  E  E  E  E     W                                      
--------------------------|-------------------|-------------------||
--------5-----------------|-------------------|-------------------||
--7--7-----7--5--7--4--5--|--7----------------|-------------------||
--------------------------|-------------------|-------------------||




Duration Legend
---------------
W - whole
H - half
Q - quarter
E - 8th
S - 16th
T - 32nd
X - 64th
. - note dotted
|-n-|  - n-tuplets


Tablature Legend
----------------
L - tied note
x - dead note
g - grace note
(n) - ghost note
> - accentuded note
NH - natural harmonic
AH - artificial harmonic
TH - tapped harmonic
SH - semi harmonic
PH - pitch harmonic
h - hammer on
p - pull off
b - bend
br - bendRelease
pb - preBend
pbr - preBendRelease
brb - bendReleaseBend
\n/ - tremolo bar dip
\n - tremolo bar dive
-/n - tremolo bar Release up
/n\ - tremolo bar inverted dip
/n - tremolo bar return
-\n - tremolo bar Release down
S - shift slide
s - legato slide
/ -  slide into from below or out of upwards
\ -  slide into from above or out of downwards
~ - vibrato
W - wide vibrato
tr - trill
TP - tremolo picking
T - tapping
S - slap
P - pop
< - fade in
^ - brush up
v - brush down
comments
We did not receive enough feedback on this tab! Please rate:
print report bad tab
1 2 3 4 5
I want to post or [tab]
guest
You may want to rate the tab now too:
select rating
Please do not post tabs as comments. Select "correction" instead!