Oops, an error
Loading. Please wait.

Twilight Tab

by U2
ver1
ver1

Whole song

Interactive

More versions @911Tabs.com
4,461 views 33 this week
no commentswrite comment
1 2 3 4 5
excellent!
x 1
Autoscroll
+/-
esc
set tempo
stop
Contributor
Hey! There's an official Ultimate Guitar app which is ideal
for learning songs when you're away from computer. Get the app
WARNING: You are trying to view
                                    content from Ultimate-Guitar.com
                                    in an unauthorized application,
                                    which is prohibited.

                                    Please use an official Ultimate
                                    Guitar Tabs application for iPhone,
                                    iPad or Android to access legitimate
                                    chords, guitar, bass, and drum tabs
                                    from Ultimate-Guitar.com database.

                                    Type "ultimate guitar tabs" in Apple
                                    App Store's or Android Market's
                                    search to find the application.
                     PM PM       PM PM    PM PM    PM  
      Q    Q    Q    E  E     E  E  E  E  E  E  E  E   
D#||-----------------------|--0--------5--------0-----|
A#||--------------------3--|--------3--------3--------|
F#||-----------------4-----|-----4--------4--------4--|
C#||-----------------------|--------------------------|
G#||-----------------------|--------------------------|
D#||-----------------------|--------------------------|


  PM    PM PM    PM PM       PM PM    PM PM    PM PM  
  E  E  E  E  E  E  E  E     E  E  E  E  E  E  E  E   
-----5--------0--------5--|--------0--------5--------|
--3--------3--------3-----|-----3--------3--------3--|
--------4--------4--------|--4--------4--------4-----|
--------------------------|--------------------------|
--------------------------|--------------------------|
--------------------------|--------------------------|


     PM PM    PM PM    PM    PM    PM PM    PM PM     
  E  E  E  E  E  E  E  E     E  E  E  E  E  E  E  E   
--0--------5--------0-----|-----5--------0--------5--|
--------3--------3--------|--3--------3--------3-----|
-----4--------4--------4--|--------4--------4--------|
--------------------------|--------------------------|
--------------------------|--------------------------|
--------------------------|--------------------------|


  PM PM    PM PM    PM PM       PM PM    PM PM    PM  
  E  E  E  E  E  E  E  E     E  E  E  E  E  E  E  E   
--------0--------5--------|--0--------5--------0-----|
-----3--------3--------3--|--------3--------3--------|
--4--------4--------4-----|-----4--------4--------4--|
--------------------------|--------------------------|
--------------------------|--------------------------|
--------------------------|--------------------------|


  PM    PM PM    PM PM       PM PM    PM PM    PM PM  
  E  E  E  E  E  E  E  E     E  E  E  E  E  E  E  E   
-----5--------0--------5--|--------0--------5--------|
--3--------3--------3-----|-----3--------3--------3--|
--------4--------4--------|--4--------4--------4-----|
--------------------------|--------------------------|
--------------------------|--------------------------|
--------------------------|--------------------------|


     PM PM    PM PM    PM    PM    PM PM    PM PM     
  E  E  E  E  E  E  E  E     E  E  E  E  E  E  E  E   
--0--------5--------0-----|-----5--------0--------5--|
--------3--------3--------|--3--------3--------3-----|
-----4--------4--------4--|--------4--------4--------|
--------------------------|--------------------------|
--------------------------|--------------------------|
--------------------------|--------------------------|


  PM PM    PM PM    PM PM       PM PM    PM PM    PM  
  E  E  E  E  E  E  E  E     E  E  E  E  E  E  E  E   
--------0--------5--------|--0--------5--------0-----|
-----3--------3--------3--|--------3--------3--------|
--4--------4--------4-----|-----4--------4--------4--|
--------------------------|--------------------------|
--------------------------|--------------------------|
--------------------------|--------------------------|


  PM    PM PM    PM PM       PM PM    PM PM    PM PM  
  E  E  E  E  E  E  E  E     E  E  E  E  E  E  E  E   
-----5--------0--------5--|--------0--------5--------|
--3--------3--------3-----|-----3--------3--------3--|
--------4--------4--------|--4--------4--------4-----|
--------------------------|--------------------------|
--------------------------|--------------------------|
--------------------------|--------------------------|


     PM PM    PM PM    PM    PM    PM PM    PM PM     
  E  E  E  E  E  E  E  E     E  E  E  E  E  E  E  E   
--0--------5--------0-----|-----5--------0--------5--|
--------3--------3--------|--3--------3--------3-----|
-----4--------4--------4--|--------4--------4--------|
--------------------------|--------------------------|
--------------------------|--------------------------|
--------------------------|--------------------------|


  PM PM    PM PM    PM                                      PM    PM PM PM  
  E  E  E  E  E  E  E  E     Q    Q.     Q.        E  E  E  E  E  E  E  E   
--------0--------5-----0--|--L----5------0------|--------------------------|
-----3--------3--------0--|--L----0------0------|--0--8--------------------|
--4--------4--------4-----|---------------------|--0--9-----9-----9--9--9--|
--------------------------|---------------------|--------------------------|
--------------------------|---------------------|--------------------------|
--------------------------|---------------------|--------------------------|


             PM     PM  PM  PM             PM    PM PM PM  
  E   E  E   E  E   E   E   E     E  E  E  E  E  E  E  E   
-------------------------------|--0--7--------------------|
--0--10------------------------|--0--8-----8-----8--8--8--|
--0--11-----11-----11--11--11--|--------------------------|
-------------------------------|--------------------------|
-------------------------------|--------------------------|
-------------------------------|--------------------------|


                                      PM    PM PM PM  
  E   Q     Q     E  Q       E  E  E  E  E  E  E  E   
--0--------12-------------|--------------------------|
--0--10----------10-------|--0--8--------------------|
---------------------9----|--0--9-----9-----9--9--9--|
--------------------------|--------------------------|
--------------------------|--------------------------|
--------------------------|--------------------------|


             PM     PM  PM  PM             PM    PM PM PM  
  E   E  E   E  E   E   E   E     E  E  E  E  E  E  E  E   
-------------------------------|--0--7--------------------|
--0--10------------------------|--0--8-----8-----8--8--8--|
--0--11-----11-----11--11--11--|--------------------------|
-------------------------------|--------------------------|
-------------------------------|--------------------------|
-------------------------------|--------------------------|


                              PM PM    PM PM    PM PM  
  E   Q    E   Q     Q        E  E  E  E  E  E  E  E   
--0---8----0--10----10\----|--------0--------5--------|
--0--10----0--12----12\----|-----3--------3--------3--|
---------------------------|--4--------4--------4-----|
---------------------------|--------------------------|
---------------------------|--------------------------|
---------------------------|--------------------------|


     PM PM    PM PM    PM    PM    PM PM    PM PM                          
  E  E  E  E  E  E  E  E     E  E  E  E  E  E  E  E     Q    H.            
--0--------5--------0-----|-----5--------0--------5--|--L----0------------|
--------3--------3--------|--3--------3--------3--0--|--L----0------------|
-----4--------4--------4--|--------4--------4--------|--------------------|
--------------------------|--------------------------|--------------------|
--------------------------|--------------------------|--------------------|
--------------------------|--------------------------|--------------------|


           PM    PM PM PM               PM     PM  PM  PM  
  E  E  E  E  E  E  E  E     E   E  E   E  E   E   E   E   
--------------------------|-------------------------------|
--0--8--------------------|--0--10------------------------|
--0--9-----9-----9--9--9--|--0--11-----11-----11--11--11--|
--------------------------|-------------------------------|
--------------------------|-------------------------------|
--------------------------|-------------------------------|


           PM    PM PM PM                             
  E  E  E  E  E  E  E  E     E   Q     Q     E  Q     
--0--7--------------------|--0--------12-------------|
--0--8-----8-----8--8--8--|--0--10----------10-------|
--------------------------|---------------------9----|
--------------------------|--------------------------|
--------------------------|--------------------------|
--------------------------|--------------------------|


           PM    PM PM PM               PM     PM  PM  PM  
  E  E  E  E  E  E  E  E     E   E  E   E  E   E   E   E   
--------------------------|-------------------------------|
--0--8--------------------|--0--10------------------------|
--0--9-----9-----9--9--9--|--0--11-----11-----11--11--11--|
--------------------------|-------------------------------|
--------------------------|-------------------------------|
--------------------------|-------------------------------|


           PM    PM PM PM                              
  E  E  E  E  E  E  E  E     E   Q    E   Q     Q      
--0--7--------------------|--0---8----0--10----10\----|
--0--8-----8-----8--8--8--|--0--10----0--12----12\----|
--------------------------|---------------------------|
--------------------------|---------------------------|
--------------------------|---------------------------|
--------------------------|---------------------------|


  PM PM    PM PM    PM PM       PM PM    PM PM    PM  
  E  E  E  E  E  E  E  E     E  E  E  E  E  E  E  E   
--------0--------5--------|--0--------5--------0-----|
-----3--------3--------3--|--------3--------3--------|
--4--------4--------4-----|-----4--------4--------4--|
--------------------------|--------------------------|
--------------------------|--------------------------|
--------------------------|--------------------------|


  PM    PM PM    PM PM                                                   
  E  E  E  E  E  E  E  E     Q    H.              Q    Q    E  E  E  E   
-----5--------0--------5--|--L----0------------|--0----0----0--0--0--2--|
--3--------3--------3--0--|--L----0------------|--5----5----5--5--5--3--|
--------4--------4--------|--------------------|--4----4----4--4--4--2--|
--------------------------|--------------------|------------------------|
--------------------------|--------------------|------------------------|
--------------------------|--------------------|------------------------|


  E  Q    Q    E  E  E       Q     Q     E   E   E   E   
-----0----0----0--0--0---|---0-----0-----0---0---0---0--|
-----3----3----3--3--3/--|--13----13----13--13--13--12--|
-----2----2----2--2--2/--|--12----12----12--12--12--11--|
-------------------------|------------------------------|
-------------------------|------------------------------|
-------------------------|------------------------------|


  E   E   Q     E   E   E   E      Q    Q    E  E  E  E   
------0---0-----0---0---0---0---|--0----0----0--0--0--2--|
-----12--12----12--12--12--12\--|--5----5----5--5--5--3--|
-----11--11----11--11--11--11\--|--4----4----4--4--4--2--|
--------------------------------|------------------------|
--------------------------------|------------------------|
--------------------------------|------------------------|


  E  Q    Q    E  E  E       Q     Q     E   E   E   E   
-----0----0----0--0--0---|---0-----0-----0---0---0---0--|
-----3----3----3--3--3/--|--13----13----13--13--13--12--|
-----2----2----2--2--2/--|--12----12----12--12--12--11--|
-------------------------|------------------------------|
-------------------------|------------------------------|
-------------------------|------------------------------|


  E   E   Q     E   E   E   E      E  E  E  E  E  E  E  E   
------0---0-----0---0---0---0---|--------------------------|
-----12--12----12--12--12--12\--|--------------------------|
-----11--11----11--11--11--11\--|--------------------------|
--------------------------------|--------------------------|
--------------------------------|--------------------------|
--------------------------------|--0--2--3--0--2--3--0--2--|


  E  E  E  E  E  E  E  E     H        Q.        W                E   
--------------------------|--0--------L------|--3----------------L--|
--------------------------|--2--------L------|--0----------------L--|
--------------------------|--2--------L------|--0----------------L--|
--------------------------|--2--------L------|--0----------------L--|
--------------------------|--0--------L------|--2----------------L--|
--3--0--2--3--0--2--3-----|------------------|--3-------------------|


  H        Q.        W                E     H        Q.      
--0--------L------|--3----------------L--|--0--------L------|
--2--------L------|--0----------------L--|--2--------L------|
--2--------L------|--0----------------L--|--2--------L------|
--2--------L------|--0----------------L--|--2--------L------|
--0--------L------|--2----------------L--|--0--------L------|
------------------|--3-------------------|------------------|


  W                E     H        Q.        W                E               
--3----------------L--|--0--------L------|--3----------------L--|-----|-----|
--0----------------L--|--2--------L------|--0----------------L--|-----|-----|
--0----------------L--|--2--------L------|--0----------------L--|-----|-----|
--0----------------L--|--2--------L------|-------------------L--|-----|-----|
--2----------------L--|--0--------L------|--2----------------L--|-----|-----|
--3-------------------|------------------|--3-------------------|-----|-----|


                                          E  E  E  H        E   
-------------------|-------------------|-----------------------|
-------------------|-------------------|--x--x--x--x--------x--|
-------------------|-------------------|--x--x--x--x--------x--|
-------------------|-------------------|--x--x--x--x--------x--|
-------------------|-------------------|-----------------------|
-------------------|-------------------|-----------------------|


  E  E  E  E  E  E  E  E     E  E  E  E  E  E  E  E   
--------------------------|--------------------------|
--x--x--x--x--x--x--x--x--|--8--x--0--8--x--x--x--x--|
--x--x--x--x--x--x--x--x--|--9--x--0--9--x--x--x--x--|
--x--x--x--x--x--x--x--x--|--------------------------|
--------------------------|--------------------------|
--------------------------|--------------------------|


        PM PM PM PM PM PM          PM PM PM PM PM PM  
  E  E  E  E  E  E  E  E     E  E  E  E  E  E  E  E   
--7--5--5--5--5--5--5--5--|--0--7--7--7--7--7--7--7--|
--8--7--7--7--7--7--7--7--|--0--8--8--8--8--8--8--8--|
--------------------------|--------------------------|
--------------------------|--------------------------|
--------------------------|--------------------------|
--------------------------|--------------------------|


  E   E  E   Q    E  E  E     E  E  E  E  E  E  E  E   
--0---8--0--10----0--0--0--|--------------------------|
--0--10--0--12----0--0--0--|--0--0--8--0--0--8--0--0--|
---------------------------|--0--0--9--0--0--9--0--0--|
---------------------------|--------------------------|
---------------------------|--------------------------|
---------------------------|--------------------------|


   E  E  E   E  E  E   E  E      E   E   E   E   E   E   E   E   
-----------------------------|----------------------------------|
--10--0--0--10--0--0--10--0--|--12--12--12--12--12--12--12--12--|
--11--0--0--11--0--0--11--0--|--12--12--12--12--12--12--12--12--|
-----------------------------|----------------------------------|
-----------------------------|----------------------------------|
-----------------------------|----------------------------------|


   E   E  E   E  E   E  Q       Q    E  S Q     S E  E   
-----------------------------|--7----7--7-7\------x-----|
--13--13--0--15-----15--0----|--8----8--8-8\------x--x--|
--14--14--0--16-----16--0----|--7----7--7-7\------x--x--|
-----------------------------|--------------------------|
-----------------------------|--------------------------|
-----------------------------|--------------------------|


  E.  E.  Q.      E  E     E  E  E  E  Q     E  E     E  E  E  Q.      E  E   
--7---7---7\------x-----|--5--5-----5--5\----x-----|--4--4-----4\------x-----|
--8---8---8\------x--x--|--6--6-----6--6\----x--x--|--5--5-----5\------x--x--|
--7---5---7\------x--x--|--5--4-----5--4\----x--x--|--4--4-----4\------x--x--|
------------------------|--------------------------|-------------------------|
------------------------|--------------------------|-------------------------|
------------------------|--------------------------|-------------------------|


  E  E  E  Q.      Q       E  E  E  Q.      E  E     E  E  E  S E  E.   E  E   
--7--7--7--7\-----------|--7--7-----7\------x-----|--5--5--5--5-5--5\---x-----|
--8--8--8--8\------x----|--8--8-----8\------x--x--|--6--6--6--6-6--6\---x--x--|
--7--7--7--7\------x----|--7--7-----7\------x--x--|--5--5--5--5-5--5\---x--x--|
------------------------|-------------------------|---------------------------|
------------------------|-------------------------|---------------------------|
------------------------|-------------------------|---------------------------|


  E  Q    E  E  Q    E     E  Q    E  E  Q    E     E  E  E  E  E  E  E  E   
-----0------------------|------------------------|-----0--0--0--0--0--0--0--|
-------------4----------|--4--4-------4--4-------|--4--4--4--4--4--4--4--4--|
----------4-----4-------|--4--4-------4--4-------|--4--4--4--4--4--4--4--4--|
------------------------|------------------------|--------------------------|
--2------------------2--|----------2----------2--|--------------------------|
------------------------|------------------------|--------------------------|


                             Chorus                                             
  E  E  E  E  E  E  E  E     Q      Q    E  E  E  E     E  Q    Q    E  E  E    
--0--0--0--0--0--0--0--0--|--0------0----0--0--0--2--|-----0----0----0--0--0/--|
--4--4--4--4--4--4--4--4--|--5------5----5--5--5--3--|-----3----3----3--3--3/--|
--4--4--4--4--4--4--4--4--|--4------4----4--4--4--2--|-----2----2----2--2--2/--|
--------------------------|--------------------------|-------------------------|
--------------------------|--------------------------|-------------------------|
--------------------------|--------------------------|-------------------------|


   E   E   E   E   E   E   E   E      E   E   E   E   E   E   E   E    
---0---0---0---0---0---0---0---0--|---0---0---0---0---0---0---0---0---|
--13--13--13--13--13--13--13--12--|--12--12--12--12--12--12--12--12\--|
--12--12--12--12--12--12--12--11--|--11--11--11--11--11--11--11--11\--|
----------------------------------|-----------------------------------|
----------------------------------|-----------------------------------|
----------------------------------|-----------------------------------|


  Q    Q    E  E  E  E     E  Q    Q    E  E  E    
--0----0----0--0--0--2--|-----0----0----0--0--0/--|
--5----5----5--5--5--3--|-----3----3----3--3--3/--|
--4----4----4--4--4--2--|-----2----2----2--2--2/--|
------------------------|-------------------------|
------------------------|-------------------------|
------------------------|-------------------------|


   E   E   E   E   E   E   E   E      E   E   E   E   E   E   E   E    
---0---0---0---0---0---0---0---0--|---0---0---0---0---0---0---0---0---|
--13--13--13--13--13--13--13--12--|--12--12--12--12--12--12--12--12\--|
--12--12--12--12--12--12--12--11--|--11--11--11--11--11--11--11--11\--|
----------------------------------|-----------------------------------|
----------------------------------|-----------------------------------|
----------------------------------|-----------------------------------|


  Q    Q    E  E  E  E     E  Q    Q    E  E  E    
--0----0----0--0--0--2--|-----0----0----0--0--0/--|
--5----5----5--5--5--3--|-----3----3----3--3--3/--|
--4----4----4--4--4--2--|-----2----2----2--2--2/--|
------------------------|-------------------------|
------------------------|-------------------------|
------------------------|-------------------------|


   E   E   E   E   E   E   E   E      E   E   E   E   E   E   E   E    
---0---0---0---0---0---0---0---0--|---0---0---0---0---0---0---0---0---|
--13--13--13--13--13--13--13--12--|--12--12--12--12--12--12--12--12\--|
--12--12--12--12--12--12--12--11--|--11--11--11--11--11--11--11--11\--|
----------------------------------|-----------------------------------|
----------------------------------|-----------------------------------|
----------------------------------|-----------------------------------|


  Q    Q    E  E  E  E     E  Q    Q    E  E  E    
--0----0----0--0--0--2--|-----0----0----0--0--0/--|
--5----5----5--5--5--3--|-----3----3----3--3--3/--|
--4----4----4--4--4--2--|-----2----2----2--2--2/--|
------------------------|-------------------------|
------------------------|-------------------------|
------------------------|-------------------------|


   E   E   E   E   E   E   E   E      E   E   E   E   E   E   E   E    
---0---0---0---0---0---0---0---0--|---0---0---0---0---0---0---0---0---|
--13--13--13--13--13--13--13--12--|--12--12--12--12--12--12--12--12\--|
--12--12--12--12--12--12--12--11--|--11--11--11--11--11--11--11--11\--|
----------------------------------|-----------------------------------|
----------------------------------|-----------------------------------|
----------------------------------|-----------------------------------|


  Play random artificial harmonics on that part                      
  Q                                             Q     Q      Q       
--------------------------------------------------------------------|
--------------------------------------------------------------------|
--7b--------------------------------------------7b----7br----7br----|
--------------------------------------------------------------------|
--------------------------------------------------------------------|
--------------------------------------------------------------------|


                PH               
  Q     Q       Q        Q       
--------------------------------|
--------------------------------|
--7b----7b----<>7br----<>7br----|
--------------------------------|
--------------------------------|
--------------------------------|


  accentuate on the ends of odd measures                      
  Q                                      Q     Q      Q       
-------------------------------------------------------------|
-------------------------------------------------------------|
--7b-------------------------------------7b----7br----7br----|
-------------------------------------------------------------|
-------------------------------------------------------------|
-------------------------------------------------------------|


  Q     Q       Q        Q       
--------------------------------|
--------------------------------|
--7b----7b----<>7br----<>7br----|
--------------------------------|
--------------------------------|
--------------------------------|


  accentuate on the ends of odd measures                      
  Q                                      Q     Q      Q       
-------------------------------------------------------------|
-------------------------------------------------------------|
--7b-------------------------------------7b----7br----7br----|
-------------------------------------------------------------|
-------------------------------------------------------------|
-------------------------------------------------------------|


  Q     Q       Q        Q         Q     Q     Q      Q       
--------------------------------|----------------------------|
--------------------------------|----------------------------|
--7b----7b----<>7br----<>7br----|--9b----9b----9br----9br----|
--------------------------------|----------------------------|
--------------------------------|----------------------------|
--------------------------------|----------------------------|


   Q.      Q.     E  E      E  E  E   E  E  E   E  E   
------------------0--0--|--15--0--0--12--0--0--17--0--|
------------------------|-----------------------------|
--14------12------------|-----------------------------|
------------------------|-----------------------------|
------------------------|-----------------------------|
------------------------|-----------------------------|


  E   E  E   E  E   E  E   E     E   E  E   E  E  E  E  E   
--0--15--0--19--0--15--0--17--|--0--14--0--12--0--0--0--0--|
------------------------------|----------------------------|
------------------------------|----------------------------|
------------------------------|----------------------------|
------------------------------|----------------------------|
------------------------------|----------------------------|


  E  E  E  E   E  E   E  E      E  E  E   Q     E    E  E   
--9--0--7--0--15--0--12--0--|--15--0--0--12-------------0--|
----------------------------|------------------15S--17-----|
----------------------------|------------------------------|
----------------------------|------------------------------|
----------------------------|------------------------------|
----------------------------|------------------------------|


   E  E   E   E  E   E  E   E      E   Q     E   E   E   E   E   
--17--0------17--0--19--0------|--19--19----20--20--20--20--22--|
---------17----------------17--|--------------------------------|
-------------------------------|--------------------------------|
-------------------------------|--------------------------------|
-------------------------------|--------------------------------|
-------------------------------|--------------------------------|


                                        Chorus                   
      |-----3-----|     3    3  3                                
  E   Q     Q     Q     Q    S  Q       Q      Q    E  E  E  E   
--L--22----22----22----22------22----|--0------0----0--0--0--2--|
-------------------------------------|--5------5----5--5--5--3--|
-------------------------------------|--4------4----4--4--4--2--|
-------------------------------------|--------------------------|
-------------------------------------|--------------------------|
-------------------------------------|--------------------------|


  E  Q    Q    E  E  E       Q     Q     E   E   E   E   
-----0----0----0--0--0---|---0-----0-----0---0---0---0--|
-----3----3----3--3--3/--|--13----13----13--13--13--12--|
-----2----2----2--2--2/--|--12----12----12--12--12--11--|
-------------------------|------------------------------|
-------------------------|------------------------------|
-------------------------|------------------------------|


  E   E   Q     E   E   E   E      Q    Q    E  E  E  E   
------0---0-----0---0---0---0---|--0----0----0--0--0--2--|
-----12--12----12--12--12--12\--|--5----5----5--5--5--3--|
-----11--11----11--11--11--11\--|--4----4----4--4--4--2--|
--------------------------------|------------------------|
--------------------------------|------------------------|
--------------------------------|------------------------|


  E  Q    Q    E  E  E       Q     Q     E   E   E   E   
-----0----0----0--0--0---|---0-----0-----0---0---0---0--|
-----3----3----3--3--3/--|--13----13----13--13--13--12--|
-----2----2----2--2--2/--|--12----12----12--12--12--11--|
-------------------------|------------------------------|
-------------------------|------------------------------|
-------------------------|------------------------------|


  E   E   Q     E   E   E   E      E  E  E  E  E  E  E  E   
------0---0-----0---0---0---0---|--------------------------|
-----12--12----12--12--12--12\--|--------------------------|
-----11--11----11--11--11--11\--|--------------------------|
--------------------------------|--------------------------|
--------------------------------|--------------------------|
--------------------------------|--0--2--3--0--2--3--0--2--|


  E  E  E  E  E  E  E  E     H        Q.        W                E   
--------------------------|--0--------L------|--0----------------L--|
--------------------------|--2--------L------|--0----------------L--|
--------------------------|--2--------L------|--0----------------L--|
--------------------------|--2--------L------|--2----------------L--|
--------------------------|--0--------L------|--2----------------L--|
--3--0--2--3--0--2--3-----|------------------|--0-------------------|


  H        Q.        W                E     H        Q.      
--0--------L------|--0----------------L--|--0--------L------|
--2--------L------|--0----------------L--|--2--------L------|
--2--------L------|--0----------------L--|--2--------L------|
--2--------L------|--2----------------L--|--2--------L------|
--0--------L------|--2----------------L--|--0--------L------|
------------------|--0-------------------|------------------|


  W                E     H        Q.        W                E   
--0----------------L--|--0--------L------|--0----------------L--|
--0----------------L--|--2--------L------|--0----------------L--|
--0----------------L--|--2--------L------|--0----------------L--|
--2----------------L--|--2--------L------|--2----------------L--|
--2----------------L--|--0--------L------|--2----------------L--|
--0-------------------|------------------|--0-------------------|


-------------------|-------------------|-------------------|-------------------|
-------------------|-------------------|-------------------|-------------------|
-------------------|-------------------|-------------------|-------------------|
-------------------|-------------------|-------------------|-------------------|
-------------------|-------------------|-------------------|-------------------|
-------------------|-------------------|-------------------|-------------------|


                                          Q    E  E  E  E   E  E   
-------------------|-------------------|--------------------------|
-------------------|-------------------|--------------------------|
-------------------|-------------------|----------9--9--9\--------|
-------------------|-------------------|--------------------------|
-------------------|-------------------|--------------------------|
-------------------|-------------------|--------------------------|


  PM PM    PM PM    PM PM       PM PM    PM PM    PM  
  E  E  E  E  E  E  E  E     E  E  E  E  E  E  E  E   
--------0--------5--------|--0--------5--------0-----|
-----3--------3--------3--|--------3--------3--------|
--4--------4--------4-----|-----4--------4--------4--|
--------------------------|--------------------------|
--------------------------|--------------------------|
--------------------------|--------------------------|


  PM    PM PM    PM PM       PM PM    PM PM    PM PM                        
  E  E  E  E  E  E  E  E     E  E  E  E  E  E  E  E     Q.     Q.     Q     
-----5--------0--------5--|--------0--------5--------|--0------5------0----|
--3--------3--------3-----|-----3--------3--------3--|--3------3------3----|
--------4--------4--------|--4--------4--------4-----|---------------------|
--------------------------|--------------------------|---------------------|
--------------------------|--------------------------|---------------------|
--------------------------|--------------------------|---------------------|


  E  Q.     Q    Q        W                                      
--L--5------0----5----|--------------------|-------------------||
--L--3------3----3----|--12----------------|-------------------||
----------------------|--12----------------|-------------------||
----------------------|--12----------------|-------------------||
----------------------|--------------------|-------------------||
----------------------|--------------------|-------------------||




Duration Legend
---------------
W - whole
H - half
Q - quarter
E - 8th
S - 16th
T - 32nd
X - 64th
. - note dotted
|-n-|  - n-tuplets


Tablature Legend
----------------
L - tied note
x - dead note
g - grace note
(n) - ghost note
> - accentuded note
NH - natural harmonic
AH - artificial harmonic
TH - tapped harmonic
SH - semi harmonic
PH - pitch harmonic
h - hammer on
p - pull off
b - bend
br - bendRelease
pb - preBend
pbr - preBendRelease
brb - bendReleaseBend
\n/ - tremolo bar dip
\n - tremolo bar dive
-/n - tremolo bar Release up
/n\ - tremolo bar inverted dip
/n - tremolo bar return
-\n - tremolo bar Release down
S - shift slide
s - legato slide
/ -  slide into from below or out of upwards
\ -  slide into from above or out of downwards
~ - vibrato
W - wide vibrato
tr - trill
TP - tremolo picking
T - tapping
S - slap
P - pop
< - fade in
^ - brush up
v - brush down
comments
We did not receive enough feedback on this tab! Please rate:
print report bad tab
1 2 3 4 5
I want to post or [tab]
guest
You may want to rate the tab now too:
select rating
Please do not post tabs as comments. Select "correction" instead!