Oops, an error
Loading. Please wait.

Unknown Caller Bass Tab

by U2
ver1
ver1

Whole song

Interactive

More versions @911Tabs.com
2,232 views 3 this week
no commentswrite comment
1 2 3 4 5
please rate
add to favorites launch autoscroll
font size
0
reset
Autoscroll
+/-
esc
set tempo
stop
Contributor
WARNING: You are trying to view
                                    content from Ultimate-Guitar.com
                                    in an unauthorized application,
                                    which is prohibited.

                                    Please use an official Ultimate
                                    Guitar Tabs application for iPhone,
                                    iPad or Android to access legitimate
                                    chords, guitar, bass, and drum tabs
                                    from Ultimate-Guitar.com database.

                                    Type "ultimate guitar tabs" in Apple
                                    App Store's or Android Market's
                                    search to find the application.
---------------------------------------------|
Song: Unknown Caller	                     |
Artist: U2                                   |
Album: No Line on the Horizon                |
---------------------------------------------|
Tabbed by: Kyle Lords (mystic2kyle@gmail.com)|
---------------------------------------------|

Note: The sections have notes above them, but all sections are tabbed directly beneath.

Intro: 
	
  (Starting at "heavy" part of intro, after vocals start)
G:|----------------|----------------|12------12----------12----------|
D:/5-5-5-5-5-5-5-3-|5-5-5-5-5-5-5-5-|----14------15----------15--\---|
A:|----------------|----------------|--------------------------------|
E:|----------------|----------------|--------------------------------|
   1 + 2 + 3 + 4 +  1 + 2 + 3 + 4 +  1   +   2   +   3   +   4   +    

|----------------|----------------|----------------|----------------|
|----------------/7-7-7-7-7-7-7-7\|----2-------2---|--2-------2-----|
|5-5-5-5-5-5-5-5-|----------------|3-5---3---5---3-|5---3-5-----3---|
|----------------|----------------|----------------|----------------|
 1 + 2 + 3 + 4 +  1 + 2 + 3 + 4 +  1 + 2 + 3 + 4 +  1 + 2 + 3 + 4 +  

|----------------|----------------|12------12----------12----------|
/5-5-5-5-5-5-5-3-|5-5-5-5-5-5-5-5-|----14------15----------15--\---|
|----------------|----------------|--------------------------------|
|----------------|----------------|--------------------------------|
 1 + 2 + 3 + 4 +  1 + 2 + 3 + 4 +  1   +   2   +   3   +   4   +    

|----------------|----------------|----------------|----------------|
|----------------/7-7-7-7-7-7-7-7\|----2-------2---|--2-------2-----|
|5-5-5-5-5-5-5-5-|----------------|3-5---3---5---3-|5---3-5-----3---|
|----------------|----------------|----------------|----------------|
 1 + 2 + 3 + 4 +  1 + 2 + 3 + 4 +  1 + 2 + 3 + 4 +  1 + 2 + 3 + 4 +  

Verse 1:

G:|----------------|----------------|----------------|----------------|
D:|----------------|----------------|----------------|----------------|
A:|----------------|----------------|----------------|----------------|
E:|5-5-5-5-5-5-5-5-|3-3-3-3-3-3-3-3-|1-1-1-1-1-1-1-1-|0-0-0-0-0-0-0-0-|
   1 + 2 + 3 + 4 +  1 + 2 + 3 + 4 +  1 + 2 + 3 + 4 +  1 + 2 + 3 + 4 +  

|----------------|----------------|----------------|----------------|
|----------------|----------------|----------------|----------------|
|----------------|----------------|----------------|8-8-8-8-8-8-8-8-|
|5-5-5-5-5-5-5-5-|3-3-3-3-3-3-3-3-|1-1-1-1-1-1-1-1/|----------------|
 1 + 2 + 3 + 4 +  1 + 2 + 3 + 4 +  1 + 2 + 3 + 4 +  1 + 2 + 3 + 4 +  

|----------------|----------------|----------------|----------------|
|----------------|----------------|----------------|----------------|
|----------------|----------------|----------------|7-7-7-7-7-7-7-7-|
|5-5-5-5-5-5-5-5-|3-3-3-3-3-3-3-3-|1-1-1-1-1-1-1-1/|----------------|
 1 + 2 + 3 + 4 +  1 + 2 + 3 + 4 +  1 + 2 + 3 + 4 +  1 + 2 + 3 + 4 +  

|----------------|----------------|----------------|----------------|
|----------------|----------------|----------------|----------------|
|----------------|----------------|----------------|----------------|
|5-5-5-5-5-5-5-5-|3-3-3-3-3-3-3-3-|1-1-1-1-1-1-1-1-|1-1-1-1-1-1-1-1-|
 1 + 2 + 3 + 4 +  1 + 2 + 3 + 4 +  1 + 2 + 3 + 4 +  1 + 2 + 3 + 4 +  


Chorus 1:

G:|12------12----------12------12--|--------------------------------|
D:|----14------14----------14------|14------------------------------|
A:|--------------------------------|--------------------------------|
E:|--------------------------------|--------------------------------|
   1   +   2   +   3   +   4   +    1   +   2   +   3   +   4   +   

|12------12----------12----------|----------------|----------------|
|----14------14----------15--\---|----------------/7-7-7-7-7-7-7-7\|
|--------------------------------|5-5-5-5-5-5-5-5-|----------------|
|--------------------------------|----------------|----------------|
 1   +   2   +   3   +   4   +    1 + 2 + 3 + 4 +  1 + 2 + 3 + 4 + 

|----------------|----------------|12------12----------12------12--|
|----2-------2---|--2-------2-----|----14------14----------14------|
|3-5---3---5---3-|5---3-5-----3---|--------------------------------|
|----------------|----------------|--------------------------------|
 1 + 2 + 3 + 4 +  1 + 2 + 3 + 4 +  1   +   2   +   3   +   4   +   

|--------------------------------|12------12----------12----------|
|14------------------------------|----14------14----------15--\---|
|--------------------------------|--------------------------------|
|--------------------------------|--------------------------------|
 1   +   2   +   3   +   4   +    1   +   2   +   3   +   4   +   

|----------------|----------------|----------------|----------------|
|----------------/7-7-7-7-7-7-7-7\|----2-------2---|--2-------2-----|
|5-5-5-5-5-5-5-5-|----------------|3-5---3---5---3-|5---3-5-----3---|
|----------------|----------------|----------------|----------------|
 1 + 2 + 3 + 4 +  1 + 2 + 3 + 4 +  1 + 2 + 3 + 4 +  1 + 2 + 3 + 4 +  
 


Verse 2: (For the first part, just play the note and sustain until the
          next. After the slide up, then the 8th notes start again. 
          Remember: I use "~" to mean sustain, not vibrato.)

G:|----------------|----------------|----------------|----------------|
D:|----------------|----------------|----------------|----------------|
A:|----------------|----------------|----------------|----------------|
E:|5~--------------|3~--------------|1~--------------|0~--------------|
   1 + 2 + 3 + 4 +  1 + 2 + 3 + 4 +  1 + 2 + 3 + 4 +  1 + 2 + 3 + 4 +  
                                                    
                                                     
|----------------|----------------|----------------|----------------|
|----------------|----------------|----------------|----------------|
|----------------|----------------|----------------|8-8-8-8-8\------|
|5~--------------|3~--------------|1~------/-------|----------333-4-|
 1 + 2 + 3 + 4 +  1 + 2 + 3 + 4 +  1 + 2 + 3 + 4 +  1 + 2 + 3 + 4 +  

|----------------|----------------|----------------|----------------|
|----------------|----------------|----------------|----------------|
|----------------|----------------|----------------|----------------|
|5-5-5-5-5-5-5-5-|3-3-3-3-3-3-3-3-|1-1-1-1-1-1-1-1-|0-0-0-0-0-0-0-0-|
 1 + 2 + 3 + 4 +  1 + 2 + 3 + 4 +  1 + 2 + 3 + 4 +  1 + 2 + 3 + 4 +  

|----------------|----------------|----------------|----------------|
|----------------|----------------|----------------|----------------|
|----------------|----------------|----------------|8-8-8-8-8-5---8-|
|5-5-5-5-5-5-5-5-|3-3-3-3-3-3-3-3-|1-1-1-1-1-1-1-1/|----------------|
 1 + 2 + 3 + 4 +  1 + 2 + 3 + 4 +  1 + 2 + 3 + 4 +  1 + 2 + 3 + 4 +  

Chorus 2:

G:|12------12----------12------12--|--------------------------------|
D:|----14------14----------14------|14------------------------------|
A:|--------------------------------|--------------------------------|
E:|--------------------------------|--------------------------------|
   1   +   2   +   3   +   4   +    1   +   2   +   3   +   4   +   

|12------12----------12----------|----------------|----------------|
|----14------14----------15--\---|----------------/7-7-7-7-7-7-7-7\|
|--------------------------------|5-5-5-5-5-5-5-5-|----------------|
|--------------------------------|----------------|----------------|
 1   +   2   +   3   +   4   +    1 + 2 + 3 + 4 +  1 + 2 + 3 + 4 + 

|----------------|----------------|12------12----------12------12--|
|----2-------2---|--2-------2-----|----14------14----------14------|
|3-5---3---5---3-|5---3-5-----3---|--------------------------------|
|----------------|----------------|--------------------------------|
 1 + 2 + 3 + 4 +  1 + 2 + 3 + 4 +  1   +   2   +   3   +   4   +   

|--------------------------------|12------12----------12----------|
|14------------------------------|----14------14----------15--\---|
|--------------------------------|--------------------------------|
|--------------------------------|--------------------------------|
 1   +   2   +   3   +   4   +    1   +   2   +   3   +   4   +   

|----------------|----------------|----------------|----------------|
|----------------/7-7-7-5---------|----2-------2---|--2-------2-----|
|5-5-5-5-5-5-5-5-|----------7---5-|3-5---3---5---3-|5---3-5-----3---|
|----------------|----------------|----------------|----------------|
 1 + 2 + 3 + 4 +  1 + 2 + 3 + 4 +  1 + 2 + 3 + 4 +  1 + 2 + 3 + 4 + 

|12--12--12--12--12------12------|12------------------------------|
|--------------------14------14--|----14--------------------------|
|--------------------------------|--------------------------------|
|--------------------------------|--------------------------------|
 1   +   2   +   3   +   4   +    1   +   2   +   3   +   4   +   

|12------12----------12----------|----------------|----------------|
|----14------14----------15--\---|----------------/7-7-7-7-7-7-7\--|
|--------------------------------|5-5-5-5-5-5-5-5-|----------------|
|--------------------------------|----------------|----------------|
 1   +   2   +   3   +   4   +    1 + 2 + 3 + 4 +  1 + 2 + 3 + 4 + 

|----------------|----------------|
|----2-------2---|--2-------2-----|
|3-5---3---5---3-|5---3-5-----3---|
|----------------|----------------|
 1 + 2 + 3 + 4 +  1 + 2 + 3 + 4 +  

Bridge:

G:|12------12----------12----------|12------------------------------|
D:|------------14----------14------|----14------14------------------|
A:|--------------------------------|--------------------------------|
E:|--------------------------------|--------------------------------|
   1   +   2   +   3   +   4   +    1   +   2   +   3   +   4   +    

|12------12----------12----------|12------------------------------|
|----14------14----------14------|----14------14------------------|
|--------------------------------|--------------------------------|
|--------------------------------|--------------------------------|
 1   +   2   +   3   +   4   +    1   +   2   +   3   +   4   +    

|12------12----------12----------|12------------------------------|
|----14------14----------14------|----14------14------------------|
|--------------------------------|--------------------------------|
|--------------------------------|--------------------------------|
 1   +   2   +   3   +   4   +    1   +   2   +   3   +   4   +    

|12------12----------12----------|----------------|----------------|
|----14------14----------14--\---|----------------/7-7-7-7-7-7-7\--|
|--------------------------------|5-5-5-5-5-5-5\--|----------------|
|--------------------------------|----------------|----------------|
 1   +   2   +   3   +   4   +    1 + 2 + 3 + 4 +  1 + 2 + 3 + 4 + 

|5-7-9-5---7-9-5-|7-9-5-7---9-5---|
|----------------|----------------|
|----------------|----------------|
|----------------|----------------|
 1 + 2 + 3 + 4 +  1 + 2 + 3 + 4 + 

Solo/Outro:

G:|----------------|----------------|----------------|----------------|
D:/5-5-5-5-5-5-5-3-|5-5-5-5-5-5-5-3-|5-5-5-5-5-5-5-5-|--------------/-|
A:|----------------|----------------|----------------|5-5-5-5-5-5-5\--|
E:|----------------|----------------|----------------|----------------|
   1 + 2 + 3 + 4 +  1 + 2 + 3 + 4 +  1 + 2 + 3 + 4 +  1 + 2 + 3 + 4 +  

|----------------|----------------|--------5---5---|----------------|
|7-7-7-7-7-7-7---|----------------|----------5---5-|5-5-5-5-5-5-5-3-|
|----------------|3-3---3-----3---|----------------|----------------|
|----------------|----------3---3-|----------------|----------------|
 1 + 2 + 3 + 4 +  1 + 2 + 3 + 4 +  1 + 2 + 3 + 4 +  1 + 2 + 3 + 4 +  

|----------------|----------------|----------------|----------------|
|5-5-5-5-5-5-5-3-|5-5-5-5-5-5-5-5-|----------------/7-7-7-7-7-5-7\--|
|----------------|----------------|5-5-5-5-5-5-5-5-|----------------|
|----------------|----------------|----------------|----------------|
 1 + 2 + 3 + 4 +  1 + 2 + 3 + 4 +  1 + 2 + 3 + 4 +  1 + 2 + 3 + 4 +  

|5-5-5-5-5-3-5---|5-5-5-5-5-3-5---|----------------|----------------|
|--------------5-|--------------5-|5-5-5-5-5-5-5-3-|5-5-5-5-5-5-5-3-|
|----------------|----------------|----------------|----------------|
|----------------|----------------|----------------|----------------|
 1 + 2 + 3 + 4 +  1 + 2 + 3 + 4 +  1 + 2 + 3 + 4 +  1 + 2 + 3 + 4 +  

|----------------|----------------|----------------|5-5-5-5-5-3-5---|
|5-5-5-5-5-5-5-5-|----------------/7-7-7-7-7-7-7\--|--------------5-|
|----------------|5-5-5-5-5-5-5-5-|----------------|----------------|
|----------------|----------------|----------------|----------------|
 1 + 2 + 3 + 4 +  1 + 2 + 3 + 4 +  1 + 2 + 3 + 4 +  1 + 2 + 3 + 4 +  

|5-5-5-5-5-3-5---|----------------|----------------|----------------|
|--------------5-|5-5-5-5-5-5-5-3-|5-5-5-5-5-5-5-3-|5-5-5-5-5-5-5-3-|
|----------------|----------------|----------------|----------------|
|----------------|----------------|----------------|----------------|
 1 + 2 + 3 + 4 +  1 + 2 + 3 + 4 +  1 + 2 + 3 + 4 +  1 + 2 + 3 + 4 +  

|----------------|----------------|----------------|----------------|
|5-5-5-5-5-5-5-3-|5-5-5-5-5-5-5-3-|5-5-5-5-5-5-5-3-|5~--------------|
|----------------|----------------|----------------|----------------|
|----------------|----------------|----------------|----------------|
 1 + 2 + 3 + 4 +  1 + 2 + 3 + 4 +  1 + 2 + 3 + 4 +  1 + 2 + 3 + 4 +  

comments
We did not receive enough feedback on this tab! Please rate:
print report bad tab
1 2 3 4 5
I want to post or [tab]
guest
You may want to rate the tab now too:
select rating
Please do not post tabs as comments. Select "correction" instead!