Oops, an error
Loading. Please wait.

Unknown Caller Tab

by U2
ver1
ver1

Whole song

Interactive

More versions @911Tabs.com
30,100 views 33 this week
1 commentread comment
1 2 3 4 5
excellent!
x 16
add to favorites launch autoscroll
font size
0
reset
Autoscroll
+/-
esc
set tempo
stop
Contributor
WARNING: You are trying to view
                                    content from Ultimate-Guitar.com
                                    in an unauthorized application,
                                    which is prohibited.

                                    Please use an official Ultimate
                                    Guitar Tabs application for iPhone,
                                    iPad or Android to access legitimate
                                    chords, guitar, bass, and drum tabs
                                    from Ultimate-Guitar.com database.

                                    Type "ultimate guitar tabs" in Apple
                                    App Store's or Android Market's
                                    search to find the application.
-------------------------------------------------------------------------------
			     Unknown Caller - U2
-------------------------------------------------------------------------------
Tabbed by: Harry Blunt

Tuning: Standard

Intro:
 (Tabbed for horn)
e|---------------------------------------------------------------------------|
B|---------------------------------------------------------------------------|
G|--0-(hold)-----------------------------------------------------------------|
D|---------------------------------------------------------------------------|
A|---------------------------------------------------------------------------|
E|---------------------------------------------------------------------------|

 (In the background)
e|-7-7-7--5-5-5-5------------------------------------------------------------|
B|---------------------------------------------------------------------------|
G|---------------------------------------------------------------------------|
D|---------------------------------------------------------------------------|
A|---------------------------------------------------------------------------|
E|---------------------------------------------------------------------------|

e|-----10---------10---------10---------10-----------------------------------|
B|---8----8-----8----8-----8----8-----8----10--------------------------------|
G|-0----------0----------0----------0----------------------------------------|
D|---------------------------------------------------------------------------|
A|---------------------------------------------------------------------------|
E|---------------------------------------------------------------------------|

e|-----10-------10----------10------10---------------------------------------|
B|---8----8--------10-----8----8-------10------------------------------------|
G|-0----------0---------9----------------------------------------------------|
D|---------------------------------------------------------------------------|
A|---------------------------------------------------------------------------|
E|---------------------------------------------------------------------------|

e|-----10-------10----------10-------10--------------------------------------|
B|---8----8---8----10-----8----8---8----10-----------------------------------|
G|-0--------------------0----------------------------------------------------|
D|---------------------------------------------------------------------------|
A|---------------------------------------------------------------------------|
E|---------------------------------------------------------------------------|

e|-----10---------10----------10--------10-----------------------------------|
B|---8----8-----8----10-----8----10---8----10--------------------------------|
G|-0----------0-----------0--------------------------------------------------|
D|---------------------------------------------------------------------------|
A|---------------------------------------------------------------------------|
E|---------------------------------------------------------------------------|

		     Sunshine, Sunshine
e|-----10---------10----------10-------10------------------------------------|
B|---8----8-----8----10-----8----8---8----10---------------------------------|
G|-0----------0-----------0--------------------------------------------------|
D|---------------------------------------------------------------------------|
A|---------------------------------------------------------------------------|
E|---------------------------------------------------------------------------|

		     Sunshine, Sunshine
e|-----10---------10----------10-------10------------------------------------|
B|---8----8-----8----10-----8----8---8----10---------------------------------|
G|-0----------0-----------0--------------------------------------------------|
D|---------------------------------------------------------------------------|
A|---------------------------------------------------------------------------|
E|---------------------------------------------------------------------------|


Chorus:

e|-----10---------10---------------------------------------------------------|
B|---8----8-----8----8-------------------------------------------------------|
G|-0----------0--------------------------------------------------------------|
D|---------------------------------------------------------------------------|
A|---------------------------------------------------------------------------|
E|---------------------------------------------------------------------------|

e|--------10------10---------------------------------------------------------|
B|------8-------8------------------------------------------------------------|
G|---10------10-------10-----------------------------------------------------|
D|---------------------------------------------------------------------------|
A|---------------------------------------------------------------------------|
E|---------------------------------------------------------------------------|

  Oh oh oh oh oh oh	   Oh oh oh oh oh oh
e|-------13-------13--------------12-------12--------------------------------|
B|----15-------15--------------13-------13-----------------------------------|
G|-14-------14-------14-----14-------14-------14-----------------------------|
D|---------------------------------------------------------------------------|
A|---------------------------------------------------------------------------|
E|---------------------------------------------------------------------------|

e|--------8------8-----------------------------------------------------------|
B|-----8-------8------------8-----8--8--------8------------------------------|
G|-8h9-------9------9-------9h10--9--9---9h10---10---------------------------|
D|---------------------------------------------------------------------------|
A|---------------------------------------------------------------------------|
E|---------------------------------------------------------------------------|

e|-----10---------10---------------------------------------------------------|
B|---8----8-----8----8-------------------------------------------------------|
G|-0----------0--------------------------------------------------------------|
D|---------------------------------------------------------------------------|
A|---------------------------------------------------------------------------|
E|---------------------------------------------------------------------------|

e|--------10------10---------------------------------------------------------|
B|------8-------8------------------------------------------------------------|
G|---10------10-------10-----------------------------------------------------|
D|---------------------------------------------------------------------------|
A|---------------------------------------------------------------------------|
E|---------------------------------------------------------------------------|

  Oh oh oh oh oh oh	   Oh oh oh oh oh oh
e|-------13-------13--------------12-------12--------------------------------|
B|----15-------15--------------13-------13-----------------------------------|
G|-14-------14-------14-----14-------14-------14-----------------------------|
D|---------------------------------------------------------------------------|
A|---------------------------------------------------------------------------|
E|---------------------------------------------------------------------------|

e|--------8------8-----------------------------------------------------------|
B|-----8-------8------------8-----8--8---8--8--8-----------------------------|
G|-8h9-------9------9-------9h10--9--9---9--9--9-----------------------------|
D|---------------------------------------------------------------------------|
A|---------------------------------------------------------------------------|
E|---------------------------------------------------------------------------|


Verse:

 I was lost             between the midnight
e|---------------------------------------------------------------------------|
B|-10--10-10--8h10---10--10-10--8h10-----------------------------------------|
G|-9---9--9---9------9---9--9---9--------------------------------------------|
D|---------------------------------------------------------------------------|
A|---------------------------------------------------------------------------|
E|---------------------------------------------------------------------------|

 and the dawning
e|---------------------------------------------------------------------------|
B|-10--10-10--10h8----10--10-10--10h8----------------------------------------|
G|-10--10-10--10------9---9--9---9-------------------------------------------|
D|---------------------------------------------------------------------------|
A|---------------------------------------------------------------------------|
E|---------------------------------------------------------------------------|

 In a place		of no consequence
e|---------------------------------------------------------------------------|
B|-10--10-10--8h10---10--10-10--8h10-----------------------------------------|
G|-9---9--9---9------9---9--9---9--------------------------------------------|
D|---------------------------------------------------------------------------|
A|---------------------------------------------------------------------------|
E|---------------------------------------------------------------------------|

 or company
e|---------------------------------------------------------------------------|
B|-10--10-10--10h8----10--10-10--10h8----------------------------------------|
G|-10--10-10--10------10--10-10--10------------------------------------------|
D|---------------------------------------------------------------------------|
A|---------------------------------------------------------------------------|
E|---------------------------------------------------------------------------|

 3:33             when the numbers fell
e|---------------------------------------------------------------------------|
B|-10--10-10--8h10---10--10-10--8h10-----------------------------------------|
G|-9---9--9---9------9---9--9---9--------------------------------------------|
D|---------------------------------------------------------------------------|
A|---------------------------------------------------------------------------|
E|---------------------------------------------------------------------------|

 off the clock face
e|---------------------------------------------------------------------------|
B|-10--10-10--10h8----10--10-10--10h8----------------------------------------|
G|-10--10-10--10------9---9--9---9-------------------------------------------|
D|---------------------------------------------------------------------------|
A|---------------------------------------------------------------------------|
E|---------------------------------------------------------------------------|

 Speed dialling		with no signal
e|---------------------------------------------------------------------------|
B|-10--10-10--8h10---10--10-10--8h10-----------------------------------------|
G|-9---9--9---9------9---9--9---9--------------------------------------------|
D|---------------------------------------------------------------------------|
A|---------------------------------------------------------------------------|
E|---------------------------------------------------------------------------|

 at all
e|---------------------------------------------------------------------------|
B|-10--10-10--10h8----10--10-10--10h8----------------------------------------|
G|-10--10-10--10------10--10-10--10------------------------------------------|
D|---------------------------------------------------------------------------|
A|---------------------------------------------------------------------------|
E|---------------------------------------------------------------------------|


Chorus:

 Go,         shout it out
e|-----10---------10---------------------------------------------------------|
B|---8----8-----8----8-------------------------------------------------------|
G|-0----------0--------------------------------------------------------------|
D|---------------------------------------------------------------------------|
A|---------------------------------------------------------------------------|
E|---------------------------------------------------------------------------|

              Rise up
e|-------10------10----------------------------------------------------------|
B|-----8-------8-------------------------------------------------------------|
G|--10------10-------10------------------------------------------------------|
D|---------------------------------------------------------------------------|
A|---------------------------------------------------------------------------|
E|---------------------------------------------------------------------------|

  Oh oh oh oh oh oh	   Oh oh oh oh oh oh
e|-------13-------13--------------12-------12--------------------------------|
B|----15-------15--------------13-------13-----------------------------------|
G|-14-------14-------14-----14-------14-------14-----------------------------|
D|---------------------------------------------------------------------------|
A|---------------------------------------------------------------------------|
E|---------------------------------------------------------------------------|

            Escape yourself	   and gravity			   
e|--------8------8-----------------------------------------------------------|
B|-----8-------8------------8-----8--8---8--8-8------------------------------|
G|-8h9-------9------9-------9h10--9--9---10-9-10-----------------------------|
D|---------------------------------------------------------------------------|
A|---------------------------------------------------------------------------|
E|---------------------------------------------------------------------------|

e  Hear me, cease to speak that I may speak
e|-----10----------10--------------------------------------------------------|
B|---8----10-----8----8------------------------------------------------------|
G|-0-----------0-------------------------------------------------------------|
D|---------------------------------------------------------------------------|
A|---------------------------------------------------------------------------|
E|---------------------------------------------------------------------------|

           Shush now
e|-------10--------10--------------------------------------------------------|
B|-----8---------8-----------------------------------------------------------|
G|--10--------10-------10----------------------------------------------------|
D|---------------------------------------------------------------------------|
A|---------------------------------------------------------------------------|
E|---------------------------------------------------------------------------|

  Oh oh oh oh oh oh	   Oh oh oh oh oh oh
e|-------13-------13--------------12-------12--------------------------------|
B|----15-------15--------------13-------13-----------------------------------|
G|-14-------14-------14-----14-------14-------14-----------------------------|
D|---------------------------------------------------------------------------|
A|---------------------------------------------------------------------------|
E|---------------------------------------------------------------------------|

 Force quit		   and move to trash	   
e|--------8------8-----------------------------------------------------------|
B|-----8-------8------------8-----8--8--------8------------------------------|
G|-8h9-------9------9-------9h10--9--9---9h10---9----------------------------|
D|---------------------------------------------------------------------------|
A|---------------------------------------------------------------------------|
E|---------------------------------------------------------------------------|


Verse:

 I was right there at the top of the bottom
e|---------------------------------------------------------------------------|
B|---------------------------------------------------------------------------|
G|---------------------------------------------------------------------------|
D|---------------------------------------------------------------------------|
A|---------------------------------------------------------------------------|
E|--5-----3-----1-----0------------------------------------------------------|

 On the edge of the known universe where I wanted to be
e|---------------------------------------------------------------------------|
B|---------------------------------------------------------------------------|
G|---------------------------------------------------------------------------|
D|---------------------------------------------------------------------------|
A|---------------------------------------------------------------------------|
E|--5-----3-----1-----1-1-1-3-3-5--------------------------------------------|

 I had driven to the scene of the accident
e|---------------------------------------------------------------------------|
B|---------------------------------------------------------------------------|
G|---------------------------------------------------------------------------|
D|---------------------------------------------------------------------------|
A|---------------------------------------------------------------------------|
E|---5---7-8---10-12--12h13--12--10--12----10\-------------------------------|

And I sat there, waiting for me
e|---------------------------------------------------------------------------|
B|---------------------------------------------------------------------------|
G|---------------------------------------------------------------------------|
D|---------------------------------------------------------------------------|
A|---------------------------------------------------------------------------|
E|--5---7-8---10-12--12h13--12--13--12--13-12-13-----------------------------|


Chorus:

 Restart and re-boot yourself
e|-----10---------10---------------------------------------------------------|
B|---8----8-----8----8-------------------------------------------------------|
G|-0----------0--------------------------------------------------------------|
D|---------------------------------------------------------------------------|
A|---------------------------------------------------------------------------|
E|---------------------------------------------------------------------------|

              You're free to go
e|-------10------10----------------------------------------------------------|
B|-----8-------8-------------------------------------------------------------|
G|--10------10-------10------------------------------------------------------|
D|---------------------------------------------------------------------------|
A|---------------------------------------------------------------------------|
E|---------------------------------------------------------------------------|

  Oh oh oh oh oh oh	   Oh oh oh oh oh oh
e|-------13-------13--------------12-------12--------------------------------|
B|----15-------15--------------13-------13-----------------------------------|
G|-14-------14-------14-----14-------14-------14-----------------------------|
D|---------------------------------------------------------------------------|
A|---------------------------------------------------------------------------|
E|---------------------------------------------------------------------------|

            Shout for joy	   if you get the chance		   
e|--------8------8-----------------------------------------------------------|
B|-----8-------8------------8-----8--8---8--8-8------------------------------|
G|-8h9-------9------9-------9h10--9--9---10-9-10-----------------------------|
D|---------------------------------------------------------------------------|
A|---------------------------------------------------------------------------|
E|---------------------------------------------------------------------------|

  Password, you enter here
e|-----10----------10--------------------------------------------------------|
B|---8----8------8----8------------------------------------------------------|
G|-0-----------0-------------------------------------------------------------|
D|---------------------------------------------------------------------------|
A|---------------------------------------------------------------------------|
E|---------------------------------------------------------------------------|

            right now
e|-------10--------10--------------------------------------------------------|
B|-----8---------8-----------------------------------------------------------|
G|--10--------10-------10----------------------------------------------------|
D|---------------------------------------------------------------------------|
A|---------------------------------------------------------------------------|
E|---------------------------------------------------------------------------|

  Oh oh oh oh oh oh	   Oh oh oh oh oh oh
e|-------13-------13--------------12-------12--------------------------------|
B|----15-------15--------------13-------13-----------------------------------|
G|-14-------14-------14-----14-------14-------14-----------------------------|
D|---------------------------------------------------------------------------|
A|---------------------------------------------------------------------------|
E|---------------------------------------------------------------------------|

 You know your name		   so punch it in	   
e|--------8------8-----------------------------------------------------------|
B|-----8-------8------------8-----8--8--------8------------------------------|
G|-8h9-------9------9-------9h10--9--9---9h10---9----------------------------|
D|---------------------------------------------------------------------------|
A|---------------------------------------------------------------------------|
E|---------------------------------------------------------------------------|

  Hear me, cease to speak that I may speak
e|-----10----------10--------------------------------------------------------|
B|---8----8------8----8------------------------------------------------------|
G|-0-----------0-------------------------------------------------------------|
D|---------------------------------------------------------------------------|
A|---------------------------------------------------------------------------|
E|---------------------------------------------------------------------------|

            Shush now
e|-------10--------10--------------------------------------------------------|
B|-----8---------8-----------------------------------------------------------|
G|--10--------10-------10----------------------------------------------------|
D|---------------------------------------------------------------------------|
A|---------------------------------------------------------------------------|
E|---------------------------------------------------------------------------|

  Oh oh oh oh oh oh	   Oh oh oh oh oh oh
e|-------13-------13--------------12-------12--------------------------------|
B|----15-------15--------------13-------13-----------------------------------|
G|-14-------14-------14-----14-------14-------14-----------------------------|
D|---------------------------------------------------------------------------|
A|---------------------------------------------------------------------------|
E|---------------------------------------------------------------------------|

 Then don't move	   or say a thing	   
e|--------8------8-----------------------------------------------------------|
B|-----8-------8------------8-----8--8--------8------------------------------|
G|-8h9-------9------9-------9h10--9--9---9h10---9----------------------------|
D|---------------------------------------------------------------------------|
A|---------------------------------------------------------------------------|
E|---------------------------------------------------------------------------|


Bridge:

    Am		
e|--0------------------------------------------------------------------------|
B|--1-----1-----0-----1------------------------------------------------------|
G|--2------------------------------------------------------------------------|
D|--2------------------------------------------------------------------------|
A|--0------------------------------------------------------------------------|
E|---------------------------------------------------------------------------|

(Softly)
e|-----10---------10---------------------------------------------------------|
B|---8----8-----8----8-------------------------------------------------------|
G|-0----------0--------------------------------------------------------------|
D|---------------------------------------------------------------------------|
A|---------------------------------------------------------------------------|
E|---------------------------------------------------------------------------|

e|-------10------10----------------------------------------------------------|
B|-----8-------8-------------------------------------------------------------|
G|--10------10-------10------------------------------------------------------|
D|---------------------------------------------------------------------------|
A|---------------------------------------------------------------------------|
E|---------------------------------------------------------------------------|

e|-------13-------13--------------12-------12--------------------------------|
B|----15-------15--------------13-------13-----------------------------------|
G|-14-------14-------14-----14-------14-------14-----------------------------|
D|---------------------------------------------------------------------------|
A|---------------------------------------------------------------------------|
E|---------------------------------------------------------------------------|

e|--------8------8-----------------------------------------------------------|
B|-----8-------8------------8-----8--8--8--8--8-8----------------------------|
G|-8h9-------9------9-------9h10--10-10-10-10-9-9----------------------------|
D|---------------------------------------------------------------------------|
A|---------------------------------------------------------------------------|
E|---------------------------------------------------------------------------|


Solo:

e|---------------------------------------------------------------------------|
B|--15-15-15-15-15-15--15-15--13--12\----------------------------------------|
G|---------------------------------------------------------------------------|
D|---------------------------------------------------------------------------|
A|---------------------------------------------------------------------------|
E|---------------------------------------------------------------------------|


e|-----------------------13-12-13-13-13-13-----------------------------------|
B|--15-15-15-15-15-15-15-----------------------------------------------------|
G|---------------------------------------------------------------------------|
D|---------------------------------------------------------------------------|
A|---------------------------------------------------------------------------|
E|---------------------------------------------------------------------------|


e|-13-12--------------------------13-12--------------------------------------|
B|-------15--13--15-15b17--15-13--------15--13-13----------------------------|
G|---------------------------------------------------------------------------|
D|---------------------------------------------------------------------------|
A|---------------------------------------------------------------------------|
E|---------------------------------------------------------------------------|


e|------------------15----15-------15----15---15-----------------------------|
B|--12-13-15--12-15----15----15--13--13-----12--12---------------------------|
G|---------------------------------------------------------------------------|
D|---------------------------------------------------------------------------|
A|---------------------------------------------------------------------------|
E|---------------------------------------------------------------------------|


e|------------15----15----15----17----17----17----17-------------------------|
B|---15-15/17----17----17----17----17----17----17----17----------------------|
G|---------------------------------------------------------------------------|
D|---------------------------------------------------------------------------|
A|---------------------------------------------------------------------------|
E|---------------------------------------------------------------------------|


e|---------------------------------------------------------------------------|
B|-17-17-15-15-15-15-13-13-13-13-12--10--8-----------------------------------|
G|---------------------------------------------------------------------------|
D|---------------------------------------------------------------------------|
A|---------------------------------------------------------------------------|
E|---------------------------------------------------------------------------|


e|---------------------------------------------------------------------------|
B|-----10-8--------------------10-8------------------------------------------|
G|---7------7--5-4-5-4-2-0---7-----------------------------------------------|
D|---------------------------------------------------------------------------|
A|---------------------------------------------------------------------------|
E|---------------------------------------------------------------------------|


e|---------------------------------------------------------------------------|
B|---------------------------------------------------------------------------|
G|--2-2-4-4-5-5-7-7--9--9b10r9-7--9-7--9--9b10r9-7--5--7---------------------|
D|--0-0-0-0-0-0-0-0----------------------------------------------------------|
A|---------------------------------------------------------------------------|
E|---------------------------------------------------------------------------|


e|---------------------------------------------------------------------------|
B|---------------------------------------------------------------------------|
G|--9--9b10r9--7---9p7--5-5--------------------------------------------------|
D|---------------------------------------------------------------------------|
A|---------------------------------------------------------------------------|
E|---------------------------------------------------------------------------|


e|---------------------------------------------------------------------------|
B|-----8--------8---------8---------8----------------------------------------|
G|-------7---------7---------7---------7-------------------------------------|
D|--0--------0---------0---------0---------0-(let ring)----------------------|
A|---------------------------------------------------------------------------|
E|---------------------------------------------------------------------------|


| /  slide up
| \  slide down
| h  hammer-on
| p  pull-off
| b  bend

===============================================================================
comments
print report bad tab
1 comment total.
0 reply
Frusciante19 wrote on September 3 2010, 01:33 pm

excellent :)

I want to post or [tab]
guest
You may want to rate the tab now too:
select rating
Please do not post tabs as comments. Select "correction" instead!