Oops, an error
Loading. Please wait.

So Damn Cool Tab

ver2
ver2

Whole song

More versions @911Tabs.com
3,750 views 15 this week
2 commentsread comments
1 2 3 4 5
excellent!
x 4
Autoscroll
+/-
esc
set tempo
stop
Contributor
WARNING: You are trying to view
                                    content from Ultimate-Guitar.com
                                    in an unauthorized application,
                                    which is prohibited.

                                    Please use an official Ultimate
                                    Guitar Tabs application for iPhone,
                                    iPad or Android to access legitimate
                                    chords, guitar, bass, and drum tabs
                                    from Ultimate-Guitar.com database.

                                    Type "ultimate guitar tabs" in Apple
                                    App Store's or Android Market's
                                    search to find the application.
This file is my own work and it represents my interpretation of the song. You can 
only use this file for private study, scholarship, or research.

Band: Ugly Kid Joe

Song: So Damn Cool

Album: America's Least Wanted

Transcribed by CharvelDude94

Email: elliots@fsmail.net


This song is tuned in drop Db, and you need preferably a humbucker
equipped guitar and a high gain amp. The Song structure is complex 
and make sure to listen to the song thoroughly so you know what part you
are playing. Thankyou!


Intro:

Guitar 1

Eb|-------------------|-----------------|
Bb|-------------------|-----------------|
Gb|-------------------|-----------------| x8
Db|--0-0-1-2---0-1-2--|----0-2-0-2-0-3--|
Ab|--0-0-1-2---0-1-2--|----0-2-0-2-0-3--|
Db|--0-0-1-2---0-1-2--|----0-2-0-2-0-3--|


Guitar 2

(Comes in at 0:15)

Eb|-------------------|-----------------|
Bb|-------------------|-----------------|
Gb|-------------------|-----------------| x4
Db|-------------------|-----------------|
Ab|-------------------|-----------------|
Db|--0-0-1-2~--0-1-2~-|----0-2-0-2-0-3~-|


Guitar 1

(0:28 - 0:30)

Eb|-------------------|
Bb|-------------------|
Gb|-------------------| x1
Db|----0-1-2----------|
Ab|----0-1-2----------|
Db|----0-1-2----------|



Verse 1:

Guitars 1 and 2

Eb|-------------------|-----------------|
Bb|-------------------|-----------------|
Gb|-------------------|-----------------| x4
Db|--0-0-1-2---0-1-2--|----0-2-0-2-0-3--|
Ab|--0-0-1-2---0-1-2--|----0-2-0-2-0-3--|
Db|--0-0-1-2---0-1-2--|----0-2-0-2-0-3--|


Guitars 1 and 2

(At 0:45)

Eb|-------------------|-----------------|
Bb|-------------------|-----------------|
Gb|-------------------|-----------------| x3
Db|--0-0-1-2~--0-1-2~-|----0-2-0-2-0-3~-|
Ab|--0-0-1-2~--0-1-2~-|----0-2-0-2-0-3~-|
Db|--0-0-1-2~--0-1-2~-|----0-2-0-2-0-3~-|



Chorus 1:

Guitars 1 and 2

Eb|-------------------|-----------------|
Bb|-------------------|-----------------|
Gb|-------------------|-----------------| x1
Db|--7~------------5~-|-----------------|
Ab|--7~------------5~-|-----------------|
Db|--7~------------5~-|-----------------|

Then...

Guitar 1

Eb|-------------------|-----------------|
Bb|-------------------|-----------------|
Gb|-------------------|-----------------| x2
Db|--0-0-1-2---0-1-2--|----0-2-0-2-0-3--|
Ab|--0-0-1-2---0-1-2--|----0-2-0-2-0-3--|
Db|--0-0-1-2---0-1-2--|----0-2-0-2-0-3--|


Guitar 2

Eb|-------------------|-----------------|
Bb|-------------------|-----------------|
Gb|-------------------|-----------------| x2
Db|-------------------|-----------------|
Ab|-------------------|-----------------|
Db|--0-0-1-2~--0-1-2~-|----0-2-0-2-0-3~-|



Verse 2:

Guitars 1 and 2

Eb|-------------------|-----------------|
Bb|-------------------|-----------------|
Gb|-------------------|-----------------| x4
Db|--0-0-1-2---0-1-2--|----0-2-0-2-0-3--|
Ab|--0-0-1-2---0-1-2--|----0-2-0-2-0-3--|
Db|--0-0-1-2---0-1-2--|----0-2-0-2-0-3--|


Guitars 1 and 2

(At 1:23)

Eb|-------------------|-----------------|
Bb|-------------------|-----------------|
Gb|-------------------|-----------------| x3
Db|--0-0-1-2~--0-1-2~-|----0-2-0-2-0-3~-|
Ab|--0-0-1-2~--0-1-2~-|----0-2-0-2-0-3~-|
Db|--0-0-1-2~--0-1-2~-|----0-2-0-2-0-3~-|



Chorus 2:

Guitars 1 and 2

Eb|-------------------|-----------------|
Bb|-------------------|-----------------|
Gb|-------------------|-----------------| x1
Db|--7~------------5~-|-----------------|
Ab|--7~------------5~-|-----------------|
Db|--7~------------5~-|-----------------|

Then...

Guitar 1

Eb|-------------------|-----------------|
Bb|-------------------|-----------------|
Gb|-------------------|-----------------| x4
Db|--0-0-1-2---0-1-2--|----0-2-0-2-0-3--|
Ab|--0-0-1-2---0-1-2--|----0-2-0-2-0-3--|
Db|--0-0-1-2---0-1-2--|----0-2-0-2-0-3--|


Guitar 2

Eb|-------------------|-----------------|
Bb|-------------------|-----------------|
Gb|-------------------|-----------------| x4
Db|-------------------|-----------------|
Ab|-------------------|-----------------|
Db|--0-0-1-2~--0-1-2~-|----0-2-0-2-0-3~-|



Bridge 1:

Guitars 1 and 2

Eb|-------------------|-----------------| 
Bb|-------------------|-----------------|
Gb|-------------------|-----------------|
Db|--7---7---7-7-7-5--|---5-5---5-5-5---|
Ab|--7---7---7-7-7-5--|---5-5---5-5-5---|
Db|--7---7---7-7-7-5--|---5-5---5-5-5---|
                                           
                                               
Eb|-------------------|-----------------|
Bb|-------------------|-----------------|
Gb|--7---7---7-7-7----|-----------------| x3
Db|--7---7---7-7-7-5--|---7-7---7-7-7---|
Ab|--5---5---5-5-5-5--|---7-7---7-7-7---|
Db|----------------5--|---7-7---7-7-7---|

Then...

Guitars 1 and 2

Eb|-------------------|-----------------| 
Bb|-------------------|-----------------|
Gb|-------------------|-----------------|
Db|--7---7---7-7-7-5--|---5-5---5-5-5---|
Ab|--7---7---7-7-7-5--|---5-5---5-5-5---|
Db|--7---7---7-7-7-5--|---5-5---5-5-5---|



Eb|-------------------------|----------------------|
Bb|-------------------------|----------------------|
Gb|--12---12---12-12-12-14--|---14-14---14-14-14---|  x1
Db|--12---12---12-12-12-14--|---14-14---14-14-14---|
Ab|--10---10---10-10-10-12--|---12-12---12-12-12---|
Db|-------------------------|----------------------|



Pre-solo:

Guitar 1

Eb|-------------------|-----------------|
Bb|-------------------|-----------------|
Gb|--2-2-3-4~--2-3-4~-|----2-4-2-4-2-5~-|  
Db|-------------------|-----------------|
Ab|--0-0-1-2~--0-1-2~-|----0-2-0-2-0-3~-|
Db|-------------------|-----------------|


Eb|-------------------|------------------|
Bb|-------------------|------------------|
Gb|--7-7-8-9~--7-8-9~-|----7-9-7-9-7-10~-|  
Db|-------------------|------------------|
Ab|--5-5-6-7~--5-6-7~-|----5-7-5-7-5-8~--|
Db|-------------------|------------------|


Eb|--------------------------|-----------------------|
Bb|--------------------------|-----------------------|
Gb|--14-14-15-16~--14-15-16~-|----14-16-14-16-14-17~-| 
Db|--------------------------|-----------------------|
Ab|--12-12-13-14~--12-13-14~-|----12-14-12-14-12-15~-|
Db|--------------------------|-----------------------|


Eb|--------------------------|-----------------------|
Bb|--------------------------|-----------------------|
Gb|--19-19-20-21~--19-20-21~-|----19-21-19-21-19-22~-| 
Db|--------------------------|-----------------------|
Ab|--17-17-18-19~--17-18-19~-|----17-19-17-19-17-20~-|
Db|--------------------------|-----------------------|


Guitar 2

Eb|-------------------|-----------------|
Bb|-------------------|-----------------|
Gb|-------------------|-----------------| x4
Db|--0-0-1-2~--0-1-2~-|----0-2-0-2-0-3~-|
Ab|--0-0-1-2~--0-1-2~-|----0-2-0-2-0-3~-|
Db|--0-0-1-2~--0-1-2~-|----0-2-0-2-0-3~-|



Solo:

Guitar 1

Eb|---------------------|---------------------|
Bb|---------------------|---------------------|
Gb|--7b9b10------5------|---------------------| 
Db|----------------7p5~-|----5p0--------------|
Ab|---------------------|--------3~---------3-|
Db|---------------------|---------------------|


Eb|--------------------------------------------5h7h8-|
Bb|--------------------4h5h7-------------5h6h8-------|
Gb|--------------4h5h7-------------4h5h7-------------|
Db|--------4h5h7-------------4h5h7-------------------|
Ab|--4h5h7-------------------------------------------|
Db|--------------------------------------------------|


Eb|--8p7p5-------------------5~----------------------|
Bb|--------8p6p5-------5h6h8-------------------------|
Gb|--------------4h5h7-------------------------------|
Db|--------------------------------------------------|
Ab|--------------------------------------------------|
Db|--------------------------------------------------|


Eb|--12--14--15--14--15p14p12----12-------------------|
Bb|--12-----------------------15----15p13p12----------|
Gb|------------------------------------------14p12p11-|
Db|---------------------------------------------------|
Ab|---------------------------------------------------|
Db|---------------------------------------------------|


Eb|--------------------------------------15~------------------------17-|
Bb|-----------------------------12h13h15-------------------------------|
Gb|--------------------11h12h14----------------------------------------|
Db|-----------11h12h14-------------------------------------------------|
Ab|--11p12p14----------------------------------------------------------|
Db|--------------------------------------------------------------------|


Eb|--22p20p17-22p20p17-22p20p17-20p19p17-------------------------------|
Bb|--------------------------------------20p18p17----------------------|
Gb|-----------------------------------------------19p17p16-------------|
Db|--------------------------------------------------------19p17p16----|
Ab|--------------------------------------------------------------------|
Db|--------------------------------------------------------------------|


Eb|--------------------------------------------------------------------|
Bb|-----------------------------17h18h20-20b22~------------------------|
Gb|--------------------16h17h19----------------------------------------|
Db|-----------16h17h19-------------------------------------------------|
Ab|--16h17h19----------------------------------------------------------|
Db|--------------------------------------------------------------------|


Eb|-------------------|----------------------|
Bb|-------------------|----------------------|
Gb|--9~--7~--6-4-6-7~-|----6~----4-2~--------| 
Db|-------------------|----------------------|
Ab|--7~--5~--4-2-4-5~-|----4~----2-0~--------|
Db|-------------------|----------------------|


Eb|-------------------|--------------------------|
Bb|-------------------|--------------------------|
Gb|--4~--4~--4-4-4-2~-|----2~-------0------------| 
Db|-------------------|---------------2-1-0------|
Ab|--2~--2~--2-2-2-0~-|---------------------3~---|
Db|-------------------|--------------------------|


Eb|-------------------|-------------------------|
Bb|-------------------|-------------------------|
Gb|--9~--7~--6-4-6-7~-|-------------------------| 
Db|-------------------|----7--6--5--3~----------|
Ab|--7~--5~--4-2-4-5~-|----7--6--5--3~----------|
Db|-------------------|----7--6--5--3~----------|


Eb|--2-0-3-0-5-0-3-0-2-0-3-0-5-0-3-0-|-5-0-7-0-5-0-7-0-8-0-7-0-5-0-7-0-|
Bb|----------------------------------|---------------------------------|
Gb|----------------------------------|---------------------------------|
Db|----------------------------------|---------------------------------|
Ab|----------------------------------|---------------------------------|
Db|----------------------------------|---------------------------------|


Eb|--8-0-10-0-12-0-10-0-8-0-10-0-12-0-10-0-|-12-0-13-0-12-0-10-0-12~-----|
Bb|----------------------------------------|-----------------------------|
Gb|----------------------------------------|-----------------------------|
Db|----------------------------------------|-----------------------------|
Ab|----------------------------------------|-----------------------------|
Db|----------------------------------------|-----------------------------|


Eb|--15-14-12-12-16-15-13-13-17-16-14-14-18-17-15-15-|
Bb|--------------------------------------------------|
Gb|--------------------------------------------------|
Db|--------------------------------------------------|
Ab|--------------------------------------------------|
Db|--------------------------------------------------|


Eb|--17-16-14-14-18-17-15-15-19-18-16-16-20-19-17-17-|
Bb|--------------------------------------------------|
Gb|--------------------------------------------------|
Db|--------------------------------------------------|
Ab|--------------------------------------------------|
Db|--------------------------------------------------|


Eb|--19-18-16-16-20-19-17-17-21-20-18-18-22-21-19-19-|
Bb|--------------------------------------------------|
Gb|--------------------------------------------------|
Db|--------------------------------------------------|
Ab|--------------------------------------------------|
Db|--------------------------------------------------|


Eb|--22b24~------------------------------------------|
Bb|--------------------------------------------------|
Gb|--------------------------------------------------|
Db|--------------------------------------------------|
Ab|--------------------------------------------------|
Db|--------------------------------------------------|


Guitar 2 (Rhythm behind solo)

Eb|-------------------|-----------------| 
Bb|-------------------|-----------------|
Gb|-------------------|-----------------|
Db|--7---7---7-7-7-5--|---5-5---5-5-5---|
Ab|--7---7---7-7-7-5--|---5-5---5-5-5---|
Db|--7---7---7-7-7-5--|---5-5---5-5-5---|
                                           
                                               
Eb|-------------------|-----------------|
Bb|-------------------|-----------------|
Gb|--7---7---7-7-7----|-----------------| x2
Db|--7---7---7-7-7-5--|---7-7---7-7-7---|
Ab|--5---5---5-5-5-5--|---7-7---7-7-7---|
Db|----------------5--|---7-7---7-7-7---|


Eb|-------------------|-----------------| 
Bb|-------------------|-----------------|
Gb|-------------------|-----------------|
Db|--7---7---7-7-7-5--|---5-5---5-5-5---|
Ab|--7---7---7-7-7-5--|---5-5---5-5-5---|
Db|--7---7---7-7-7-5--|---5-5---5-5-5---|
                                           
                                               
Eb|-------------------|-----------------|
Bb|-------------------|-----------------|
Gb|--4---4---4-4-4----|-----------------| x1
Db|--4---4---4-4-4-7--|---7-7---7-7-7---|
Ab|--2---2---2-2-2-7--|---7-7---7-7-7---|
Db|----------------7--|---7-7---7-7-7---|


Eb|-------------------|--------------------------| 
Bb|-------------------|--------------------------|
Gb|-------------------|--------------------------|
Db|--7---7---7-7-7-5--|----7--6--5--3~-----------|
Ab|--7---7---7-7-7-5--|----7--6--5--3~-----------|
Db|--7---7---7-7-7-5--|----7--6--5--3~-----------|


Eb|-------------------|-----------------|
Bb|-------------------|-----------------|
Gb|-------------------|-----------------| x3
Db|--0-0-1-2~--0-1-2~-|----0-2-0-2-0-3~-|
Ab|--0-0-1-2~--0-1-2~-|----0-2-0-2-0-3~-|
Db|--0-0-1-2~--0-1-2~-|----0-2-0-2-0-3~-|


Eb|-------------------|
Bb|-------------------|
Gb|-------------------| x1
Db|--0-0-1-2~--0-1-2--|
Ab|--0-0-1-2~--0-1-2--|
Db|--0-0-1-2~--0-1-2--|



Bridge 2:

Guitars 1 and 2

Eb|-------------------|-----------------| 
Bb|-------------------|-----------------|
Gb|-------------------|-----------------|
Db|--7---7---7-7-7-5--|---5-5---5-5-5---|
Ab|--7---7---7-7-7-5--|---5-5---5-5-5---|
Db|--7---7---7-7-7-5--|---5-5---5-5-5---|
                                           
                                               
Eb|-------------------|-----------------|
Bb|-------------------|-----------------|
Gb|--7---7---7-7-7----|-----------------| x3
Db|--7---7---7-7-7-5--|---7-7---7-7-7---|
Ab|--5---5---5-5-5-5--|---7-7---7-7-7---|
Db|----------------5--|---7-7---7-7-7---|

Then...

Guitars 1 and 2

Eb|-------------------|-----------------| 
Bb|-------------------|-----------------|
Gb|-------------------|-----------------|
Db|--7---7---7-7-7-5--|---5-5---5-5-5---|
Ab|--7---7---7-7-7-5--|---5-5---5-5-5---|
Db|--7---7---7-7-7-5--|---5-5---5-5-5---|



Eb|-------------------------|----------------------|
Bb|-------------------------|----------------------|
Gb|--12---12---12-12-12-14--|---14-14---14-14-14---|  x1
Db|--12---12---12-12-12-14--|---14-14---14-14-14---|
Ab|--10---10---10-10-10-12--|---12-12---12-12-12---|
Db|-------------------------|----------------------|



Outro:

Bass

Eb|-------------------|-----------------|
Bb|-------------------|-----------------|
Gb|-------------------|-----------------| x1
Db|-------------------|-----------------|
Ab|-------------------|-----------------|
Db|-------------------|-----------------|


Guitar 1

(Come in at 3:54)

Eb|-------------------|-----------------|
Bb|-------------------|-----------------|
Gb|-------------------|-----------------| x3
Db|-------------------|-----------------|
Ab|-------------------|-----------------|
Db|--0-0-1-2~--0-1-2~-|----0-2-0-2-0-3~-|


Guitar 2

(Come in at 3:58)

Eb|-------------------|-----------------|
Bb|-------------------|-----------------|
Gb|-------------------|-----------------| x2
Db|--0-0-1-2---0-1-2--|----0-2-0-2-0-3--|
Ab|--0-0-1-2---0-1-2--|----0-2-0-2-0-3--|
Db|--0-0-1-2---0-1-2--|----0-2-0-2-0-3--|

Then...

Guitar 1

Eb|-------------------|-----------------|
Bb|-------------------|-----------------|
Gb|--2-2-3-4~--2-3-4~-|----2-4-2-4-2-5~-|  
Db|-------------------|-----------------|
Ab|--0-0-1-2~--0-1-2~-|----0-2-0-2-0-3~-|
Db|-------------------|-----------------|


Eb|-------------------|------------------|
Bb|-------------------|------------------|
Gb|--7-7-8-9~--7-8-9~-|----7-9-7-9-7-10~-|  
Db|-------------------|------------------|
Ab|--5-5-6-7~--5-6-7~-|----5-7-5-7-5-8~--|
Db|-------------------|------------------|


Eb|--------------------------|-----------------------|
Bb|--------------------------|-----------------------|
Gb|--14-14-15-16~--14-15-16~-|----14-16-14-16-14-17~-| 
Db|--------------------------|-----------------------|
Ab|--12-12-13-14~--12-13-14~-|----12-14-12-14-12-15~-|
Db|--------------------------|-----------------------|


Eb|--------------------------|
Bb|--------------------------|
Gb|--19-19-20-21~--19-20-21--| 
Db|--------------------------|
Ab|--17-17-18-19~--17-18-19--|
Db|--------------------------|


Guitar 2

Eb|-------------------|-----------------|
Bb|-------------------|-----------------|
Gb|-------------------|-----------------| x3
Db|--0-0-1-2~--0-1-2~-|----0-2-0-2-0-3~-|
Ab|--0-0-1-2~--0-1-2~-|----0-2-0-2-0-3~-|
Db|--0-0-1-2~--0-1-2~-|----0-2-0-2-0-3~-|


Eb|-------------------|
Bb|-------------------|
Gb|-------------------|
Db|--0-0-1-2~--0-1-2--|
Ab|--0-0-1-2~--0-1-2--|
Db|--0-0-1-2~--0-1-2--|

Then...

Guitar 1

Eb|-------------------|
Bb|-------------------|
Gb|-------------------| Repeat and fade out
Db|----0-1-2---0-1-2--|
Ab|----0-1-2---0-1-2--|
Db|----0-1-2---0-1-2--|


I transcribed this by ear and I know that it isn't perfect, but I hoped that my 
transcription of the song helped. Thanks!
comments
print report bad tab
2 comments total.
+1 reply
silverburst11 wrote on April 4 2009, 08:13 am

For some reason I woke up with this tune in my head that I have'nt heard for ages and decided to look up the tab figuring no one would have ever tabbed it out and to my surprise here it is so I thank you.

0 reply
BassGuitarFish wrote on June 1 2012, 05:26 pm

Tab is great but i don't understand the tuning: Drop Db? or did you mean Drop Cb, because it sounds right like that

I want to post or [tab]
guest
You may want to rate the tab now too:
select rating
Please do not post tabs as comments. Select "correction" instead!