Oops, an error
Loading. Please wait.

We Are The Involuntary Tab

ver1
ver1

Whole song

Interactive

More versions @911Tabs.com
959 views 3 this week
no commentswrite comment
1 2 3 4 5
please rate
Autoscroll
+/-
esc
set tempo
stop
Contributor
Difficulty
Tuning
intermediate
D A D G B E
Hey! There's an official Ultimate Guitar app which is ideal
for learning songs when you're away from computer. Get the app
WARNING: You are trying to view
                                    content from Ultimate-Guitar.com
                                    in an unauthorized application,
                                    which is prohibited.

                                    Please use an official Ultimate
                                    Guitar Tabs application for iPhone,
                                    iPad or Android to access legitimate
                                    chords, guitar, bass, and drum tabs
                                    from Ultimate-Guitar.com database.

                                    Type "ultimate guitar tabs" in Apple
                                    App Store's or Android Market's
                                    search to find the application.
#----------------------------------PLEASE NOTE---------------------------------#
#This file is the author's own work and represents their interpretation of the #
#song. You may only use this file for private study, scholarship, or research. #
#------------------------------------------------------------------------------#
WE ARE THE INVOLUNTARY
As recorded by underĂ˜ATH
(From the 2008 Album LOST IN THE SOUND OF SEPARATION)
Transcribed by natuMz   Words by Spencer Chamberlain and Aaron Gillepsie Music by underĂ˜ATH

Gtr I (D A D G B E) - 'Untitled'
Gtr II (D A D G B E) - 'Untitled'
 Verse 1 (00:09-00:29)
  Moderately Q=120
  D5/A      D5N.C.          D5N.C.
 2/4       5/4
  Gtr I     Gtr I
  q  q      E  E E Q  E E E E S S
|-------||------------------------|
|----4--||o-----------4-----------|
|-7--7--||--7---------7-----7-----|
|-7--7--||--7---------7-----7-----|
|-------||o-5-/6--------------5s6-|
|-------||-------1-0----5-1-------|


                               D5N.C.D5N.C.       D5
                                                 2/4
  E Q  S S S S E E E  E E   Q  E E E E S S E Q    q  q
|-------------------------|---------------------|--------||
|------------------4------|---------------------|-------o||
|------------------7------|----7-----7----------|----7---||
|------------------7------|----7-----7----------|-7--7---||
|------x-x-x-x-------/6---|----5-----5-5s6------|-5--5--o||
|-1-0--x-x-x-x-5-1------1-|-0----1-0-------1-0--|--------||


   Verse 2 (00:29-00:57)
    D5    F5    E5                  A5       Eb5     G5
   4/4                                                              2/4
    Gtr II
                                                                     ~~
    E E E E E E  E  E    E  E  E  E  E  E  E E   E E E E E E E E     H
||--------8-8---------|------------------------|------------------||-----------|
||o-------------------|-------------10-10-10---|-----8-8-8-8-8-8-o||-8\--------|
||--7-7-7-----7-10-10-|-10-10-10-10----------8-|-8-8--------------||-----------|
||--------------------|------------------------|------------------||-----------|
||o-------------------|------------------------|-----------------o||-----------|
||--------------------|------------------------|------------------||-----------|
|
|   Gtr I
|   PM----------------------------------------------------------------------|
|   E E E E E E  E  E    E  E  E  E  E  E  E E   E E E E E E E E     E  E E E
||--------------------|------------------------|------------------||-----------|
||o-------------------|------------------------|-----------------o||-----------|
||--------------------|------------------------|------------------||-----------|
||--------------------|------------------------|------------------||-----------|
||o-0-0-0-3-3-3--2--2-|--2--2--2--2--7--7--7-1-|-1-1-5-5-5-5-5-5-o||-5--5-5-5--|
||--0-0-0-3-3-3--2--2-|--2--2--2--2--7--7--7-1-|-1-1-5-5-5-5-5-5--||-5--5-5-5--|


  D5    F5    E5                  A5       Eb5     G5
 4/4
  E E E E E E  E  E    E  E  E  E  E  E  E E   E E E E E E E E
|-------8-8---------|------------------------|-----------------|
|-------------------|-------------10-10-10---|-----8-8-8-8-8-8-|
|-7-7-7-----7-10-10-|-10-10-10-10----------8-|-8-8-------------|
|-------------------|------------------------|-----------------|
|-------------------|------------------------|-----------------|
|-------------------|------------------------|-----------------|
|
| PM---------------------------------------------------------|
| E E E E E E  E  E    E  E  E  E  E  E  E E   E E E E E E E E
|-------------------|------------------------|-----------------|
|-------------------|------------------------|-----------------|
|-------------------|------------------------|-----------------|
|-------------------|------------------------|-----------------|
|-0-0-0-3-3-3--2--2-|--2--2--2--2--7--7--7-1-|-1-1-5-5-5-5-5-5-|
|-0-0-0-3-3-3--2--2-|--2--2--2--2--7--7--7-1-|-1-1-5-5-5-5-5-5-|


  D5    F5    E5                  A5       Eb5     G5
  E E E E E E  E  E    E  E  E  E  E  E  E E   E E E E E E E E
|-------8-8---------|------------------------|-----------------|
|-------------------|-------------10-10-10---|-----8-8-8-8-8-8-|
|-7-7-7-----7-10-10-|-10-10-10-10----------8-|-8-8-------------|
|-------------------|------------------------|-----------------|
|-------------------|------------------------|-----------------|
|-------------------|------------------------|-----------------|
|
| PM---------------------------------------------------------|
| E E E E E E  E  E    E  E  E  E  E  E  E E   E E E E E E E E
|-------------------|------------------------|-----------------|
|-------------------|------------------------|-----------------|
|-------------------|------------------------|-----------------|
|-------------------|------------------------|-----------------|
|-0-0-0-3-3-3--2--2-|--2--2--2--2--7--7--7-1-|-1-1-5-5-5-5-5-5-|
|-0-0-0-3-3-3--2--2-|--2--2--2--2--7--7--7-1-|-1-1-5-5-5-5-5-5-|


  G5           F5   E5
  q  q  H      Q.   H    +E    +W
|------------|---------------|--------|
|------------|---------------|--------|
|------------|---------------|--------|
|-5--5-------|-3----2----(2)-|-(2)----|
|-5--5-------|-3----2----(2)-|-(2)----|
|-5--5-------|-3----2----(2)-|-(2)----|
|
| q  q  H      Q.   H    +E    +W
|------------|---------------|--------|
|------------|---------------|--------|
|------------|---------------|--------|
|-5--5-------|-3----2----(2)-|-(2)----|
|-5--5-------|-3----2----(2)-|-(2)----|
|-5--5-------|-3----2----(2)-|-(2)----|


  Verse 3 (00:59-01:26) Q=120
  N.C.
  Gtr I
  E E E E E E E E   E E E E Q.   E   +Q   H.
|-----------------|----------------|------------|
|-----------------|----------------|------------|
|-----------------|----------------|------------|
|-----------------|----------------|------------|
|-----------------|----------------|------------|
|-7-7-7-1-1-1-5-5-|-5-5-5---0----3-|-(3)--2-----|


                            G5
  E E E E E E E E   E E E E q  q
|-----------------|---------------|
|-----------------|---------------|
|-----------------|---------------|
|-----------------|---------------|
|-----------------|---------5--5--|
|-7-7-7-1-1-1-5-5-|-5-5-5-5-5--5--|


  N.C.
  E E E E E E E E   E E E E E E E E   E E E E E E E E
|-----------------|-----------------|-----------------|
|-----------------|-----------------|-----------------|
|-----------------|-----------------|-----------------|
|-----------------|-----------------|-----------------|
|-----------------|-----------------|-----------------|
|-0-0-0-3-3-3-2-2-|-2-2-2-2-7-7-7-1-|-1-1-5-5-5-5-5---|


  D5   F5   E5          N.C.
  Q.   Q.   Q    +H     E E E E   E E E E E E E E
|--------------|----------------|-----------------|
|--------------|----------------|-----------------|
|--------------|----------------|-----------------|
|--------------|----------------|-----------------|
|-0----3----2--|-(2)------------|-----------------|
|-0----3----2--|-(2)----7-7-7-1-|-1-1-5-5-5-5-5-5-|


  E E E E E E E E   E E E E E E E E   Q.   Q.   Q    +H       +H
|-----------------|-----------------|--------------|-----------------|
|-----------------|-----------------|--------------|-----------------|
|-----------------|-----------------|--------------|-----------------|
|-7---5-5-0-5-7---|-7---5-5-0-5-7---|--------------|-----------------|
|---5-----------5-|---5-----------5-|--------------|-----------------|
|-----------------|-----------------|-7----1----5--|-(5)b7----(5)----|
|
| Gtr II
| E E E E E E E E   E E E E E E E E   Q.   Q.   Q    +H       +H
|-----------------|-----------------|--------------|-----------------|
|-----------------|-----------------|--------------|-----------------|
|-----------------|-----------------|--------------|-----------------|
|-----------------|-----------------|--------------|-----------------|
|-----------------|-----------------|--------------|-----------------|
|-7-7-7-1-1-1-5-5-|-7-7-7-1-1-1-5-5-|-7----1----5--|-(5)b7----(5)----|


 Verse (01:27-01:38)
  D5
 5/4
  W        +Q     +W         +Q     +W         +Q
|---------------|-----------------|-----------------|
|---------------|-----------------|-----------------|
|---------------|-----------------|-----------------|
|-0--------(0)--|-(0)--------(0)--|-(0)--------(0)--|
|-0--------(0)--|-(0)--------(0)--|-(0)--------(0)--|
|-0--------(0)--|-(0)--------(0)--|-(0)--------(0)--|


 Verse (01:39-01:57)
             D5                     D5/A         D5
             PM
  E S S E Q  Q  Q.     +H     +Q.   E S S E   Q  E E E E S S E Q
|--------------------|----------------------|---------------------|
|-4-------------4----|-(4)----(4)-----------|---------------------|
|-7-------------7----|-(7)----(7)---7-------|----7-----7----------|
|-7-------------7----|-(7)----(7)---7-------|----7-----7----------|
|---5s6------0-------|----------------5s6---|----5-----5-5s6------|
|-------5-1--0-------|--------------------1-|-0----1-0-------1-0--|


  D5
 4/4                                   2/4
  E E E E S S E Q    E E E E S S E Q    q  q
|------------------|------------------|-------|
|------------------|------------------|-------|
|-7-----7----------|-7-----7----------|-7--7--|
|-7-----7----------|-7-----7----------|-7--7--|
|-5-----5-5s6------|-5-----5-5s6------|-5--5--|
|---1-0-------1-0--|---1-0-------1-0--|-------|


  D5/A       D5      D5/A       D5      D5/A       D5      N.C.
 4/4
  E S S E Q  E E E   E S S E Q  E E E   E S S E Q  E E E   E S S E E q  q
|------------------|------------------|------------------|------------------|
|------------------|------------------|------------------|-4---------4--4---|
|-7----------7-----|-7----------7-----|-7----------7-----|-7---------7--7---|
|-7----------7-----|-7----------7-----|-7----------7-----|-7---------7--7---|
|---5s6------5-----|---5s6------5-----|---5s6------5-----|---5s6------------|
|-------1-0----1-0-|-------1-0----1-0-|-------1-0----1-0-|-------1-0--------|


 Guitar Break (01:58-02:12)
  Dsus2/A
 4/4
  Gtr II
   E   E   E   E   E   E   E   E     E   E   E   E   E   E   E   E
|-(0)-(0)-(0)-(0)-(0)-(0)-(0)-(0)-|-(0)-(0)-(0)-(0)-(0)-(0)-(0)-(0)-|
|--3---3---3---3---3---3---3---3--|--3---3---3---3---3---3---3---3--|
|--2---2---2---2---2---2---2---2--|--2---2---2---2---2---2---2---2--|
|---------------------------------|---------------------------------|
|---------------------------------|---------------------------------|
|---------------------------------|---------------------------------|


   E   E   E   E   E   E   E   E     E   E   E   E   E   E   E   E
|-(0)-(0)-(0)-(0)-(0)-(0)-(0)-(0)-|-(0)-(0)-(0)-(0)-(0)-(0)-(0)-(0)--|
|--3---3---3---3---3---3---3---3--|--3---3---3---3---3---3---3---3---|
|--2---2---2---2---2---2---2---2--|--2---2---2---2---2---2---2---2---|
|---------------------------------|----------------------------------|
|---------------------------------|----------------------------------|
|---------------------------------|----------------------------------|


  C5/G
   E   E   E   E   E   E   E   E     E   E   E   E   E   E   E   E
|-(3)-(3)-(3)-(3)-(3)-(3)-(3)-(3)-|-(3)-(3)-(3)-(3)-(3)-(3)-(3)-(3)-|
|--1---1---1---1---1---1---1---1--|--1---1---1---1---1---1---1---1--|
|--0---0---0---0---0---0---0---0--|--0---0---0---0---0---0---0---0--|
|---------------------------------|---------------------------------|
|---------------------------------|---------------------------------|
|---------------------------------|---------------------------------|


   E   E   E   E   E   E   E   E     E   E   E   E   E   E   E   E
|-(3)-(3)-(3)-(3)-(3)-(3)-(3)-(3)-|-(3)-(3)-(3)-(3)-(3)-(3)-(3)-(3)-|
|--1---1---1---1---1---1---1---1--|--1---1---1---1---1---1---1---1--|
|--0---0---0---0---0---0---0---0--|--0---0---0---0---0---0---0---0--|
|---------------------------------|---------------------------------|
|---------------------------------|---------------------------------|
|---------------------------------|---------------------------------|


 Verse (02:12-03:11)
  Dsus2/A
  Gtr I
   E   E   E   E   E   E   E   E     E   E   E   E   E   E   E   E
|---------------------------------|---------------------------------|
|---------------------------------|---------------------------------|
|---------------------------------|---------------------------------|
|---------------------------------|---------------------------------|
|----------------------5----------|----------------------5----------|
|-/7---7---7---7---7-------5---7--|--7---7---7---5---7-------7---5--|
|
| Gtr II
|  E   E   E   E   E   E   E   E     E   E   E   E   E   E   E   E
|-(0)-(0)-(0)-(0)-(0)-(0)-(0)-(0)-|-(0)-(0)-(0)-(0)-(0)-(0)-(0)-(0)-|
|--3---3---3---3---3---3---3---3--|--3---3---3---3---3---3---3---3--|
|--2---2---2---2---2---2---2---2--|--2---2---2---2---2---2---2---2--|
|---------------------------------|---------------------------------|
|---------------------------------|---------------------------------|
|---------------------------------|---------------------------------|


   E   E   E    Q       Q       E     E   E   E   E   E   E   E   E
|----------------------------------|---------------------------------|
|----------------------------------|---------------------------------|
|----------------------------------|---------------------------------|
|----------------------------------|---------------------------------|
|----------------------------------|----------------------5----------|
|--7---7---7--/10\------7-------7--|--7---7---7---5---7-------7---5--|
|
|  E   E   E    E   E   E   E   E     E   E   E   E   E   E   E   E
|-(0)-(0)-(0)--(0)-(0)-(0)-(0)-(0)-|-(0)-(0)-(0)-(0)-(0)-(0)-(0)-(0)-|
|--3---3---3----3---3---3---3---3--|--3---3---3---3---3---3---3---3--|
|--2---2---2----2---2---2---2---2--|--2---2---2---2---2---2---2---2--|
|----------------------------------|---------------------------------|
|----------------------------------|---------------------------------|
|----------------------------------|---------------------------------|


  C5/G
   E   E   E   Q       Q       E     E   E   E   E   E   E   E   E
|---------------------------------|---------------------------------|
|--------------1------------------|---------------------------------|
|----------------------2----------|---------------------------------|
|---------------------------------|---------------------------------|
|---------------------------------|---------------------------------|
|--3---3---3-------------------3--|--3---3---3---3---3---1---1---1--|
|
|  E   E   E   E   E   E   E   E     E   E   E   E   E   E   E   E
|-(3)-(3)-(3)-(3)-(3)-(3)-(3)-(3)-|-(3)-(3)-(3)-(3)-(3)-(3)-(3)-(3)-|
|--1---1---1---1---1---1---1---1--|--1---1---1---1---1---1---1---1--|
|--0---0---0---0---0---0---0---0--|--0---0---0---0---0---0---0---0--|
|---------------------------------|---------------------------------|
|---------------------------------|---------------------------------|
|---------------------------------|---------------------------------|


   E   E   E   Q       Q       E     E   E   E   E   E   E   E   E
|---------------------------------|---------------------------------|
|--------------1------------------|---------------------------------|
|----------------------2----------|---------------------------------|
|---------------------------------|---------------------------------|
|---------------------------------|---------------------------------|
|--3---3---3-------------------3--|--3---3---3---3---3---3---3---3--|
|
|  E   E   E   E   E   E   E   E     E   E   E   E   E   E   E   E
|-(3)-(3)-(3)-(3)-(3)-(3)-(3)-(3)-|-(3)-(3)-(3)-(3)-(3)-(3)-(3)-(3)-|
|--1---1---1---1---1---1---1---1--|--1---1---1---1---1---1---1---1--|
|--0---0---0---0---0---0---0---0--|--0---0---0---0---0---0---0---0--|
|---------------------------------|---------------------------------|
|---------------------------------|---------------------------------|
|---------------------------------|---------------------------------|


  Dsus2/A
   E   E   E   E   E   E   E   E     E   E   E   E   E   E   E   E
|---------------------------------|---------------------------------|
|---------------------------------|---------------------------------|
|---------------------------------|---------------------------------|
|---------------------------------|---------------------------------|
|----------------------5----------|----------------------5----------|
|-/7---7---7---7---7-------5---7--|--7---7---7---5---7-------7---5--|
|
|  E   E   E   E   E   E   E   E     E   E   E   E   E   E   E   E
|-(0)-(0)-(0)-(0)-(0)-(0)-(0)-(0)-|-(0)-(0)-(0)-(0)-(0)-(0)-(0)-(0)-|
|--3---3---3---3---3---3---3---3--|--3---3---3---3---3---3---3---3--|
|--2---2---2---2---2---2---2---2--|--2---2---2---2---2---2---2---2--|
|---------------------------------|---------------------------------|
|---------------------------------|---------------------------------|
|---------------------------------|---------------------------------|


   E   E   E    Q       Q       E     E   E   E   E   E   E   E   E
|----------------------------------|---------------------------------|
|----------------------------------|---------------------------------|
|----------------------------------|---------------------------------|
|----------------------------------|---------------------------------|
|----------------------------------|----------------------5----------|
|--7---7---7--/10\------7-------7--|--7---7---7---5---7-------7---5--|
|
|  E   E   E    E   E   E   E   E     E   E   E   E   E   E   E   E
|-(0)-(0)-(0)--(0)-(0)-(0)-(0)-(0)-|-(0)-(0)-(0)-(0)-(0)-(0)-(0)-(0)-|
|--3---3---3----3---3---3---3---3--|--3---3---3---3---3---3---3---3--|
|--2---2---2----2---2---2---2---2--|--2---2---2---2---2---2---2---2--|
|----------------------------------|---------------------------------|
|----------------------------------|---------------------------------|
|----------------------------------|---------------------------------|


  C5/G
   E   E   E   Q       Q       E     E   E   E   E   E   E   E   E
|---------------------------------|---------------------------------|
|--------------1------------------|---------------------------------|
|----------------------2----------|---------------------------------|
|---------------------------------|---------------------------------|
|---------------------------------|---------------------------------|
|--3---3---3-------------------3--|--3---3---3---3---3---1---1---1--|
|
|  E   E   E   E   E   E   E   E     E   E   E   E   E   E   E   E
|-(3)-(3)-(3)-(3)-(3)-(3)-(3)-(3)-|-(3)-(3)-(3)-(3)-(3)-(3)-(3)-(3)-|
|--1---1---1---1---1---1---1---1--|--1---1---1---1---1---1---1---1--|
|--0---0---0---0---0---0---0---0--|--0---0---0---0---0---0---0---0--|
|---------------------------------|---------------------------------|
|---------------------------------|---------------------------------|
|---------------------------------|---------------------------------|


   E   E   E   Q       Q       E     E   E   E   E   E   E   E   E
|---------------------------------|---------------------------------|
|--------------1------------------|---------------------------------|
|----------------------2----------|---------------------------------|
|---------------------------------|---------------------------------|
|---------------------------------|---------------------------------|
|--3---3---3-------------------3--|--3---3---3---3---3---3---3---3--|
|
|  E   E   E   E   E   E   E   E     E   E   E   E   E   E   E   E
|-(3)-(3)-(3)-(3)-(3)-(3)-(3)-(3)-|-(3)-(3)-(3)-(3)-(3)-(3)-(3)-(3)-|
|--1---1---1---1---1---1---1---1--|--1---1---1---1---1---1---1---1--|
|--0---0---0---0---0---0---0---0--|--0---0---0---0---0---0---0---0--|
|---------------------------------|---------------------------------|
|---------------------------------|---------------------------------|
|---------------------------------|---------------------------------|


    Dsus2/A
     E   E   E   E   E   E   E   E     E   E   E   E   E   E   E   E
||----------------------------------|---------------------------------|
||o---------------------------------|---------------------------------|
||----------------------------------|---------------------------------|
||----------------------------------|---------------------------------|
||o----------------------5----------|----------------------5----------|
||--/7---7---7---7---7-------5---7--|--7---7---7---5---7-------7---5--|
|
|    E   E   E   E   E   E   E   E     E   E   E   E   E   E   E   E
||--(0)-(0)-(0)-(0)-(0)-(0)-(0)-(0)-|-(0)-(0)-(0)-(0)-(0)-(0)-(0)-(0)-|
||o--3---3---3---3---3---3---3---3--|--3---3---3---3---3---3---3---3--|
||---2---2---2---2---2---2---2---2--|--2---2---2---2---2---2---2---2--|
||----------------------------------|---------------------------------|
||o---------------------------------|---------------------------------|
||----------------------------------|---------------------------------|


   E   E   E    Q       Q       E     E   E   E   E   E   E   E   E
|----------------------------------|----------------------------------|
|----------------------------------|----------------------------------|
|----------------------------------|----------------------------------|
|----------------------------------|----------------------------------|
|----------------------------------|----------------------5-----------|
|--7---7---7--/10\------7-------7--|--7---7---7---5---7-------7---5---|
|
|  E   E   E    E   E   E   E   E     E   E   E   E   E   E   E   E
|-(0)-(0)-(0)--(0)-(0)-(0)-(0)-(0)-|-(0)-(0)-(0)-(0)-(0)-(0)-(0)-(0)--|
|--3---3---3----3---3---3---3---3--|--3---3---3---3---3---3---3---3---|
|--2---2---2----2---2---2---2---2--|--2---2---2---2---2---2---2---2---|
|----------------------------------|----------------------------------|
|----------------------------------|----------------------------------|
|----------------------------------|----------------------------------|


  C5/G
   E   E   E   Q       Q       E     E   E   E   E   E   E   E   E     E   E   E   Q       Q     E
|-------------------------------|---------------------------------|-------------------------------|
|------------1------------------|---------------------------------|--------------1----------------|
|--------------------2----------|---------------------------------|----------------------2--------|
|-------------------------------|---------------------------------|-------------------------------|
|-------------------------------|---------------------------------|-------------------------------|
|3---3---3-------------------3--|--3---3---3---3---3---1---1---1--|--3---3---3-------------------3|
|
|E   E   E   E   E   E   E   E     E   E   E   E   E   E   E   E     E   E   E   E   E   E   E   E
|3)-(3)-(3)-(3)-(3)-(3)-(3)-(3)-|-(3)-(3)-(3)-(3)-(3)-(3)-(3)-(3)-|-(3)-(3)-(3)-(3)-(3)-(3)-(3)-(3|
|1---1---1---1---1---1---1---1--|--1---1---1---1---1---1---1---1--|--1---1---1---1---1---1---1---1|
|0---0---0---0---0---0---0---0--|--0---0---0---0---0---0---0---0--|--0---0---0---0---0---0---0---0|
|-------------------------------|---------------------------------|-------------------------------|
|-------------------------------|---------------------------------|-------------------------------|
|-------------------------------|---------------------------------|-------------------------------|


 1.                                  2.
   E   E   E   E   E   E   E   E       E   E   E   E   E   E   Q
|----------------------------------||---------------------------------|
|---------------------------------o||---------------------------------|
|----------------------------------||---------------------------------|
|----------------------------------||---------------------------------|
|---------------------------------o||----------------------0---0------|
|--3---3---3---3---3---3---3---3---||--3---3---3---3---3---0---0------|
|
|  E   E   E   E   E   E   E   E       E   E   E   E   E   E   E   E
|-(3)-(3)-(3)-(3)-(3)-(3)-(3)-(3)--||-(3)-(3)-(3)-(3)-(3)-(3)-(3)-(3)-|
|--1---1---1---1---1---1---1---1--o||--1---1---1---1---1---1---1---1--|
|--0---0---0---0---0---0---0---0---||--0---0---0---0---0---0---0---0--|
|----------------------------------||---------------------------------|
|---------------------------------o||---------------------------------|
|----------------------------------||---------------------------------|


   Verse (03:11- 04:00)
    N.C.
    Gtrs I, II
    Q  Q  E Q  E   +E  E +E  E Q  Q    Q  Q  Q  E E   +E  E E E E E Q    4x
||---------------|-------------------|--------------|--------------------||
||o--------------|-------------------|--------------|-------------------o||
||---------------|-------------------|--------------|--------------------||
||---------------|-------------------|--------------|--------------------||
||o--------------|-------------------|--------------|-------------------o||
||--1--1--1S7--7-|-(7)-1-(1)S7-7--1S=|=7--7--1S=7-7-|-(7)-3-3-3-3-3-0----||


  Gtr I
  Q  Q  E Q.     E +E     E E E E E E    E  E  E  E E E E E   E E E E E E E E
|--------------|----------------------|---------------------|-----------------|
|--------------|-4-(4)----4-4-4-4-5-5-|--5--5--5--5-5-5-5-5-|-5-5-5-5-5-5-5-5-|
|--------------|-7-(7)b9==7-7-7-7-7-7-|--7--7--7--7-7-7-7-7-|-7-7-7-7-7-7-7-7-|
|--------------|----------------------|---------------------|-----------------|
|--------------|----------------------|---------------------|-----------------|
|-1--1--1-7\---|----------------------|---------------------|-----------------|
|
| Gtr II
| Q  Q  E Q.     Q        Q   E Q   E   +E  E +E  E Q   Q     Q   Q   Q   E E
|--------------|----------------------|---------------------|-----------------|
|--------------|----------------------|---------------------|-----------------|
|--------------|----------------------|---------------------|-----------------|
|--------------|----------------------|---------------------|-----------------|
|--------------|----------------------|---------------------|-----------------|
|-1--1--1-7\---|-1--------1---1S7---7-|-(7)-1-(1)S7-7---1S==|=7---7---1S==7-7-|


  E E E E E E E E    E +E     E E E E E E
|------------------|----------------------|
|-5-5-5-5-5-5-5-5r-|-4-(4)----4-4-4-4-5-5-|
|-7-7-7-7-7-7-7-7r-|-7-(7)b9==7-7-7-7-7-7-|
|------------------|----------------------|
|------------------|----------------------|
|------------------|----------------------|
|
| E E E E E E Q      Q        Q   E Q   E
|------------------|----------------------|
|------------------|----------------------|
|------------------|----------------------|
|------------------|----------------------|
|------------------|----------------------|
|-7-3-3-3-3-3-0----|-1--------1---1S7---7-|


   E  E  E  E E E E E   E E E E E E E E
|---------------------|-----------------|
|--5--5--5--5-5-5-5-5-|-5-5-5-5-5-5-5-5-|
|--7--7--7--7-7-7-7-7-|-7-7-7-7-7-7-7-7-|
|---------------------|-----------------|
|---------------------|-----------------|
|---------------------|-----------------|
|
| +E  E +E  E Q   Q     Q   Q   Q   E E
|---------------------|-----------------|
|---------------------|-----------------|
|---------------------|-----------------|
|---------------------|-----------------|
|---------------------|-----------------|
|-(7)-1-(1)S7-7---1S==|=7---7---1S==7-7-|


  E E E E E E E E    W          +W
|------------------|----------|--------*|
|-5-5-5-5-5-5-5-5--|-4--------|-(4)----*|
|-7-7-7-7-7-7-7-7r-|-7--------|-(7)----*|
|------------------|----------|--------*|
|------------------|----------|--------*|
|------------------|----------|--------*|
|
| E E E E E E Q      W          +W
|------------------|----------|--------*|
|------------------|----------|--------*|
|------------------|----------|--------*|
|------------------|----------|--------*|
|------------------|----------|--------*|
|-7-3-3-3-3-3-0----|-1--------|-(1)----*|


 

Duration Legend
---------------
W - whole; H - half; Q - quarter; E - 8th; S - 16th; T - 32nd; X - 64th; a - acciaccatura
+ - note tied to previous; . - note dotted; .. - note double dotted
Uncapitalized letters represent notes that are staccato (1/2 duration)
Irregular groupings are notated above the duration line
Duration letters will always appear directly above the note/fret number it represents the
duration for.  Duration letters with no fret number below them represent rests.  Multi-
bar rests are notated in the form Wxn, where n is the number of bars to rest for.  Low
melody durations appear below the staff

Tablature Legend
----------------
 h   - hammer-on
 p   - pull-off
 b   - bend
 pb  - pre-bend
 r   - bend release (if no number after the r, then release immediately)
 /\  - slide into or out of (from/to "nowhere")
 s   - legato slide
 S   - shift slide
<n> - natural harmonic
[n]  - artificial harmonic
n(n) - tapped harmonic
 ~   - vibrato
 tr  - trill
 T   - tap
 TP  - trem. picking
 PM  - palm muting
\n/  - tremolo bar dip; n = amount to dip
 \n  - tremolo bar down
 n/  - tremolo bar up
/n\  - tremolo bar inverted dip
 =   - hold bend; also acts as connecting device for hammers/pulls
 <> - volume swell (louder/softer)
 x   - on rhythm slash represents muted slash
 o   - on rhythm slash represents single note slash

Misc Legend
-----------
 |  - bar
||  - double bar
||o - repeat start
o|| - repeat end
*|  - double bar (ending)
 :  - bar (freetime)
 $  - Segno
 &  - Coda
Tempo markers - <E/E./Q/Q./H/H.> = BPM(8/16=s8/s16), where s8 = swing 8ths, s16 = swing 16ths

 
** Generated using Power Tab Editor by Brad Larsen: The Official Power Tab Web Site
comments
We did not receive enough feedback on this tab! Please rate:
print report bad tab
1 2 3 4 5
I want to post or [tab]
guest
You may want to rate the tab now too:
select rating
Please do not post tabs as comments. Select "correction" instead!