Oops, an error
Loading. Please wait.

Young And Aspiring Tab

ver1
ver1

Whole song

Interactive

More versions @911Tabs.com
9,159 views 9 this week
9 commentsread comments
1 2 3 4 5
accurate
x 13
Autoscroll
+/-
esc
set tempo
stop
NEW! There's an official Ultimate Guitar app which is ideal
for learning songs when you're away from computer. Get the app
WARNING: You are trying to view
                                    content from Ultimate-Guitar.com
                                    in an unauthorized application,
                                    which is prohibited.

                                    Please use an official Ultimate
                                    Guitar Tabs application for iPhone,
                                    iPad or Android to access legitimate
                                    chords, guitar, bass, and drum tabs
                                    from Ultimate-Guitar.com database.

                                    Type "ultimate guitar tabs" in Apple
                                    App Store's or Android Market's
                                    search to find the application.
Band: Underoath
Song: Young and Aspiring
Tuning: DADGbe (DROP Dizzle)
I am maxellcdr. Or Marc Gustas, whichever's cooler.

This song is sweet. Plus I put up both guitar parts. It's close enough for you to play
along with it... I left out keyboard parts that were just too tough to even begin to
understand.


Guitar One Intro
e|-------------------------------------------------------------------------------------------------|
b|-------------------------------------------------------------------------------------------------|
G|------999--9-99-9999----------999----------------------------------------------------------------|
D|------xxx--x-xx-xxxx--0-------xxx----------------------------------------------------------------|
A|-222--777--7-77-7777--0--2222-777-0-0000000------------------------------------------------------|
D|-222------------------0--2222-----0-0000000------------------------------------------------------|

e|-------------------------------------------------------------------------------------------------|
b|-------------------------------------------------------------------------------------------------|
G|-44444444444444444444444444444444----------------------------------------------------------------|
D|-xxxxxxxxxxxxxxxxxxxxxxxxxxxxxxxx----------------------------------------------------------------|
A|-22222222222222222222222222222222----------------------------------------------------------------|
D|-------------------------------------------------------------------------------------------------|

e|-------------------------------------------------------------------------------------------------|
b|-------------------------------------------------------------------------------------------------|
G|------999--9-99-999-----------999----------------------------------------------------------------|
D|------xxx--x-xx-xxx---0-------xxx-0~-------------------------------------------------------------|
A|-222--777--7-77-777---0--2222-777-0~-------------------------------------------------------------|
D|-222------------------0--2222-----0~-------------------------------------------------------------|

e|-------------------------------------------------------------------------------------------------|
b|-------------------------------------------------------------------------------------------------|
G|-444444444444444444444444444444444---------------------------------------------------------------|
D|-xxxxxxxxxxxxxxxxxxxxxxxxxxxxxxxxx---and so on...------------------------------------------------|
A|-222222222222222222222222222222222---------------------------------------------------------------|
D|-------------------------------------------------------------------------------------------------|

Verse
e|-------------------------------------------------------------------------------------------------|
b|-------------------------------------------------------------------------------------------------|
G|-------------------------------------------------------------------------------------------------|
D|-2~--------12~----------9~------repeat-----------------------------------------------------------|
A|-2~--------10~----------7~-----------------------------------------------------------------------|
D|-2~--------10~----------7~-----------------------------------------------------------------------|

e|-------------------------------------------------------------------------------------------------|
b|-------------------------------------------------------------------------------------------------|
G|-------------------------------------------------------------------------------------------------|
D|-2222222222222222--12121212121212121212121212121212-9999999999999999-55555555-55555555-10--------|
A|-2222222222222222--10101010101010101010101010101010-7777777777777777-55555555-55555555-10--------|
D|-2222222222222222--10101010101010101010101010101010-7777777777777777-55555555-77777777-10--------|

Chorus
e|-------------------------------------------------------------------------------------------------|
b|-------------------------------------------------------------------------------------------------|
G|-------------------------------------------------------------------------------------------------|
D|---------------------------------------------------------------------7777777777777777------------|
A|-2222222222222222-10101010101010101010101010101010-77777777777777777-5555555555555555------------|
D|-2222222222222222-10101010101010101010101010101010-77777777777777777-----------------------------|

First Breakdown
e|-------------------------------------------------------------------------------------------------|
b|-------------------------------------------------------------------------------------------------|
G|-------------------------------------------------------------------------------------------------|
D|-222x---222x-222x--222x---222x-222x-2x2x2x2x2x2x-------------------------------------------------|
A|-222x---222x-222x--222x---222x-222x-2x2x2x2x2x2x-------------------------------------------------|
D|-222x---222x-222x--222x---222x-222x-2x2x2x2x2x2x-------------------------------------------------|

Second Breakdown
e|-------------------------------------------------------------------------------------------------|
b|-------------------------------------------------------------------------------------------------|
G|-------------------------------------------------------------------------------------------------|
D|-5-555-55-55-5555-7--777-77-77-7777-5-555-55-55-5555--9-9-999-7-77-7777--------------------------|
A|-3-333-33-33-3333-5--555-55-55-5555-3-333-33-33-3333--7-7-777-5-55-5555--------------------------|
E|-------------------------------------------------------------------------------------------------|

Interlude
e|-------------------------------------------------------------------------------------------------|
b|-------------------------------------------------------------------------------------------------|
G|-------------------------------------------------------------------------------------------------|
D|-2~--------12~----------9~------repeat-----------------------------------------------------------|
A|-2~--------10~----------7~-----------------------------------------------------------------------|
D|-2~--------10~----------7~-----------------------------------------------------------------------|

Pre-Chorus
e|-------------------------------------------------------------------------------------------------|
b|-------------------------------------------------------------------------------------------------|
G|-------------------------------------------------------------------------------------------------|
D|-2222222222222222--12121212121212121212121212121212-9999999999999999-55555555-55555555-10--------|
A|-2222222222222222--10101010101010101010101010101010-7777777777777777-55555555-55555555-10--------|
D|-2222222222222222--10101010101010101010101010101010-7777777777777777-55555555-77777777-10--------|

Chorus
e|-------------------------------------------------------------------------------------------------|
b|-------------------------------------------------------------------------------------------------|
G|-------------------------------------------------------------------------------------------------|
D|---------------------------------------------------------------------7777777777777777------------|
A|-2222222222222222-10101010101010101010101010101010-77777777777777777-5555555555555555------------|
D|-2222222222222222-10101010101010101010101010101010-77777777777777777-----------------------------|

Ending
e|-------------------------------------------------------------------------------------------------|
b|-------------------------------------------------------------------------------------------------|
G|-------------------------------------------------------------------------------------------------|
D|-------------------------------------------------------------------------------------------------|
A|-22x-22x----222x222x-22x--22x---222x222x---------------------------------------------------------|
D|-22x-22x----222x222x-22x--22x---222x222x---------------------------------------------------------|

=====================================================================================================

Guitar Two's Parts

Intro when the volume is swelling just increasingly play this chord louder palm muting it too
e|---0---------------------------------------------------------------------------------------------|
b|---8---------------------------------------------------------------------------------------------|
G|---0---------------------------------------------------------------------------------------------|
D|---5---------------------------------------------------------------------------------------------|
A|---7---------------------------------------------------------------------------------------------|
D|-------------------------------------------------------------------------------------------------|

e|-------------------------------------------------------------------------------------------------|
b|-------------------------------------------------------------------------------------------------|
G|-----121212-12-1212-12121212-----121212-11-11111111111111----------------------------------------|
D|------x-x-x--x--x-x--x-x-x-x------x-x-x--x--x-x-x-x-x-x-x----------------------------------------|
A|-222-101010-10-1010-10101010-222-101010--9--9-9-9-9-9-9-9----------------------------------------|
D|-222-------------------------222-----------------------------------------------------------------|

e|-------------------------------------------------------------------------------------------------|
b|-------------------------------------------------------------------------------------------------|
G|-121212-111111-77-9-9999999-121212-111111-77-9-9999999-------------------------------------------|
D|--x-x-x--x-x-x-xx-x-xxxxxxx--x-x-x--x-x-x-xx-x-xxxxxxx-------------------------------------------|
A|-101010--9-9-9-55-7-7777777-101010--9-9-9-55-7-7777777-------------------------------------------|
D|-------------------------------------------------------------------------------------------------|

e|-------------------------------------------------------------------------------------------------|
b|-------------------------------------------------------------------------------------------------|
G|-----121212-12-1212-12121212-----121212-11-------------------------------------------------------|
D|------x-x-x--x--x-x--x-x-x-x------x-x-x--x-------------------------------------------------------|
A|-222-101010-10-1010-10101010-222-101010--9-------------------------------------------------------|
D|-222-------------------------222-----------------------------------------------------------------|

e|----------------------------------------|------|-------------------------------------------------|
b|----------------------------------------|-3X---|-------------------------------------------------|
G|-121212-111111-121212-111111-1212-1111--|------|-121212-111111-121212-16161616161616-------------|
D|--x-x-x--x-x-x--x-x-x--x-x-x--x-x--x-x--|-Then-|--x-x-x--x-x-x--x-x-x--x-x-x-x-x-x-x-------------|
A|-101010--9-9-9-101010--9-9-9-1010--9-9--|------|-101010--9-9-9-101010-14141414141414-------------|
D|----------------------------------------|------|-------------------------------------------------|

Verse
e|----3--------------------------------------------------------------------------------------------|
b|-------5---3-------------------------------------------------------------------------------------|
G|-------------------------------------------------------------------------------------------------|
D|-2--------------12--------9----------------------------------------------------------------------|
A|-2--------------10--------7----------------------------------------------------------------------|
D|-2--------------10--------7----------------------------------------------------------------------|

e|-Just keep playing this then...------------------------------------------------------------------|
b|-------------------------------------------------------------------------------------------------|
G|-9>>>>>>>>>---------------------121212-111111-77--121212-111111-77-------------------------------|
D|-x>>>>>>>>>----------------------x-x-x--x-x-x-xx---x-x-x--x-x-x-xx-------------------------------|
A|-7>>>>>>>>>---------------------101010--9-9-9-55--101010--9-9-9-55-------------------------------|
D|-------------------------------------------------------------------------------------------------|

Chorus
e|-------------------------------------------------------------------------------------------------|
b|-------------------------------------that rhythm ------------------------------------------------|
G|-121212-111111-77-121212-111111-77---for a while----14-141414141414-11-111111111111--------------|
D|--x-x-x--x-x-x-xx--x-x-x--x-x-x-xx-----then----------x--x-x-x-x-x-x--x--x-x-x-x-x-x--------------|
A|-101010--9-9-9-55-101010--9-9-9-55------------------12-121212121212--9--9-9-9-9-9-9--------------|
D|-------------------------------------------------------------------------------------------------|

e|-------------------------------------------------------------------------------------------------|
b|-------------------------------------------------------------------------------------------------|
G|-16-161616161616-14-141414141414-16-161616161616-14-141414141414-16-161616161616-14-141414141414-|
D|--x--x-x-x-x-x-x--x--x-x-x-x-x-x--x--x-x-x-x-x-x--x--x-x-x-x-x-x--x--x-x-x-x-x-x--x--x-x-x-x-x-x-|
A|-14-141414141414-12-121212121212-14-141414141414-12-121212121212-14-141414141414-12-121212121212-|
D|-------------------------------------------------------------------------------------------------|

e|-------------------------------------------------------------------------------------------------|
b|-------------------------------------------------------------------------------------------------|
G|-16-161616161616-14-141414141414-----------------------------------------------------------------|
D|--x--x-x-x-x-x-x--x--x-x-x-x-x-x-----------------------------------------------------------------|
A|-14-141414141414-12-121212121212-----------------------------------------------------------------|
D|-------------------------------------------------------------------------------------------------|

First Breakdown
e|-----0-------------------------0-----------------------------------------------------------------|
b|--------0---3/5------------------0---------------------------------------------------------------|
G|-----------------------------------0-------------------------------------------------------------|
D|-222X------------222X222X-222X--------222X222X-2X2X2X2X2X2X--------------------------------------|
A|-222X------------222X222X-222X--------222X222X-2X2X2X2X2X2X--------------------------------------|
D|-222X------------222X222X-222X--------222X222X-2X2X2X2X2X2X--------------------------------------|

Second Breakdown
e|-------5/7--5--------5/7-5-3-2/3-------5/7-5----3-2---/12----------------------------------------|
b|-1-3-5---------1-3-5---------3/5-1-3-5--------3-----3--------------------------------------------|
G|-------------------------------------------------------------------------------------------------|
D|-------------------------------------------------------------------------------------------------|
A|-------------------------------------------------------------------------------------------------|
D|-------------------------------------------------------------------------------------------------|

e|-------5/7-5-------5/7-5-3-2-3--------5/7-5----3-2---/12-----------------------------------------|
b|-1-3-5-------1-3-5--------------1-3-5--------3-----3---------------------------------------------|
G|-------------------------------------------------------------------------------------------------|
D|-------------------------------------------------------------------------------------------------|
A|-------------------------------------------------------------------------------------------------|
D|-------------------------------------------------------------------------------------------------|

Interlude
e|-12~--14~--15~----17-17117171717171717b-keep picking and bend it a couple times------------------|
b|-------------------------------------------------------------------------------------------------|
G|-------------------------------------------------------------------------------------------------|
D|-------------------------------------------------------------------------------------------------|
A|-------------------------------------------------------------------------------------------------|
D|-------------------------------------------------------------------------------------------------|
                
Pre-Chorus                                              *
e|-Just keep playing this then pause ended with --------9------------------------------------------|
b|------------------------------------------------------9------------------------------------------|
G|-9>>>>>>>>>-------------------------------------------9------------------------------------------|
D|-x>>>>>>>>>--------------------------------------------------------------------------------------|
A|-7>>>>>>>>>---------------------------------------[harmonics]------------------------------------|
D|-------------------------------------------------------------------------------------------------|

Chorus (Consequence, it's our need...)
e|-------------------------------------------------------------------------------------------------|
b|-------------------------------------that rhythm ------------------------------------------------|
G|-121212-111111-77-121212-111111-77---for a while----14-141414141414-11-111111111111--------------|
D|--x-x-x--x-x-x-xx--x-x-x--x-x-x-xx-----then----------x--x-x-x-x-x-x--x--x-x-x-x-x-x--------------|
A|-101010--9-9-9-55-101010--9-9-9-55------------------12-121212121212--9--9-9-9-9-9-9--------------|
D|-------------------------------------------------------------------------------------------------|

e|-------------------------------------------------------------------------------------------------|
b|-------------------------------------------------------------------------------------------------|
G|-16-161616161616-14-141414141414-16-161616161616-14-141414141414-16-161616161616-14-141414141414-|
D|--x--x-x-x-x-x-x--x--x-x-x-x-x-x--x--x-x-x-x-x-x--x--x-x-x-x-x-x--x--x-x-x-x-x-x--x--x-x-x-x-x-x-|
A|-14-141414141414-12-121212121212-14-141414141414-12-121212121212-14-141414141414-12-121212121212-|
D|-------------------------------------------------------------------------------------------------|

e|-------------------------------------------------------------------------------------------------|
b|-------------------------------------------------------------------------------------------------|
G|-16-161616161616-14-141414141414-----------------------------------------------------------------|
D|--x--x-x-x-x-x-x--x--x-x-x-x-x-x-----------------------------------------------------------------|
A|-14-141414141414-12-121212121212-----------------------------------------------------------------|
D|-------------------------------------------------------------------------------------------------|

tremolo pick these octaves
e|-------------------------------------------------------------------------------------------------|
b|-------------------------------------------------------------------------------------------------|
G|-21-17-19-16-17-14-16-12-14-11-12-9-11-7-9-5-7-4-5-2-44444444------------------------------------|
D|--x--x--x--x--x--x--x--x--x--x--x-xx-x-x-x-x-x-x-x-x-xxxxxxxx------------------------------------|
A|-19-15-17-14-15-12-14-10-12--9-10-7--9-5-7-3-5-2-3-0-22222222------------------------------------|
D|-------------------------------------------------------------------------------------------------|

Not too sure about this last part
e|-------------------------------------------------------------------------------------------------|
b|-0000000-0000000---------------------------------------------------------------------------------|
G|-3434343-3434343-------just keep playing something like that-------------------------------------|
D|-------------------------------------------------------------------------------------------------|
A|-------------------------------------------------------------------------------------------------|
D|-------------------------------------------------------------------------------------------------|

Pretty much the best opening song I've ever heard on a CD
Send your regards to mgustas@usip.edu. PEACE OUT.
comments
print report bad tab
9 comments total. Showing first comments.
0 reply
Randy7Rhoads wrote on February 16 2006, 05:29 pm

i can't seem to get the intro to sound quite like it does

0 reply
STRAT811 wrote on March 18 2006, 12:20 am

yeah you forgot this in the intro:
e-----------|
b-----------|
g-12-11-7-9-|
d-x--x--x-x-|
a-10-9--5-7-|
e-----------|

0 reply
pacsta rocka wrote on March 23 2006, 07:09 am

pretty fliipin rad thank you

I want to post or [tab]
guest
You may want to rate the tab now too:
select rating
Please do not post tabs as comments. Select "correction" instead!