Oops, an error
Loading. Please wait.

This Time Was Mine Tab

ver1
ver1

Whole song

Interactive

More versions @911Tabs.com
187 views 1 this week
1 commentread comment
1 2 3 4 5
excellent!
x 1
Autoscroll
+/-
esc
set tempo
stop
Contributor
Difficulty
intermediate
Hey! There's an official Ultimate Guitar app which is ideal
for learning songs when you're away from computer. Get the app
WARNING: You are trying to view
                                    content from Ultimate-Guitar.com
                                    in an unauthorized application,
                                    which is prohibited.

                                    Please use an official Ultimate
                                    Guitar Tabs application for iPhone,
                                    iPad or Android to access legitimate
                                    chords, guitar, bass, and drum tabs
                                    from Ultimate-Guitar.com database.

                                    Type "ultimate guitar tabs" in Apple
                                    App Store's or Android Market's
                                    search to find the application.
Tabbed by: Joshua Garcia (joshuag523@aol.com)

Tabs for the song: This Time Was Mine by Unearth
Please rate and let me know if you have any corrections. Thank you.


Tuning: 7-String Standard (B E A D G B E)


Intro
Guitar 1:
E||------------------------------------------------------------------------------|
B||------------------------------------------------------------------------------|
G||--12-00000-13-00000-10-00000-12-00000-13-000-10-000-12-00000-13-00000-10-000--|
D||------------------------------------------------------------------------------|
A||------------------------------------------------------------------------------|
E||------------------------------------------------------------------------------|
B||------------------------------------------------------------------------------|


E||---------------------------------------|
B||---------------------------------------|
G||--12131210-----------------------------|
D||-----------131210---10-----------------| x4
A||-----------------14---14-11h14p11--11--|
E||---------------------------------13----|
B||---------------------------------------|


Guitar 2:
E||--------------------------------------------|
B||--------------------------------------------|
G||--------------------------------------------|
D||--------------------------------------------| x2
A||--55555----------55555-----x-8--8---x-6--6--|
E||--33333----------33333-----x-6--6---x-4--4--|
B||--------------------------------------------|
     .....          .....

E||------------------------------------------------------------------------|
B||------------------------------------------------------------------------|
G||------------------------------------------------------------------------|
D||------------------------------------------------------------------------|
A||------------------------------------------------------------------------|
E||--3333333333333333-4444444444444444-8888888888888888-44444444-66666666--|
B||------------------------------------------------------------------------|
     ................ ................ ................ ........ ........

E||------------------------------------------------------------------------|
B||------------------------------------------------------------------------|
G||------------------------------------------------------------------------|
D||------------------------------------------------------------------------|
A||------------------------------------------------------x-6--6---x-8--8---|
E||--3333333333333333-4444444444444444-8888888888888888--x-4--4---x-6--6---|
B||------------------------------------------------------------------------|
     ................ ................ ................



Guitar 1:
E||-----------------------------------------------------|
B||-----------------------------------------------------|
G||--12-00000-13-00000-10-00000-12-00000-13-000-10-000--|
D||-----------------------------------------------------|
A||-----------------------------------------------------|
E||-----------------------------------------------------|
B||-----------------------------------------------------|


Guitar 2:
E||-------------------------|
B||-------------------------|
G||-------------------------|
D||-------------------------|
A||--55555----------x-8\\\--|
E||--33333----------x-6\\\--|
B||-------------------------|
     .....



Verse
Guitar 1/2:
E||---------------------------------------------|
B||---------------------------------------------|
G||---------------------------------------------|
D||---------------------------------------------|
A||----------------------3---2------------------|
E||--3-4-3-------4---3-----------4-3-4-3-----3--|
B||--------0-0-0---0---0---0---0---------0-0----|
           . . .   .   .   .   .         . .


Guitar 1:
E||------------------------|
B||------------------------|
G||------------------------|
D||------------------------|
A||------------------*9b~--|
E||----------3-(/)5--------|
B||--7---3-7---------------|


Guitar 2:
E||------------------------|
B||------------------------|
G||------------------------|
D||------------------------|
A||------------------------|
E||----------3-(/)5--*9b~--|
B||--7---3-7---------------|


Guitar 1/2:
E||-----------------------------------------------------------------|
B||-----------------------------------------------------------------|
G||-----------------------------------------------------------------|
D||------------------------------------------------4-4-4-4-4/5-5-5--|
A||----------------------3---2-3-6-3-2-------------4-4-4-4-4/5-5-5--|
E||--3-4-3-------4---3-----------------4-2-2/3-3-3-2-2-2-2-2/3-3-3--|
B||--------0-0-0---0---0---0----------------------------------------|
           . . .   .   .   .

E||--------------------------------------------------------------------|
B||--------------------------------------------------------------------|
G||--------------------------------------------------------------------|
D||--------------------------------------------------------------------|
A||----------------------3---2-----------------------------------*9b~--|
E||--3-4-3-------4---3-----------4-3-4-3-----3-----------3-(/)5--------|
B||--------0-0-0---0---0---0---0---------0-0-----7---3-7---------------|
           . . .   .   .   .   .         . .

E||-----------------------------------------------------------------|
B||-----------------------------------------------------------------|
G||-----------------------------------------------------------------|
D||------------------------------------------------4-4-4-4-4/5-5-5--|
A||----------------------3---2-3-6-3-2-------------4-4-4-4-4/5-5-5--|
E||--3-4-3-------4---3-----------------4-2-2/3-3-3-2-2-2-2-2/3-3-3--|
B||--------0-0-0---0---0---0----------------------------------------|
           . . .   .   .   .



Chorus
Guitar 1/2:
E||------------------------------------------|
B||------------------------------------------|
G||------------------------------------------|
D||--5~--------6~--------8~--------3~----6~--|
A||--5~--------6~--------8~--------3~----6~--|
E||--3~--------4~--------6~--------1~----4~--|
B||----------------------6~------------------|


Guitar 1:
E||------------------------------------------------------------------------------|
B||------------------------------------------------------------------------------|
G||--12-00000-13-00000-10-00000-12-00000-13-000-10-000-12-00000-13-00000-10-000--|
D||------------------------------------------------------------------------------|
A||------------------------------------------------------------------------------|
E||------------------------------------------------------------------------------|
B||------------------------------------------------------------------------------|


E||----------------------------------------|
B||----------------------------------------|
G||--12131210------------------------------|
D||-----------131210-----------------------|
A||-----------------14-11h14p11h14p11--11--|
E||----------------------------------13----|
B||----------------------------------------|


Guitar 2:
E||--------------------------------------------|
B||--------------------------------------------|
G||--------------------------------------------|
D||--------------------------------------------|
A||--55555----------55555-----x-8--8---x-6--6--|
E||--33333----------33333-----x-6--6---x-4--4--|
B||--------------------------------------------|
     .....          .....


Guitar 1/2:
E||------------------------------------------|
B||------------------------------------------|
G||------------------------------------------|
D||--5~--------6~--------8~--------3~----6~--|
A||--5~--------6~--------8~--------3~----6~--|
E||--3~--------4~--------6~--------1~----4~--|
B||----------------------6~------------------|



Guitar 1:
E||------------------------------------------------------------------------------|
B||------------------------------------------------------------------------------|
G||--12-00000-13-00000-10-00000-12-00000-13-000-10-000-12-00000-13-00000-10-12~--|
D||------------------------------------------------------------------------------|
A||------------------------------------------------------------------------------|
E||------------------------------------------------------------------------------|
B||------------------------------------------------------------------------------|


Guitar 2:
E||-------------------------------------------------|
B||-------------------------------------------------|
G||-------------------------------------------------|
D||-------------------------------------------------|
A||--55555----------55555~--5-5-5-5-5-5-5-5-5-x-5\--|
E||--33333----------33333~--3-3-3-3-3-3-3-3-3-x-3\--|
B||-------------------------------------------------|
     .....          .....   . . . . . . . .



Verse
Guitar 1/2:
E||---------------------------------------------|
B||---------------------------------------------|
G||---------------------------------------------|
D||---------------------------------------------|
A||----------------------3---2------------------|
E||--3-4-3-------4---3-----------4-3-4-3-----3--|
B||--------0-0-0---0---0---0---0---------0-0----|
           . . .   .   .   .   .         . .


Guitar 1:
E||------------------------|
B||------------------------|
G||------------------------|
D||------------------------|
A||------------------*9b~--|
E||----------3-(/)5--------|
B||--7---3-7---------------|


Guitar 2:
E||------------------------|
B||------------------------|
G||------------------------|
D||------------------------|
A||------------------------|
E||----------3-(/)5--*9b~--|
B||--7---3-7---------------|


Guitar 1/2:
E||-----------------------------------------------------------------|
B||-----------------------------------------------------------------|
G||-----------------------------------------------------------------|
D||------------------------------------------------4-4-4-4-4/5-5-5--|
A||----------------------3---2-3-6-3-2-------------4-4-4-4-4/5-5-5--|
E||--3-4-3-------4---3-----------------4-2-2/3-3-3-2-2-2-2-2/3-3-3--|
B||--------0-0-0---0---0---0----------------------------------------|



Guitar 1/2:
E||--------------------------------------------------|
B||--------------------------------------------------|
G||--------------------------------------------------|
D||--------------------------------------------------|
A||------------------------3----2--------------------|
E||--3-4-3-------4----3--------------4-3-4-3------3--|
B||--------00000---00---00---00---00---------0000----|
           .....   ..   ..   ..   ..         ....


Guitar 1:
E||------------------------|
B||------------------------|
G||------------------------|
D||------------------------|
A||------------------*9b~--|
E||----------3-(/)5--------|
B||--7---3-7---------------|


Guitar 2:
E||------------------------|
B||------------------------|
G||------------------------|
D||------------------------|
A||------------------------|
E||----------3-(/)5--*9b~--|
B||--7---3-7---------------|


Guitar 1/2:
E||--------------------------------------------------------------------|
B||--------------------------------------------------------------------|
G||--------------------------------------------------------------------|
D||---------------------------------------------------4-4-4-4-4/5-5-5--|
A||------------------------3----2-3-6-3-2-------------4-4-4-4-4/5-5-5--|
E||--3-4-3-------4----3-------------------4-2-2/3-3-3-2-2-2-2-2/3-3-3--|
B||--------00000---00---00---00----------------------------------------|
           .....   ..   ..   ..


Bridge
Guitar 1/2:
E||----------------------------------------------------------------|
B||----------------------------------------------------------------|
G||----------------------------------------------------------------|
D||----------------------------------------------------------------|
A||--5-5-5-5-5-5-5-5---5---5---7---8--88--888--10---8-8-8---7-5-5--|
E||--3-3-3-3-3-3-3-2---2---3---5---6--66--666--8----6-6-6---5-3-3--|
B||----------------------------------------------------------------|
       . . . . . .                                    .       .

E||-----------------------------------------------------------------|
B||-----------------------------------------------------------------|
G||-----------------------------------------------------------------|
D||-----------------------------------------------------------------|
A||--5-5-5-5-5-5-5---5---5---8--------------------10---8-8-8---7-5--|
E||--3-3-3-3-3-3-2---2---3---6---6--6--6-6-6-6-6--8----6-6-6---5-3--|
B||------------------------------4--4--4-4-4-4-4--------------------|
       . . . . .                       . . . . .         .       .



Guitar 1:
E||-----------------------------------|-----------------------------------|
B||-----------------------------------|----------------6------------------|
G||--7-------------7------------------|--7-----------------8---7-------5--|
D||----5-8-5-7-8-5---5-8-5-7-5-8-7-5--|----5-8-5-7-8-5---5---5---5-7-8----|
A||-----------------------------------|-----------------------------------|
E||-----------------------------------|-----------------------------------|
B||-----------------------------------|-----------------------------------|


E||-----------------------------------|-----------------------------------|
B||-----------------------------------|-----------------------------------|
G||--7-------------7------------------|-----------------------------------|
D||----5-8-5-7-8-5---5-8-5-7-5-8-7-5~-|--5-4----5----7---8-7-5---5-7-8-5--|
A||-----------------------------------|------------------------7----------|
E||-----------------------------------|-----------------------------------|
B||-----------------------------------|-----------------------------------|


Guitar 2:
E||---------------------------------------------------------------------|
B||---------------------------------------------------------------------|
G||---------------------------------------------------------------------|
D||---------------------------------------------------------------------|
A||--5--5-5-5-5-5-5-5---5---5---7---8--8-8-8-8-8-8--10---8-8-8---7-5-5--|
E||--3--3-3-3-3-3-3-2---2---3---5---6--6-6-6-6-6-6--8----6-6-6---5-3-3--|
B||---------------------------------------------------------------------|
          . . . . .                      . . . . .         .       .

E||-----------------------------------------------------------------|
B||-----------------------------------------------------------------|
G||-----------------------------------------------------------------|
D||-----------------------------------------------------------------|
A||--5-5-5-5-5-5-5---5---5---8--------------------10---8-8-8---7-5--|
E||--3-3-3-3-3-3-2---2---3---6---6--6--6-6-6-6-6--8----6-6-6---5-3--|
B||------------------------------4--4--4-4-4-4-4--------------------|
       . . . . .                       . . . . .         .       .



Guitar 1:
E||-----------------------------------|-----------------------------------|
B||-----------------------------------|----------------6------------------|
G||--7-------------7------------------|--7-----------------8---7-------5--|
D||----5-8-5-7-8-5---5-8-5-7-5-8-7-5--|----5-8-5-7-8-5---5---5---5-7-8----|
A||-----------------------------------|-----------------------------------|
E||-----------------------------------|-----------------------------------|
B||-----------------------------------|-----------------------------------|


E||-----------------------------------|--------------------------------------|
B||-----------------------------------|--------------------------------------|
G||--7-------------7------------------|--------------------------------------|
D||----5-8-5-7-8-5---5-8-5-7-5-8-7-5~-|--5-4----5----7---8-7-5---5-7-8-7-5~--|
A||-----------------------------------|------------------------7-------------|
E||-----------------------------------|--------------------------------------|
B||-----------------------------------|--------------------------------------|


Guitar 2:
E||-------------------------------------------------------------|
B||-------------------------------------------------------------|
G||-------------------------------------------------------------|
D||-------------------------------------------------------------|
A||--5--55--555--5---5---5---7---8--88--888--10---8-8-8---7-5---|
E||--3--33--333--2---2---3---5---6--66--666--8----6-6-6---5-3---|
B||-------------------------------------------------------------|
                                                    .       .

E||----------------------------------------------------------------------|
B||----------------------------------------------------------------------|
G||----------------------------------------------------------------------|
D||----------------------------------------------------------------------|
A||--5--55--555--5---5---5---8--------------------10---8-8-8---7-5-5-5~--|
E||--3--33--333--2---2---3---6---6--6--6-6-6-6-6--8----6-6-6---5-3-3-3~--|
B||------------------------------4--4--4-4-4-4-4-------------------------|
                                       . . . . .         .       . .



Breakdown
Guitar 1/2:
E||------------------------------------|
B||------------------------------------|
G||------------------------------------|
D||------------------------------------| x4
A||------------------------------------|
E||------------------------------------|
B||--00-00-00-00-00-00-00-00-00000000--|
     .. .. .. .. .. .. .. .. ........



Guitar 1/2:
E||-------------------------------------------------|
B||-------------------------------------------------|
G||-------------------------------------------------|
D||-------------------------------------------------|
A||--22----22-2-22---22-2222~2-22--22---22-2-22--x--|
E||--22----22-2-22---22-2222~2-22--22---22-2-22--x--|
B||--00----00-0-00---00-0000~0-00--00---00-0-00--x--|
     ..    .. . ..   .. .... . ..  ..   .. . ..


Guitar 1:
E||--------------------------|
B||--------------------------|
G||--------------------------|
D||--9----7------------------|
A||--9----7------------------|
E||--7----5----8--7h8p7h8p7--|
B||--------------------------|


Guitar 2:
E||--------------------------|
B||--------------------------|
G||--------------------------|
D||--9----7------------------|
A||--9----7----7--6h7p6h7p6--| x4
E||--7----5------------------|
B||--------------------------|



Guitar 1/2:
E||-------------------------------------------|
B||-------------------------------------------|
G||-------------------------------------------|
D||-------------------------------------------|
A||-------------------------------------------|
E||-----------------------------8-0-7/8h11p8--|
B||--00-00-00-00-00-00-00-00-00---------------|
     .. .. .. .. .. .. .. .. ..

E||--------------------------------------|
B||--------------------------------------|
G||--------------------------------------|
D||--------------------------------------|
A||--------------------------------3-----| x2
E||------------------------3h5--3h5-653--|
B||--00-00-00-00-0003-33-33---33---------|
     .. .. .. .. .... .. ..   ..


E||------|
B||------|
G||------|
D||--5~--|
A||--5~--|
E||--3~--|
B||------|



Bridge
Guitar 1:
E||------------------------------------------------------------------------------|
B||------------------------------------------------------------------------------|
G||--12-00000-13-00000-10-00000-12-00000-13-000-10-000-12-00000-13-00000-10-000--|
D||------------------------------------------------------------------------------|
A||------------------------------------------------------------------------------|
E||------------------------------------------------------------------------------|
B||------------------------------------------------------------------------------|


E||---------------------------------------|
B||---------------------------------------|
G||--12131210-----------------------------|
D||-----------131210---10-----------------| x2
A||-----------------14---14-11h14p11--11--|
E||---------------------------------13----|
B||---------------------------------------|


Guitar 2:
E||------|
B||------|
G||------|
D||--5~--|
A||--5~--|
E||--3~--|
B||------|


E||--------------------------------------------|
B||--------------------------------------------|
G||--------------------------------------------|
D||--------------------------------------------|
A||--55555----------55555-----x-8--8---x-6--6--|
E||--33333----------33333-----x-6--6---x-4--4--|
B||--------------------------------------------|
     .....          .....



Guitar 1/2:
E||----------------------------------|
B||----------------------------------|
G||----------------------------------|
D||----------------------------------|
A||--55555-----5--5--5--5-----15\\\--|
E||--33333-----3--3--3--3--x--13\\\--|
B||------------------------x---------|
     .....     .  .  .  .



Verse
Guitar 1/2:
E||---------------------------------------------|
B||---------------------------------------------|
G||---------------------------------------------|
D||---------------------------------------------|
A||----------------------3---2------------------|
E||--3-4-3-------4---3-----------4-3-4-3-----3--|
B||--------0-0-0---0---0---0---0---------0-0----|
           . . .   .   .   .   .         . .


Guitar 1:
E||------------------------|
B||------------------------|
G||------------------------|
D||------------------------|
A||------------------*9b~--|
E||----------3-(/)5--------|
B||--7---3-7---------------|


Guitar 2:
E||------------------------|
B||------------------------|
G||------------------------|
D||------------------------|
A||------------------------|
E||----------3-(/)5--*9b~--|
B||--7---3-7---------------|


Guitar 1/2:
E||-----------------------------------------------------------------|
B||-----------------------------------------------------------------|
G||-----------------------------------------------------------------|
D||------------------------------------------------4-4-4-4-4/5-5-5--|
A||----------------------3---2-3-6-3-2-------------4-4-4-4-4/5-5-5--|
E||--3-4-3-------4---3-----------------4-2-2/3-3-3-2-2-2-2-2/3-3-3--|
B||--------0-0-0---0---0---0----------------------------------------|



Guitar 1/2:
E||--------------------------------------------------|
B||--------------------------------------------------|
G||--------------------------------------------------|
D||--------------------------------------------------|
A||------------------------3----2--------------------|
E||--3-4-3-------4----3--------------4-3-4-3------3--|
B||--------00000---00---00---00---00---------0000----|
           .....   ..   ..   ..   ..         ....


Guitar 1:
E||------------------------|
B||------------------------|
G||------------------------|
D||------------------------|
A||------------------*9b~--|
E||----------3-(/)5--------|
B||--7---3-7---------------|


Guitar 2:
E||------------------------|
B||------------------------|
G||------------------------|
D||------------------------|
A||------------------------|
E||----------3-(/)5--*9b~--|
B||--7---3-7---------------|


Guitar 1/2:
E||--------------------------------------------------------------------|
B||--------------------------------------------------------------------|
G||--------------------------------------------------------------------|
D||---------------------------------------------------4-4-4-4-4/5-5-5--|
A||------------------------3----2-3-6-3-2-------------4-4-4-4-4/5-5-5--|
E||--3-4-3-------4----3-------------------4-2-2/3-3-3-2-2-2-2-2/3-3-3--|
B||--------00000---00---00---00----------------------------------------|
           .....   ..   ..   ..


Outro
Guitar 1:
E||-----------------------------------|-----------------------------------|
B||-----------------------------------|----------------6------------------|
G||--7-------------7------------------|--7-----------------8---7-------5--|
D||----5-8-5-7-8-5---5-8-5-7-5-8-7-5--|----5-8-5-7-8-5---5---5---5-7-8----|
A||-----------------------------------|-----------------------------------|
E||-----------------------------------|-----------------------------------|
B||-----------------------------------|-----------------------------------|


E||-----------------------------------|-----------------------------------|
B||-----------------------------------|-----------------------------------|
G||--7-------------7------------------|-----------------------------------|
D||----5-8-5-7-8-5---5-8-5-7-5-8-7-5~-|--5-4----5----7---8-7-5---5-7-8-5--| x2
A||-----------------------------------|------------------------7----------|
E||-----------------------------------|-----------------------------------|
B||-----------------------------------|-----------------------------------|


Guitar 2:
E||---------------------------------------------------------------|
B||---------------------------------------------------------------|
G||---------------------------------------------------------------|
D||---------------------------------------------------------------|
A||--5-------------------------5---7---8--88-----10--8-8-8---7-5--|
E||--3-------------------------3---5---6--66-----8---6-6-6---5-3--|
B||---------------------------------------------------------------|
                                                       .       .

E||-------------------------------------------------------------------|
B||-------------------------------------------------------------------|
G||-------------------------------------------------------------------|
D||-------------------------------------------------------------------|
A||--5--5-5-5-5-5--5---5---5---8-------------------10---8-8-8---7-5---|
E||--3--3-3-3-3-3--2---2---3---6---6--6-6-6-6-6-6--8----6-6-6---5-3---|
B||--------------------------------4--4-4-4-4-4-4---------------------|
            . .                         . . . . .         .       .

E||------------------------------------------------------------------|
B||------------------------------------------------------------------|
G||------------------------------------------------------------------|
D||------------------------------------------------------------------|
A||--5--5-5-5-5-5--5---5---5---7---8--8-8-8-8-8---10---8-8-8---7-5---|
E||--3--3-3-3-3-3--2---2---3---5---6--6-6-6-6-6---8----6-6-6---5-3---|
B||------------------------------------------------------------------|
            . .                           . .            .       .

E||-------------------------------------------------------------------|
B||-------------------------------------------------------------------|
G||-------------------------------------------------------------------|
D||-------------------------------------------------------------------|
A||--5--5-5-5-5-5--5---5---5---8-------------------10---8-8-8---7-5---|
E||--3--3-3-3-3-3--2---2---3---6---6--6-6-6-6-6-6--8----6-6-6---5-3---|
B||--------------------------------4--4-4-4-4-4-4---------------------|
            . .                         . . . . .         .       .



Guitar 1:
E||-----------------------------------|-----------------------------------|
B||-----------------------------------|----------------6------------------|
G||--7-------------7------------------|--7-----------------8---7-------5--|
D||----5-8-5-7-8-5---5-8-5-7-5-8-7-5--|----5-8-5-7-8-5---5---5---5-7-8----|
A||-----------------------------------|-----------------------------------|
E||-----------------------------------|-----------------------------------|
B||-----------------------------------|-----------------------------------|


E||-----------------------------------|--------------------------------------|
B||-----------------------------------|--------------------------------------|
G||--7-------------7------------------|--------------------------------------|
D||----5-8-5-7-8-5---5-8-5-7-5-8-7-5~-|--5-4----5----7---8-7-5---5-7-8-7-5~--|
A||-----------------------------------|------------------------7-------------|
E||-----------------------------------|--------------------------------------|
B||-----------------------------------|--------------------------------------|


Guitar 2:
E||--------------------------------------------------------------------|
B||--------------------------------------------------------------------|
G||--------------------------------------------------------------------|
D||--------------------------------------------------------------------|
A||--5-5-5-5-5-5-5--5---5---5---7---8-8-8-8-8-8-8---10---8-8-8---7-5---|
E||--3-3-3-3-3-3-3--2---2---3---5---6-6-6-6-6-6-6---8----6-6-6---5-3---|
B||--------------------------------------------------------------------|
                                                           .       .

E||---------------------------------------------------------------------------|
B||---------------------------------------------------------------------------|
G||---------------------------------------------------------------------------|
D||---------------------------------------------------------------------------|
A||--5-5-5-5-5-5-5--5---5---5---8-------------------10---8-8-8---7-5--5---5~--|
E||--3-3-3-3-3-3-3--2---2---3---6---6--6-6-6-6-6-6--8----6-6-6---5-3--3---3~--|
B||---------------------------------4--4-4-4-4-4-4----------------------------|
                                         . . . . .         .       .  .





Tablature Legend
----------------
 h   hammer-on
 p   pull-off
 b   bend
 pb  pre-bend
 r   release bend
 ~   hold / vibrato
 .   palm mute
 /   slide up
 \   slide down
 *   pinch harmonic
 '   natural harmonic
 x   mute note
 T   tap
comments
We did not receive enough feedback on this tab! Please rate:
print report bad tab
1 2 3 4 5
1 comment total.
0 reply
Metalxorxdie wrote on March 4 2013, 02:30 pm

nice job on this!

I want to post or [tab]
guest
You may want to rate the tab now too:
select rating
Please do not post tabs as comments. Select "correction" instead!