Oops, an error
Loading. Please wait.

I Was Born A Unicorn Bass Tab

ver2
ver2

Whole song

Interactive

More versions @911Tabs.com
251 views 1 this week
no commentswrite comment
1 2 3 4 5
please rate
Autoscroll
+/-
esc
set tempo
stop
Difficulty
novice
Hey! There's an official Ultimate Guitar app which is ideal
for learning songs when you're away from computer. Get the app
WARNING: You are trying to view
                                    content from Ultimate-Guitar.com
                                    in an unauthorized application,
                                    which is prohibited.

                                    Please use an official Ultimate
                                    Guitar Tabs application for iPhone,
                                    iPad or Android to access legitimate
                                    chords, guitar, bass, and drum tabs
                                    from Ultimate-Guitar.com database.

                                    Type "ultimate guitar tabs" in Apple
                                    App Store's or Android Market's
                                    search to find the application.
I Was Born (A Unicorn)                              
The Unicorns
Bass
tabbed by Binuts
Tune down 1/4 step


     W                   W                   W                 
G||-------------------|-------------------|-------------------|
D||-------------------|-------------------|-------------------|
A||-------------------|-------------------|-------------------|
E||-------------------|-------------------|-------------------|


  W                   W                   W                   W                 
-------------------|-------------------|-------------------|-------------------|
-------------------|-------------------|-------------------|-------------------|
-------------------|-------------------|-------------------|-------------------|
-------------------|-------------------|-------------------|-------------------|


  W                   W                   W                   W                 
-------------------|-------------------|-------------------|-------------------|
-------------------|-------------------|-------------------|-------------------|
-------------------|-------------------|-------------------|-------------------|
-------------------|-------------------|-------------------|-------------------|


  W                   W                   W                   W                 
-------------------|-------------------|-------------------|-------------------|
-------------------|-------------------|-------------------|-------------------|
-------------------|-------------------|-------------------|-------------------|
-------------------|-------------------|-------------------|-------------------|


  H        Q     Q        Q.     E  E  E  E  E     W                 
-----------------------|------------------------|-------------------|
-----------------------|------------------------|-------------------|
-----------------------|---------------4--5--6--|--7----------------|
----------------17S----|--5------5--5-----------|-------------------|


            |----6----|                                                  
  Q.     E  Q    Q    Q       W                   Q.     E  E  E  E  E   
---------------------------|-------------------|------------------------|
---------------------------|-------------------|------------------------|
------------4----5----6----|--7----------------|---------------4--5--6--|
--5------5-----------------|-------------------|--5------5--5-----------|


                                |----6----|                         
  W                   Q.     E  Q    Q    Q       W                 
-------------------|---------------------------|-------------------|
-------------------|---------------------------|-------------------|
--7----------------|------------4----5----6----|--7----------------|
-------------------|--5------5-----------------|-------------------|


  W                   W                   W                   W                 
-------------------|-------------------|-------------------|-------------------|
-------------------|-------------------|-------------------|-------------------|
-------------------|-------------------|-------------------|-------------------|
-------------------|-------------------|-------------------|-------------------|


  W                   W                   W                 
-------------------|-------------------|-------------------|
-------------------|-------------------|-------------------|
-------------------|-------------------|-------------------|
-------------------|-------------------|-------------------|


  H        E  E  E  E     E  E  Q    H           W                 
-----------------------|----------------------|-------------------|
-----------------------|----------------------|-------------------|
-----------------------|----------------------|-------------------|
--------------5--5--5--|--5-------------------|-------------------|


  W                   H        E  E  E  E     E  E  Q    H         
-------------------|-----------------------|----------------------|
-------------------|-----------------------|----------------------|
-------------------|-----------------------|----------------------|
-------------------|--------------5--5--5--|--5-------------------|


  W                   Q.     E  Q.     E     Q.     E  Q.     E   
-------------------|----------------------|----------------------|
-------------------|----------------------|----------------------|
-------------------|----------------------|----------------------|
-------------------|--5------4--5------4--|--5------4--5------4--|


  Q.     E  Q.     E     E  E  E  E  E  E  E  E     Q.     E  E  E  E  E   
----------------------|--------------------------|------------------------|
----------------------|--------------------------|------------------------|
----------------------|--------------------------|------------4--5--6--7--|
--5------4--5------4--|--5--5--5--5--5--5--5--5--|--5------5--------------|


                                 |----6----|                 |----6----|     
  H        H           Q.     E  Q    Q    Q       Q.     E  Q    Q    Q     
--------------------|---------------------------|---------------------------|
--------------------|---------------------------|------------4--------------|
--7-----------------|------------4----5----6----|--7------7-------7----4----|
-----------0--------|--5------5-----------------|---------------------------|


                                                              |----6----|     
  Q.     E  E  E  E  E     Q.     E  E  E  E  E     Q.     E  Q    Q    Q     
------------------------|------------------------|---------------------------|
------------------------|------------------------|---------------------------|
------------4--5--6--7--|--7------7--7--5--4--5--|------------4----5----6----|
--5------5--------------|------------------------|--5------5-----------------|


            |----6----|                                                 
  Q.     E  Q    Q    Q       E  E  E  E  H           W                 
---------------------------|-----------------------|-------------------|
------------4--------------|-----------------------|-------------------|
--7------7-------7----4----|-----------------------|-------------------|
---------------------------|--5-----5--------------|-------------------|


  W                   H        E  E  E  E     E  E  Q    H         
-------------------|-----------------------|----------------------|
-------------------|-----------------------|----------------------|
-------------------|-----------------------|----------------------|
-------------------|--------------5--5--5--|--5-------------------|


  W                   W                   W                 
-------------------|-------------------|-------------------|
-------------------|-------------------|-------------------|
-------------------|-------------------|-------------------|
-------------------|-------------------|-------------------|


  Q    Q    Q    Q       Q    Q    Q    Q       Q    Q    Q    Q     
----------------------|----------------------|----------------------|
----------------------|----------------------|----------------------|
----------------------|----------------------|----------------------|
-------5---------5----|-------5---------5----|-------5---------5----|


  Q    Q    E  E  E  E     E  E  Q    H           W                 
------------------------|----------------------|-------------------|
------------------------|----------------------|-------------------|
------------------------|----------------------|-------------------|
-------5-------5--5--5--|--5-------------------|-------------------|


  W                   W                   W                   W                 
-------------------|-------------------|-------------------|-------------------|
-------------------|-------------------|-------------------|-------------------|
-------------------|-------------------|-------------------|-------------------|
-------------------|-------------------|-------------------|-------------------|


  W                   W                   H        H         
-------------------|-------------------|--------------------|
-------------------|-------------------|--------------------|
-------------------|-------------------|--------------------|
-------------------|-------------------|--5--------5--------|


  H        H           H        H           H        H         
--------------------|--------------------|--------------------|
--------------------|--------------------|--------------------|
--------------------|--------------------|--------------------|
--0--------0--------|--5--------5--------|--0--------0--------|


  H        H           H        H           H        H         
--------------------|--------------------|--------------------|
--------------------|--------------------|--------------------|
--------------------|--------------------|--------------------|
--5--------5--------|--0--------0--------|--5--------5--------|


  H        H           E  E  E  E  E  E  E  E     E  E  E  E  E  E  E  E   
--------------------|--------------------------|--------------------------|
--------------------|--------------------------|--------------------------|
--------------------|--------------------------|--------------------------|
--0--------0--------|--5--5--5--5--5--5--5--5--|--0--0--0--0--0--0--0--0--|


  E  E  E  E  E  E  E  E     E  E  E  E  E  E  E  E   
--------------------------|--------------------------|
--------------------------|--------------------------|
--------------------------|--7--7--7--7--7--7--7--7--|
--5--5--5--5--5--5--5--5--|--------------------------|


  E  E  E  E  E  E  E  E     E  E  E  E  E  E  E  E   
--------------------------|--------------------------|
--------------------------|--------------------------|
--------------------------|--------------------------|
--5--5--5--5--5--5--5--5--|--0--0--0--0--0--0--0--0--|


  E  E  E  E  E  E  E  E     E  E  E  E  E  E  Q       W                 
--------------------------|-------------------------|-------------------|
--------------------------|-------------------------|-------------------|
--------------------------|--7--7--7--7--7--7-------|-------------------|
--5--5--5--5--5--5--5--5--|--------------------0----|-------------------|


  W                   W                   W                   W                 
-------------------|-------------------|-------------------|-------------------|
-------------------|-------------------|-------------------|-------------------|
-------------------|-------------------|-------------------|-------------------|
-------------------|-------------------|-------------------|-------------------|


  H        Q     Q        Q.     E  Q.     E     Q.     E  Q.     E   
-----------------------|----------------------|----------------------|
-----------------------|----------------------|----------------------|
-----------------------|----------------------|----------------------|
----------------17S----|--5------4--5------4--|--5------4--5------4--|


  Q.     E  Q.     E     E  E  E  E  E  E  E  E     E  E  Q    H          
----------------------|--------------------------|----------------------||
----------------------|--------------------------|----------------------||
----------------------|--------------------------|----------------------||
--5------4--5------4--|--5--5--5--5--5--5--5--5--|--5-------------------||


Duration Legend
---------------
W - whole
H - half
Q - quarter
E - 8th
S - 16th
T - 32nd
X - 64th
. - note dotted
|-n-|  - n-tuplets
comments
We did not receive enough feedback on this tab! Please rate:
print report bad tab
1 2 3 4 5
I want to post or [tab]
guest
You may want to rate the tab now too:
select rating
Please do not post tabs as comments. Select "correction" instead!