Oops, an error
Loading. Please wait.

I Was Born A Unicorn Tab

ver3
ver3

Whole song

Interactive

More versions @911Tabs.com
449 views 3 this week
no commentswrite comment
1 2 3 4 5
excellent!
x 1
Autoscroll
+/-
esc
set tempo
stop
Difficulty
intermediate
WARNING: You are trying to view
                                    content from Ultimate-Guitar.com
                                    in an unauthorized application,
                                    which is prohibited.

                                    Please use an official Ultimate
                                    Guitar Tabs application for iPhone,
                                    iPad or Android to access legitimate
                                    chords, guitar, bass, and drum tabs
                                    from Ultimate-Guitar.com database.

                                    Type "ultimate guitar tabs" in Apple
                                    App Store's or Android Market's
                                    search to find the application.
I Was Born (A Unicorn)                              
The Unicorns
tabbed by Binuts
Tune down 1/4 step


      E.   E   S  E   E.   E   S  E      E.   E   S  E   E   E   E   E   
E||-------12--------------12---------|-------12---------12--14--12------|
B||-----------14--------------14-----|-----------14---------------------|
G||--14----------14--14----------14--|--13----------13--------------13--|
D||----------------------------------|----------------------------------|
A||----------------------------------|----------------------------------|
E||----------------------------------|----------------------------------|


   E.   E   S  E   E.   E   S  E      E.   E   S  E   E   E   E   E   
-------12--------------12---------|-------12---------12--14--12------|
-----------14--------------14-----|-----------14---------------------|
--14----------14--14----------14--|--13----------13--------------13--|
----------------------------------|----------------------------------|
----------------------------------|----------------------------------|
----------------------------------|----------------------------------|


   E.   E   S  E   E.   E   S  E      E.   E   S  E   E   E   E   E   
-------12--------------12---------|-------12---------12--14--12------|
-----------14--------------14-----|-----------14---------------------|
--14----------14--14----------14--|--13----------13--------------13--|
----------------------------------|----------------------------------|
----------------------------------|----------------------------------|
----------------------------------|----------------------------------|


   E.   E   S  E   E.   E   S  E      E.   E   S  E   E   E   Q     
-------12--------------12---------|-------12---------12--14--16----|
-----------14--------------14-----|-----------14-------------------|
--14----------14--14----------14--|--13----------13----------------|
----------------------------------|--------------------------------|
----------------------------------|--------------------------------|
----------------------------------|--------------------------------|


    E.  E  S E  E.  E  S E       E.  E  S E  E  E  E  E   
--------5-----------5-------|--------7-------7--9--7--9--|
-----------5-----------5----|-----------9----9--9--9--9--|
--5g6--------6--6--------6--|--8g9--------9--9--9--9--9--|
----------------------------|----------------------------|
----------------------------|----------------------------|
----------------------------|----------------------------|


    E.  E  S E  E.  E  S E       E.  E  S E  S S S S S S E   
--------5-----------5-------|--------7-------9-9-9-9-9-9-7--|
-----------5-----------5----|-----------9----9-9-9-9-9-9-9--|
--5g6--------6--6--------6--|--8g9--------9--9-9-9-9-9-9-9--|
----------------------------|-------------------------------|
----------------------------|-------------------------------|
----------------------------|-------------------------------|


    E.  E  S E  E.  E  S E       E.  E  S E  E  E  E  E   
--------5-----------5-------|--------7-------7--9--7--9--|
-----------5-----------5----|-----------9----9--9--9--9--|
--5g6--------6--6--------6--|--8g9--------9--9--9--9--9--|
----------------------------|----------------------------|
----------------------------|----------------------------|
----------------------------|----------------------------|


    E.  E  S E  E.  E  S E       E.  E  S E  H         
--------5-----------5-------|--------7-------7--------|
-----------5-----------5----|-----------9----9--------|
--5g6--------6--6--------6--|--8g9--------9--9--------|
----------------------------|-------------------------|
----------------------------|-------------------------|
----------------------------|-------------------------|


  E  E  E  E  E  E  E  E     E  E  E  E  E  E  E  E   
--------------------------|-----------------------5--|
--------5-----------7-----|--------5-----------5-----|
--6--6-----6--7--7-----7--|--6--6-----6--4--4--------|
--------------------------|--------------------------|
--------------------------|--------------------------|
--------------------------|--------------------------|


  E  E  E  E  E  E  E  E     E  E  E  E  E  E  E  E   
--------------------------|-----------------------5--|
--------5-----------7-----|--------5-----------5-----|
--6--6-----6--7--7-----7--|--6--6-----6--4--4--------|
--------------------------|--------------------------|
--------------------------|--------------------------|
--------------------------|--------------------------|


  E  E  E  E  E  E  E  E     E  E  E  E  E  E  E  E   
--------------------------|-----------------------5--|
--------5-----------7-----|--------5-----------5-----|
--6--6-----6--7--7-----7--|--6--6-----6--4--4--------|
--------------------------|--------------------------|
--------------------------|--------------------------|
--------------------------|--------------------------|


  E  E  E  E  E  E  E  E     E  E  E  E  E  E  E  E   
--------------------------|-----------------------5--|
--------5-----------7-----|--------5-----------5-----|
--6--6-----6--7--7-----7--|--6--6-----6--4--4--------|
--------------------------|--------------------------|
--------------------------|--------------------------|
--------------------------|--------------------------|


  E  E  E  E  E  E  E  E     E  E  E  E  E  E  E  E   
--------------------------|-----------------------5--|
--------5-----------7-----|--------5-----------5-----|
--6--6-----6--7--7-----7--|--6--6-----6--4--4--------|
--------------------------|--------------------------|
--------------------------|--------------------------|
--------------------------|--------------------------|


  E  E  E  E  E  E  E  E     E  E  E  E  E  E  E  E   
--------------------------|-----------------------5--|
--------5-----------7-----|--------5-----------5-----|
--6--6-----6--7--7-----7--|--6--6-----6--4--4--------|
--------------------------|--------------------------|
--------------------------|--------------------------|
--------------------------|--------------------------|


  E  E  E  E  E  E  E  E     E  E  E  E  E  E  E  E     Q.     E  Q.     E   
--------------------------|-----------------------5--|--5------4--5------4--|
--------5-----------7-----|--------5-----------5-----|--5------4--5------4--|
--6--6-----6--7--7-----7--|--6--6-----6--4--4--------|--6------5--6------5--|
--------------------------|--------------------------|--7------6--7------6--|
--------------------------|--------------------------|--7------6--7------6--|
--------------------------|--------------------------|--5------4--5------4--|


  Q.     E  Q.     E     Q.     E  Q.     E     E  E  E  E  E  E  E  E   
--5------4--5------4--|--5------4--5------4--|--5--5--5--5--5--5--5--5--|
--5------4--5------4--|--5------4--5------4--|--5--5--5--5--5--5--5--5--|
--6------5--6------5--|--6------5--6------5--|--6--6--6--6--6--6--6--6--|
--7------6--7------6--|--7------6--7------6--|--7--7--7--7--7--7--7--7--|
--7------6--7------6--|--7------6--7------6--|--7--7--7--7--7--7--7--7--|
--5------4--5------4--|--5------4--5------4--|--5--5--5--5--5--5--5--5--|


  Q    Q    E  E  E  E     Q    Q    E  E  Q       Q    Q    E  E  E  E   
------------------------|-----------------------|------------------------|
--2----2----2--3--2--3--|--0----0----0--0--0----|--2----2----2--3--2--3--|
--2----2----2--2--2--2--|--1----1----1--2--1----|--2----2----2--2--2--2--|
--2----2----2--2--2--2--|--2----2----2--2--2----|--2----2----2--2--2--2--|
--0----0----0--0--0--0--|--2----2----2--2--2----|--0----0----0--0--0--0--|
------------------------|-----------------------|------------------------|


  Q    Q    E  E  Q       Q    Q    E  E  E  E     Q    Q    E  E  Q     
-----------------------|------------------------|-----------------------|
--0----0----0--0--0----|--2----2----2--3--2--3--|--0----0----0--0--0----|
--1----1----1--2--1----|--2----2----2--2--2--2--|--1----1----1--2--1----|
--2----2----2--2--2----|--2----2----2--2--2--2--|--2----2----2--2--2----|
--2----2----2--2--2----|--0----0----0--0--0--0--|--2----2----2--2--2----|
-----------------------|------------------------|-----------------------|


  Q    Q    E  E  E  E     Q    Q    E  E  Q       E  E  E  E  E  E  E  E   
------------------------|-----------------------|--------------------------|
--2----2----2--3--2--3--|--0----0----0--0--0----|--------5-----------7-----|
--2----2----2--2--2--2--|--1----1----1--2--1----|--6--6-----6--7--7-----7--|
--2----2----2--2--2--2--|--2----2----2--2--2----|--------------------------|
--0----0----0--0--0--0--|--2----2----2--2--2----|--------------------------|
------------------------|-----------------------|--------------------------|


  E  E  E  E  E  E  E  E     E  E  E  E  E  E  E  E   
-----------------------5--|--------------------------|
--------5-----------5-----|--------5-----------7-----|
--6--6-----6--4--4--------|--6--6-----6--7--7-----7--|
--------------------------|--------------------------|
--------------------------|--------------------------|
--------------------------|--------------------------|


  E  E  E  E  E  E  E  E     E  E  E  E  E  E  E  E   
-----------------------5--|--------------------------|
--------5-----------5-----|--------5-----------7-----|
--6--6-----6--4--4--------|--6--6-----6--7--7-----7--|
--------------------------|--------------------------|
--------------------------|--------------------------|
--------------------------|--------------------------|


  E  E  E  E  E  E  E  E     E  E  E  E  E  E  E  E   
-----------------------5--|--------------------------|
--------5-----------5-----|--------5-----------7-----|
--6--6-----6--4--4--------|--6--6-----6--7--7-----7--|
--------------------------|--------------------------|
--------------------------|--------------------------|
--------------------------|--------------------------|


  E  E  E  E  E  E  E  E     Q.     E  Q.     E     Q.     E  Q.     E   
-----------------------5--|--5------4--5------4--|--5------4--5------4--|
--------5-----------5-----|--5------4--5------4--|--5------4--5------4--|
--6--6-----6--4--4--------|--6------5--6------5--|--6------5--6------5--|
--------------------------|--7------6--7------6--|--7------6--7------6--|
--------------------------|--7------6--7------6--|--7------6--7------6--|
--------------------------|--5------4--5------4--|--5------4--5------4--|


  Q.     E  Q.     E     E  E  E  E  E  E  E  E     W                 
--5------4--5------4--|--5--5--5--5--5--5--5--5--|-------------------|
--5------4--5------4--|--5--5--5--5--5--5--5--5--|-------------------|
--6------5--6------5--|--6--6--6--6--6--6--6--6--|-------------------|
--7------6--7------6--|--7--7--7--7--7--7--7--7--|-------------------|
--7------6--7------6--|--7--7--7--7--7--7--7--7--|-------------------|
--5------4--5------4--|--5--5--5--5--5--5--5--5--|-------------------|


  W                   W                   W                   W                 
-------------------|-------------------|-------------------|-------------------|
-------------------|-------------------|-------------------|-------------------|
-------------------|-------------------|-------------------|-------------------|
-------------------|-------------------|-------------------|-------------------|
-------------------|-------------------|-------------------|-------------------|
-------------------|-------------------|-------------------|-------------------|


  W                   W                   W                 
-------------------|-------------------|-------------------|
-------------------|-------------------|-------------------|
-------------------|-------------------|-------------------|
-------------------|-------------------|-------------------|
-------------------|-------------------|-------------------|
-------------------|-------------------|-------------------|


  PM PM PM PM PM PM PM PM    PM PM PM PM PM PM PM      PM PM PM PM PM PM PM PM  
  E  E  E  E  E  E  E  E     E  E  E  E  E  E  Q       E  E  E  E  E  E  E  E   
--------------------------|-------------------------|--------------------------|
--2--2--2--2--2--3--2--3--|--0--0--0--0--0--0--0----|--2--2--2--2--2--3--2--3--|
--2--2--2--2--2--2--2--2--|--1--1--1--1--1--2--1----|--2--2--2--2--2--2--2--2--|
--2--2--2--2--2--2--2--2--|--2--2--2--2--2--2--2----|--2--2--2--2--2--2--2--2--|
--0--0--0--0--0--0--0--0--|--2--2--2--2--2--2--2----|--0--0--0--0--0--0--0--0--|
--------------------------|-------------------------|--------------------------|


  PM PM PM PM PM PM PM      PM PM PM PM PM PM PM PM    PM PM PM PM PM PM PM    
  E  E  E  E  E  E  Q       E  E  E  E  E  E  E  E     E  E  E  E  E  E  Q     
-------------------------|--------------------------|-------------------------|
--0--0--0--0--0--0--0----|--2--2--2--2--2--3--2--3--|--0--0--0--0--0--0--0----|
--1--1--1--1--1--2--1----|--2--2--2--2--2--2--2--2--|--1--1--1--1--1--2--1----|
--2--2--2--2--2--2--2----|--2--2--2--2--2--2--2--2--|--2--2--2--2--2--2--2----|
--2--2--2--2--2--2--2----|--0--0--0--0--0--0--0--0--|--2--2--2--2--2--2--2----|
-------------------------|--------------------------|-------------------------|


  PM PM PM PM PM PM PM PM    PM PM PM PM PM PM PM      PM PM PM PM PM PM PM PM  
  E  E  E  E  E  E  E  E     E  E  E  E  E  E  Q       E  E  E  E  E  E  E  E   
--------------------------|-------------------------|--------------------------|
--2--2--2--2--2--3--2--3--|--0--0--0--0--0--0--0----|--2--2--2--2--2--3--2--3--|
--2--2--2--2--2--2--2--2--|--1--1--1--1--1--2--1----|--2--2--2--2--2--2--2--2--|
--2--2--2--2--2--2--2--2--|--2--2--2--2--2--2--2----|--2--2--2--2--2--2--2--2--|
--0--0--0--0--0--0--0--0--|--2--2--2--2--2--2--2----|--0--0--0--0--0--0--0--0--|
--------------------------|-------------------------|--------------------------|


  PM PM PM PM PM PM PM      PM PM PM PM PM PM PM PM    PM PM PM PM PM PM PM    
  E  E  E  E  E  E  Q       E  E  E  E  E  E  E  E     E  E  E  E  E  E  Q     
-------------------------|--------------------------|-------------------------|
--0--0--0--0--0--0--0----|--2--2--2--2--2--3--2--3--|--0--0--0--0--0--0--0----|
--1--1--1--1--1--2--1----|--2--2--2--2--2--2--2--2--|--1--1--1--1--1--2--1----|
--2--2--2--2--2--2--2----|--2--2--2--2--2--2--2--2--|--2--2--2--2--2--2--2----|
--2--2--2--2--2--2--2----|--0--0--0--0--0--0--0--0--|--2--2--2--2--2--2--2----|
-------------------------|--------------------------|-------------------------|


  PM PM PM PM PM PM PM PM    PM PM PM PM PM PM PM      PM PM PM PM PM PM PM PM  
  E  E  E  E  E  E  E  E     E  E  E  E  E  E  Q       E  E  E  E  E  E  E  E   
--------------------------|-------------------------|--------------------------|
--2--2--2--2--2--3--2--3--|--0--0--0--0--0--0--0----|--2--2--2--2--2--3--2--3--|
--2--2--2--2--2--2--2--2--|--1--1--1--1--1--2--1----|--2--2--2--2--2--2--2--2--|
--2--2--2--2--2--2--2--2--|--2--2--2--2--2--2--2----|--2--2--2--2--2--2--2--2--|
--0--0--0--0--0--0--0--0--|--2--2--2--2--2--2--2----|--0--0--0--0--0--0--0--0--|
--------------------------|-------------------------|--------------------------|


  PM PM PM PM PM PM PM                                            
  E  E  E  E  E  E  Q       W                   W                 
-------------------------|-------------------|-------------------|
--0--0--0--0--0--0--0----|-------------------|-------------------|
--1--1--1--1--1--2--1----|-------------------|-------------------|
--2--2--2--2--2--2--2----|-------------------|-------------------|
--2--2--2--2--2--2--2----|-------------------|-------------------|
-------------------------|-------------------|-------------------|


  W                   W                   W                   W                 
-------------------|-------------------|-------------------|-------------------|
-------------------|-------------------|-------------------|-------------------|
-------------------|-------------------|-------------------|-------------------|
-------------------|-------------------|-------------------|-------------------|
-------------------|-------------------|-------------------|-------------------|
-------------------|-------------------|-------------------|-------------------|


  Q.     E  Q.     E     Q.     E  Q.     E     Q.     E  Q.     E   
--5------4--5------4--|--5------4--5------4--|--5------4--5------4--|
--5------4--5------4--|--5------4--5------4--|--5------4--5------4--|
--6------5--6------5--|--6------5--6------5--|--6------5--6------5--|
--7------6--7------6--|--7------6--7------6--|--7------6--7------6--|
--7------6--7------6--|--7------6--7------6--|--7------6--7------6--|
--5------4--5------4--|--5------4--5------4--|--5------4--5------4--|


  E  E  E  E  E  E  E  E     E  E  Q    H          
--5--5--5--5--5--5--5--5--|--5-------------------||
--5--5--5--5--5--5--5--5--|--5-------------------||
--6--6--6--6--6--6--6--6--|--6-------------------||
--7--7--7--7--7--7--7--7--|--7-------------------||
--7--7--7--7--7--7--7--7--|--7-------------------||
--5--5--5--5--5--5--5--5--|--5-------------------||


Duration Legend
---------------
W - whole
H - half
Q - quarter
E - 8th
S - 16th
T - 32nd
X - 64th
. - note dotted
|-n-|  - n-tuplets
comments
We did not receive enough feedback on this tab! Please rate:
print report bad tab
1 2 3 4 5
I want to post or [tab]
guest
You may want to rate the tab now too:
select rating
Please do not post tabs as comments. Select "correction" instead!