Oops, an error
Loading. Please wait.

Faded Tab

526 views 1 this week
no commentswrite comment
1 2 3 4 5
please rate
Autoscroll
+/-
esc
set tempo
stop
Contributor
WARNING: You are trying to view
                                    content from Ultimate-Guitar.com
                                    in an unauthorized application,
                                    which is prohibited.

                                    Please use an official Ultimate
                                    Guitar Tabs application for iPhone,
                                    iPad or Android to access legitimate
                                    chords, guitar, bass, and drum tabs
                                    from Ultimate-Guitar.com database.

                                    Type "ultimate guitar tabs" in Apple
                                    App Store's or Android Market's
                                    search to find the application.
----------------------------------------------------------------------------
                             FADED - Universum
----------------------------------------------------------------------------

Signed to Riot! (Australia)
www.universum.com.au
www.myspace.com/universumband

Tabbed by: RevArmada
Email: dudemeister1000@hotmail.com

Tuning: B,E,A,D,G,B

Intro:

Guitar 1
e|---------------------------------|---------------------------------------|
B|---------------------------------|---------------------------------------|
G|---------------------------------|---------------------------------------|
D|-2---------------2---------------|---------------------------------------|
A|-2-----5---5-7---2-----5---5-7---|-7-----5---5-7---7-----5---5-7---------|
E|-0---0---0-----0-0---0---0-----0-|-8---0---0-----0-5---0---0-----0-------|
       P   P     P     P   P     P       P   P     P     P   P     P

Guitar 2
e|-------------------------------------------------------------------------|
B|-------------------------------------------------------------------------|
G|-------------------------------------------------------------------------|
D|-------------------------------------------------------------------------|
A|-------------------------------------------------------------------------|
E|-------------------------------------------------------------------------|

Guitar 1
e|---------------------------------|---------------------------------------|
B|---------------------------------|---------------------------------------|
G|---------------------------------|---------------------------------------|
D|-2---------------2---------------|---------------------------------------|
A|-2-----5---5-7---2-----5---5-7---|-7-----5---5-7---7--7-----7--7---------|
E|-0---0---0-----0-0---0---0-----0-|-8---0---0-----0-8—-8--0--5--5-0-------|
       P   P     P     P   P     P       P   P     P       P       P

Guitar 2
e|---------------------------------|---------------------------------------|
B|---------------------------------|---------------------------------------|
G|---------------------------------|---------------------------------------|
D|-2---------------2---------------|---------------------------------------|
A|-2-----5---5-7---2-----5---5-7---|-7-----5---5-7---7--7-----3--3---------|
E|-0---0---0-----0-0---0---0-----0-|-8---0---0-----0-5--5--0--1--1-0-------|
       P   P     P     P   P     P       P   P     P       P       P


Guitar 1
e|---------------------------------|---------------------------------------|
B|---------------------------------|---------------------------------------|
G|---------------------------------|---------------------------------------|
D|-2---------------2---------------|---------------------------------------|
A|-2-----4---4-5---2-----4---4-5---|-7-----4---4-5---7-----4---4-5---------|
E|-0---0---0-----0-0---0---0-----0-|-8---0---0-----0-5---0---0-----0-------|
       P   P     P     P   P     P       P   P     P     P   P     P

Guitar 2
e|---------------------------------|---------------------------------------|
B|---------------------------------|---------------------------------------|
G|---------------------------------|---------------------------------------|
D|-2---------------2---------------|---------------------------------------|
A|-2-----5---5-7---2-----5---5-7---|-7-----5---5-7---7-----5---5-7---------|
E|-0---0---0-----0-0---0---0-----0-|-8---0---0-----0-5---0---0-----0-------|
       P   P     P     P   P     P       P   P     P     P   P     P

Guitar 1
e|---------------------------------|---------------------------------------|
B|---------------------------------|---------------------------------------|
G|---------------------------------|---------------------------------------|
D|-2---------------2---------------|---------------------------------------|
A|-2-----4---4-5---2-----4---4-5---|-7-----4---4-5---7--7-----7--7---------|
E|-0---0---0-----0-0---0---0-----0-|-8---0---0-----0-5—-5--0--8--8-0-------|
       P   P     P     P   P     P       P   P     P       P       P

Guitar 2
e|---------------------------------|---------------------------------------|
B|---------------------------------|---------------------------------------|
G|---------------------------------|---------------------------------------|
D|-2---------------2---------------|---------------------------------------|
A|-2-----5---5-7---2-----5---5-7---|-7-----5---5-7---7--7-----7--7---------|
E|-0---0---0-----0-0---0---0-----0-|-8---0---0-----0-5--5--0--8--8-0-------|
       P   P     P     P   P     P       P   P     P       P       P

Verse:

Guitar 1/Guitar 2
e|---------------------------------|---------------------------------------|
B|---------------------------------|---------------------------------------|
G|---------------------------------|---------------------------------------|
D|-2-------------------------------|-2-------------------------------------|
A|-2---------------------7-----7---|-2---------------------7------9--------|
E|-0---0-000-000-000-0-8---0-5---0-|-0---0-000-000-000-0-8---0-10---0------|
       P PPP PPP PPP P P   P P   P       P PPP PPP PPP P P   P P    P

Guitar 1/Guitar 2
e|---------------------------------|---------------------------------------|
B|---------------------------------|---------------------------------------|
G|---------------------------------|---------------------------------------|
D|-2-------------------------------|-2-------------------------------------|
A|-2---------------------7-----7---|-2-------------------------------------|
E|-0---0-000-000-000-0-8---0-5---0-|-0---0-000-000-000-8888888877775-------|
       P PPP PPP PPP P P   P P   P       P PPP PPP PPP PPPPPPPPPPPPP

Guitar 1
e|------------------------------------|------------------------------------|
B|------------------------------------|------------------------------------|
G|------------------------------------|------------------------------------|
D|-2----------------------------------|-2----------------------------------|
A|-2----------------------10-----10---|-2----------------------10------12--|
E|-0---0-000-000-000-0-12----0-8----0-|-0---0-000-000-000-0-12----0-14----0|
       P PPP PPP PPP P P     P P    P       P PPP PPP PPP P P     P P     P

Guitar 2
e|---------------------------------|---------------------------------------|
B|---------------------------------|---------------------------------------|
G|---------------------------------|---------------------------------------|
D|-2-------------------------------|-2-------------------------------------|
A|-2---------------------7-----7---|-2---------------------7------9--------|
E|-0---0-000-000-000-0-8---0-5---0-|-0---0-000-000-000-0-8---0-10---0------|
       P PPP PPP PPP P P   P P   P       P PPP PPP PPP P P   P P    P

Guitar 1
e|------------------------------------|------------------------------------|
B|------------------------------------|------------------------------------|
G|------------------------------------|------------------------------------|
D|-2----------------------------------|-2----------------------------------|
A|-2----------------------10-----10---|-2----------------------------------|
E|-0---0-000-000-000-0-12----0-8----0-|-0---0-000-000-000-8888888877775----|
       P PPP PPP PPP P P     P P    P       P PPP PPP PPP PPPPPPPPPPPPP

Guitar 2
e|---------------------------------|---------------------------------------|
B|---------------------------------|---------------------------------------|
G|---------------------------------|---------------------------------------|
D|-2-------------------------------|-2-------------------------------------|
A|-2---------------------7-----7---|-2-------------------------------------|
E|-0---0-000-000-000-0-8---0-5---0-|-0---0-000-000-000-8888888877775-------|
       P PPP PPP PPP P P   P P   P       P PPP PPP PPP PPPPPPPPPPPPP

Chorus:

Guitar 1/Guitar 2
e|-------------------------------------------------------------------------|
B|-------------------------------------------------------------------------|
G|-------------------------------------------------------------------------|
D|------------------------------9\7---------7---7/9--------------7---------|
A|-10----10---9-10-12-7-----7-------7-2-----5---5/7---5--5---5---5---------|
E|-8---8----8---------5---5---5-------0---0---0-----0-2--2-0-3-0---0-------|
       P    P             P   P           P   P     P      P   P   P

Guitar 1/Guitar 2
e|-------------------------------------------------------------------------|
B|-------------------------------------------------------------------------|
G|-------------------------------------------------------------------------|
D|------------------------------9\7---------7---7/9--------------7---------|
A|-10----10---9-10-12-7-----7-------7-2-----5---5/7---5--5---5---5---------|
E|-8---8----8---------5---5---5-------0---0---0-----0-2--2-0-3-0---0-------|
       P    P             P   P           P   P     P      P   P   P

Guitar 1
e|---------10---------------10-8-7------------10---------------------------|
B|-----7-8----8-7-------7-8--------10-----7-8----8-7-8/12---10-8-7---8-7---|
G|/9--------------9-7-----------------9------------------------------------|
D|-------------------------------------------------------------------------|
A|-------------------------------------------------------------------------|
E|-------------------------------------------------------------------------|

Guitar 2
e|-------------------------------------------------------------------------|
B|-------------------------------------------------------------------------|
G|-------------------------------------------------------------------------|
D|------------------------------9\7---------7---7/9--------------7---------|
A|-10----10---9-10-12-7-----7-------7-2-----5---5/7---5--5---5---5---------|
E|-8---8----8---------5---5---5-------0---0---0-----0-2--2-0-3-0---0-------|
       P    P             P   P           P   P     P      P   P   P

Guitar 1
e|---------10---------------10-8-7------------10-----------------8---7-----|
B|-----7-8----8-7-------7-8--------10-----7-8----8-7-8/12---10-8-------8---|
G|-9--------------9-7-----------------9------------------------------------|
D|-------------------------------------------------------------------------|
A|-------------------------------------------------------------------------|
E|-------------------------------------------------------------------------|

Guitar 2
e|-------------------------------------------------------------------------|
B|-------------------------------------------------------------------------|
G|-------------------------------------------------------------------------|
D|------------------------------9\7---------7---7/9--------------7---------|
A|-10----10---9-10-12-7-----7-------7-2-----5---5/7---5--5---5---5---------|
E|-8---8----8---------5---5---5-------0---0---0-----0-2--2-0-3-0---0-------|
       P    P             P   P           P   P     P      P   P   P

Guitar 1
e|---------10---------------10-8-7------------10---------------------------|
B|-----7-8----8-7-------7-8--------10-----7-8----8-7-8/12---10-8-7---8-7---|
G|-9--------------9-7-----------------9------------------------------------|
D|-------------------------------------------------------------------------|
A|-------------------------------------------------------------------------|
E|-------------------------------------------------------------------------|

Guitar 2
e|-------------------------------------------------------------------------|
B|-------------------------------------------------------------------------|
G|-------------------------------------------------------------------------|
D|------------------------------9\7---------7---7/9--------------7---------|
A|-10----10---9-10-12-7-----7-------7-2-----5---5/7---5--5---5---5---------|
E|-8---8----8---------5---5---5-------0---0---0-----0-2--2-0-3-0---0-------|
       P    P             P   P           P   P     P      P   P   P

Guitar 1
e|---------10---------------10-8-7------------10-----------------8---7-----|
B|-----7-8----8-7-------7-8--------10-----7-8----8-7-8/12---10-8-------8---|
G|-9--------------9-7-----------------9------------------------------------|
D|-------------------------------------------------------------------------|
A|-------------------------------------------------------------------------|
E|-------------------------------------------------------------------------|

Guitar 2
e|-------------------------------------------------------------------------|
B|-------------------------------------------------------------------------|
G|-------------------------------------------------------------------------|
D|------------------------------9\7---------7---7/9--------------7---------|
A|-10----10---9-10-12-7-----7-------7-2-----5---5/7---5--5---5---5---------|
E|-8---8----8---------5---5---5-------0---0---0-----0-2--2-0-3-0---0-------|
       P    P             P   P           P   P     P      P   P   P

Bridge:

Guitar 1/Guitar 2
e|----------------------------------|--------------------------------------|
B|----------------------------------|--------------------------------------|
G|----------------------------------|--------------------------------------|
D|----------------------------------|--------------------------------------|
A|-2---2------2-----------7-----7---|-2---2------2-----------7------9------|
E|-0---0--0-0-0-0-0-0-0-8---0-5---0-|-0---0--0-0-0-0-0-0-0-8---0-10---0----|
          P P   P P P P P   P P   P          P P   P P P P P   P P    P

Guitar 1/Guitar 2
e|----------------------------------|--------------------------------------|
B|----------------------------------|--------------------------------------|
G|----------------------------------|--------------------------------------|
D|----------------------------------|--------------------------------------|
A|-2---2------2-----------7-----7---|-2---2------2-----------5-----7-------|
E|-0---0--0-0-0-0-0-0-0-8---0-5---0-|-0---0--0-0-0-0-0-0-0-3---0-5---0-0---|
          P P   P P P P P   P P   P          P P   P P P P P   P P   P P

Guitar 1/Guitar 2
e|----------------------------------|--------------------------------------|
B|----------------------------------|--------------------------------------|
G|----------------------------------|--------------------------------------|
D|----------------------------------|-----2-----2-----2-----5---4----------|
A|-----7-----7-----7-----7---10---9-|---2-----2-----2-----2---------5------|
E|-0-8---0-8---0-8---0-8---8----8---|-0-----0-----0-----0-----0---0--------|
   P P   P P   P P   P P   P    P     P P   P P   P P   P P   P   P

Guitar 1/Guitar 2
e|----------------------------------|--------------------------------------|
B|----------------------------------|--------------------------------------|
G|----------------------------------|--------------------------------------|
D|----------------------------------|-----2-----2-----2-----5---4----------|
A|-----7-----7-----7-----7---10---9-|---2-----2-----2-----2---------5------|
E|-0-8---0-8---0-8---0-8---8----8---|-0-----0-----0-----0-----0---0--------|
   P P   P P   P P   P P   P    P     P P   P P   P P   P P   P   P

Guitar 1
e|----------------------------------|--------------------------------------|
B|----------------------------------|--------------------------------------|
G|----------------------------------|--------------------------------------|
D|----------------------------------|-----2-----2-----2-----5---4----------|
A|-----7-----7-----7-----7---10---9-|---2-----2-----2-----2---------5------|
E|-0-8---0-8---0-8---0-8---8----8---|-0-----0-----0-----0-----0---0--------|
   P P   P P   P P   P P   P    P     P P   P P   P P   P P   P   P

Guitar 2
e|-------------------------------------|-----------------------------------|
B|-------------------------------------|-----------------------------------|
G|-------------------------------------|-----------------------------------|
D|-------------------------------9---7-|-----5-----5-----5-----9---7---5---|
A|-----10-----10-----10-----10---------|---5-----5-----5-----5-------------|
E|-0-8----0-8----0-8----0-8----8---8---|-0-----0-----0-----0-----0---0-----|
   P P    P P    P P    P P    P   P     P P   P P   P P   P P   P   P

Guitar 1
e|----------------------------------|--------------------------------------|
B|----------------------------------|--------------------------------------|
G|----------------------------------|--------------------------------------|
D|----------------------------------|-----2-----2--------------------------|
A|-----7-----7-----7-----7---10---9-|---2-----2-----5--5----5---7----------|
E|-0-8---0-8---0-8---0-8---8----8---|-0-----0-----0-2--2--0-3-0-5-0--------|
   P P   P P   P P   P P   P    P     P P   P P   P       P   P   P

Guitar 2
e|-------------------------------------|-----------------------------------|
B|-------------------------------------|-----------------------------------|
G|-------------------------------------|-----------------------------------|
D|--------------------------------9--7-|-----5-----5---4~4---5---7---------|
A|-----10-----10-----10-----10---------|---5-----5-------------------------|
E|-0-8----0-8----0-8----0-8----8---8---|-0-----0-----0-----0---0---0-------|
   P P    P P    P P    P P    P   P     P P   P P   P     P   P   P


Song Structure

Intro
Verse
Chorus
Verse
Chorus
Bridge - Solo1
Bridge - Solo2
Chorus


| /  slide up
| \  slide down
| h  hammer-on
| p  pull-off
| P  palm mute
| ~  vibrato
| +  harmonic
| x  Mute note
=============================================================================
comments
We did not receive enough feedback on this tab! Please rate:
print report bad tab
1 2 3 4 5
I want to post or [tab]
guest
You may want to rate the tab now too:
select rating
Please do not post tabs as comments. Select "correction" instead!