Oops, an error
Loading. Please wait.

Whispers Bass Tab

2,122 views 1 this week
no commentswrite comment
1 2 3 4 5
please rate
Autoscroll
+/-
esc
set tempo
stop
Contributor
WARNING: You are trying to view
                                    content from Ultimate-Guitar.com
                                    in an unauthorized application,
                                    which is prohibited.

                                    Please use an official Ultimate
                                    Guitar Tabs application for iPhone,
                                    iPad or Android to access legitimate
                                    chords, guitar, bass, and drum tabs
                                    from Ultimate-Guitar.com database.

                                    Type "ultimate guitar tabs" in Apple
                                    App Store's or Android Market's
                                    search to find the application.
                                             Whispers                                               


                                                                                               UnSun
Bass
http://www.myspace.com/unsunmusic


      W                   W                   W                   W                 
F#||-------------------|-------------------|-------------------|-------------------|
C#||-------------------|-------------------|-------------------|-------------------|
G#||-------------------|-------------------|-------------------|-------------------|
D#||-------------------|-------------------|-------------------|-------------------|
A#||-------------------|-------------------|-------------------|-------------------|


  Q    Q    Q    Q       Q    Q    Q    Q       Q    Q    Q    Q       Q    Q    Q    Q     
----------------------|----------------------|----------------------|----------------------|
----------------------|----------------------|----------------------|----------------------|
----------------------|----------------------|----------------------|----------------------|
----------------------|----------------------|--2----2----2----2----|--5----5----5----5----|
--2----2----2----2----|--5----5----5----5----|----------------------|----------------------|


  Q    Q    Q    Q       Q    Q    Q    Q       Q    Q    Q    Q       Q    Q    E  E  E  E   
----------------------|----------------------|----------------------|------------------------|
----------------------|----------------------|----------------------|------------------------|
----------------------|----------------------|----------------------|------------------------|
----------------------|----------------------|--2----2----2----2----|--5----5----5--5--5--5--|
--2----2----2----2----|--5----5----5----5----|----------------------|------------------------|


  E  E  E  E  E  E  E  E     E  E  E  E  E  E  E  E     E  E  E  E  E  E  E  E   
--------------------------|--------------------------|--------------------------|
--------------------------|--------------------------|--------------------------|
--------------------------|--------------------------|--------------------------|
--------------------------|--------------------------|--2--2--2--2--2--2--2--2--|
--2--2--2--2--2--2--2--2--|--5--5--5--5--5--5--5--5--|--------------------------|


  E  E  E  E  E  E  E  E     E  E  E  E  E  E  E  E     E  E  E  E  E  E  E  E   
--------------------------|--------------------------|--------------------------|
--------------------------|--------------------------|--------------------------|
--------------------------|--------------------------|--------------------------|
--5--5--5--5--5--5--5--5--|--------------------------|--------------------------|
--------------------------|--2--2--2--2--2--2--2--2--|--5--5--5--5--5--5--5--5--|


  E  E  E  E  E  E  E  E     E  E  E  E  E  E  E  E     S S E  E  S S E  E  E  E   
--------------------------|--------------------------|----------------------------|
--------------------------|--------------------------|----------------------------|
--------------------------|--------------------------|----------------------------|
--2--2--2--2--2--2--2--2--|--5--5--5--5--5--5--5--5--|----------------------------|
--------------------------|--------------------------|--2-3-2--0--2-3-2--0--0--0--|


  S S E  E  S S E  E  E  E     S S E  E  S S E  E  E  E     S S E  E  E  E  E  E  E   
----------------------------|----------------------------|---------------------------|
----------------------------|----------------------------|---------------------------|
----------------------------|----------------------------|---------------------------|
----------------------------|----------------------------|---------------------------|
--2-3-2--0--2-3-2--0--0--0--|--2-3-2--0--2-3-2--0--0--0--|--2-3-2--0--5--5--5--5--5--|


  S S E  E  S S E  E  E  E     S S E  E  S S E  E  E  E     S S E  E  S S E  E  E  E   
----------------------------|----------------------------|----------------------------|
----------------------------|----------------------------|----------------------------|
----------------------------|----------------------------|----------------------------|
----------------------------|----------------------------|----------------------------|
--2-3-2--0--2-3-2--0--0--0--|--2-3-2--0--2-3-2--0--0--0--|--2-3-2--0--2-3-2--0--0--0--|


  S S E  E  E  E  E  E  E     S S E  E  S S E  E  E  E     S S E  E  S S E  E  E  E   
---------------------------|----------------------------|----------------------------|
---------------------------|----------------------------|----------------------------|
---------------------------|----------------------------|----------------------------|
---------------------------|----------------------------|----------------------------|
--2-3-2--0--5--5--5--5--5--|--2-3-2--0--2-3-2--0--0--0--|--2-3-2--0--2-3-2--0--0--0--|


  S S E  E  S S E  E  E  E     S S E  E  E  E  E  E  E     S S E  E  S S E  E  E  E   
----------------------------|---------------------------|----------------------------|
----------------------------|---------------------------|----------------------------|
----------------------------|---------------------------|----------------------------|
----------------------------|---------------------------|----------------------------|
--2-3-2--0--2-3-2--0--0--0--|--2-3-2--0--5--5--5--5--5--|--2-3-2--0--2-3-2--0--0--0--|


  S S E  E  S S E  E  E  E     S S E  E  S S E  E  E  E     E  E  E  E  E  E  E  E   
----------------------------|----------------------------|--------------------------|
----------------------------|----------------------------|--------------------------|
----------------------------|----------------------------|--------------------------|
----------------------------|----------------------------|--5--5--5--5--7--7--7--7--|
--2-3-2--0--2-3-2--0--0--0--|--2-3-2--0--2-3-2--0--0--0--|--------------------------|


  E  E  E  E  E  E  E  E     E  E  E  E  E  E  E  E     E  E  E  E  E  E  E  E   
--------------------------|--------------------------|--------------------------|
--------------------------|--------------------------|--------------------------|
--------------------------|--------------------------|--------------------------|
--------------------------|--------------------------|--2--2--2--2--2--2--2--2--|
--2--2--2--2--2--2--2--2--|--5--5--5--5--5--5--5--5--|--------------------------|


  E  E  E  E  E  E  E  E     E  E  E  E  E  E  E  E     E  E  E  E  E  E  E  E   
--------------------------|--------------------------|--------------------------|
--------------------------|--------------------------|--------------------------|
--------------------------|--------------------------|--------------------------|
--5--5--5--5--5--5--5--5--|--------------------------|--------------------------|
--------------------------|--2--2--2--2--2--2--2--2--|--5--5--5--5--5--5--5--5--|


  E  E  E  E  E  E  E  E     E  E  E  E  E  E  E  E     E  E  E  E  E  E  E  E   
--------------------------|--------------------------|--------------------------|
--------------------------|--------------------------|--------------------------|
--------------------------|--------------------------|--------------------------|
--2--2--2--2--2--2--2--2--|--5--5--5--5--5--5--5--5--|--------------------------|
--------------------------|--------------------------|--2--2--2--2--2--2--2--2--|


  E  E  E  E  E  E  E  E     E  E  E  E  E  E  E  E     E  E  E  E  E  E  E  E   
--------------------------|--------------------------|--------------------------|
--------------------------|--------------------------|--------------------------|
--------------------------|--------------------------|--------------------------|
--------------------------|--2--2--2--2--2--2--2--2--|--5--5--5--5--5--5--5--5--|
--5--5--5--5--5--5--5--5--|--------------------------|--------------------------|


  E  E  E  E  E  E  E  E     E  E  E  E  E  E  E  E     E  E  E  E  E  E  E  E   
--------------------------|--------------------------|--------------------------|
--------------------------|--------------------------|--------------------------|
--------------------------|--------------------------|--------------------------|
--------------------------|--------------------------|--2--2--2--2--2--2--2--2--|
--2--2--2--2--2--2--2--2--|--5--5--5--5--5--5--5--5--|--------------------------|


  E  E  E  E  E  E  E  E     W                   E  E  E  E  E  E  E  E   
--------------------------|-------------------|--------------------------|
--------------------------|-------------------|--------------------------|
--------------------------|-------------------|--------------------------|
--5--5--5--5--5--5--5--5--|-------------------|--------------------------|
--------------------------|-------------------|--3--2-----2-----2--2--0--|


  E  E  E  E  E  E  E  E     E  E  E  E  E  E  E  E     E  E  E  E  E  E  E  E   
--------------------------|--------------------------|--------------------------|
--------------------------|--------------------------|--------------------------|
--------------------------|--------------------------|--------------------------|
--------------------------|--------------------------|--------------------------|
--3--2-----2-----2--2--0--|--3--2-----2-----2--2--0--|--3--2-----5--5--5--5--5--|


  E  E  E  E  E  E  E  E     E  E  E  E  E  E  E  E     E  E  E  E  E  E  E  E   
--------------------------|--------------------------|--------------------------|
--------------------------|--------------------------|--------------------------|
--------------------------|--------------------------|--------------------------|
--------------------------|--------------------------|--------------------------|
--3--2-----2-----2--2--0--|--3--2-----2-----2--2--0--|--3--2-----2-----2--2--0--|


  E  E  E  E  E  E  E  E     E  E  E  E  E  E  E  E     E  E  E  E  E  E  E  E   
--------------------------|--------------------------|--------------------------|
--------------------------|--------------------------|--------------------------|
--------------------------|--------------------------|--------------------------|
--------------------------|--------------------------|--------------------------|
--3--2-----5--5--5--5--5--|--3--2-----2-----2--2--0--|--3--2-----2-----2--2--0--|


  E  E  E  E  E  E  E  E     E  E  E  E  E  E  E  E     E  E  E  E  E  E  E  E   
--------------------------|--------------------------|--------------------------|
--------------------------|--------------------------|--------------------------|
--------------------------|--------------------------|--------------------------|
--------------------------|--------------------------|--------------------------|
--3--2-----2-----2--2--0--|--3--2-----5--5--5--5--5--|--3--2-----2-----2--2--0--|


  E  E  E  E  E  E  E  E     E  E  E  E  E  E  E  E     E  E  E  E  E  E  E  E   
--------------------------|--------------------------|--------------------------|
--------------------------|--------------------------|--------------------------|
--------------------------|--------------------------|--------------------------|
--------------------------|--------------------------|--5--5--5--5--7--7--7--7--|
--3--2-----2-----2--2--0--|--3--2-----2-----2--2--0--|--------------------------|


  E  E  E  E  E  E  E  E     E  E  E  E  E  E  E  E     E  E  E  E  E  E  E  E   
--------------------------|--------------------------|--------------------------|
--------------------------|--------------------------|--------------------------|
--------------------------|--------------------------|--------------------------|
--------------------------|--------------------------|--2--2--2--2--2--2--2--2--|
--2--2--2--2--2--2--2--2--|--5--5--5--5--5--5--5--5--|--------------------------|


  E  E  E  E  E  E  E  E     E  E  E  E  E  E  E  E     E  E  E  E  E  E  E  E   
--------------------------|--------------------------|--------------------------|
--------------------------|--------------------------|--------------------------|
--------------------------|--------------------------|--------------------------|
--5--5--5--5--5--5--5--5--|--------------------------|--------------------------|
--------------------------|--2--2--2--2--2--2--2--2--|--5--5--5--5--5--5--5--5--|


  E  E  E  E  E  E  E  E     E  E  E  E  E  E  E  E     E  E  E  E  E  E  E  E   
--------------------------|--------------------------|--------------------------|
--------------------------|--------------------------|--------------------------|
--------------------------|--------------------------|--------------------------|
--2--2--2--2--2--2--2--2--|--5--5--5--5--5--5--5--5--|--------------------------|
--------------------------|--------------------------|--2--2--2--2--2--2--2--2--|


  E  E  E  E  E  E  E  E     E  E  E  E  E  E  E  E     E  E  E  E  E  E  E  E   
--------------------------|--------------------------|--------------------------|
--------------------------|--------------------------|--------------------------|
--------------------------|--------------------------|--------------------------|
--------------------------|--2--2--2--2--2--2--2--2--|--5--5--5--5--5--5--5--5--|
--5--5--5--5--5--5--5--5--|--------------------------|--------------------------|


  E  E  E  E  E  E  E  E     E  E  E  E  E  E  E  E     E  E  E  E  E  E  E  E   
--------------------------|--------------------------|--------------------------|
--------------------------|--------------------------|--------------------------|
--------------------------|--------------------------|--------------------------|
--------------------------|--------------------------|--2--2--2--2--2--2--2--2--|
--2--2--2--2--2--2--2--2--|--5--5--5--5--5--5--5--5--|--------------------------|


  E  E  E  E  E  E  E  E     W                   W                   W                 
--------------------------|-------------------|-------------------|-------------------|
--------------------------|-------------------|-------------------|-------------------|
--------------------------|-------------------|-------------------|-------------------|
--5--5--5--5--5--5--5--5--|-------------------|-------------------|-------------------|
--------------------------|--2----------------|--2----------------|--0----------------|


  W                   W                   W                   W                   W                 
-------------------|-------------------|-------------------|-------------------|-------------------|
-------------------|-------------------|-------------------|-------------------|-------------------|
-------------------|-------------------|-------------------|-------------------|-------------------|
-------------------|-------------------|-------------------|-------------------|-------------------|
--3----------------|--2----------------|--2----------------|--0----------------|--3----------------|


  E  E  H.              W                   W                   W                 
---------------------|-------------------|-------------------|-------------------|
---------------------|-------------------|-------------------|-------------------|
---------------------|-------------------|-------------------|-------------------|
---------------------|-------------------|-------------------|-------------------|
--3--2---------------|-------------------|-------------------|-------------------|


  W                   W                   W                   W                   W                 
-------------------|-------------------|-------------------|-------------------|-------------------|
-------------------|-------------------|-------------------|-------------------|-------------------|
-------------------|-------------------|-------------------|-------------------|-------------------|
-------------------|-------------------|-------------------|-------------------|-------------------|
-------------------|-------------------|-------------------|-------------------|-------------------|


  W                   W                   W                   W                   W                 
-------------------|-------------------|-------------------|-------------------|-------------------|
-------------------|-------------------|-------------------|-------------------|-------------------|
-------------------|-------------------|-------------------|-------------------|-------------------|
-------------------|-------------------|-------------------|-------------------|-------------------|
-------------------|-------------------|-------------------|-------------------|-------------------|


  W                   W                   E  E  E  E  E  E  E  E     E  E  E  E  E  E  E  E   
-------------------|-------------------|--------------------------|--------------------------|
-------------------|-------------------|--------------------------|--------------------------|
-------------------|-------------------|--------------------------|--------------------------|
-------------------|-------------------|--------------------------|--------------------------|
-------------------|-------------------|--2--2--2--2--2--2--2--2--|--5--5--5--5--5--5--5--5--|


  E  E  E  E  E  E  E  E     E  E  E  E  E  E  E  E     E  E  E  E  E  E  E  E   
--------------------------|--------------------------|--------------------------|
--------------------------|--------------------------|--------------------------|
--------------------------|--------------------------|--------------------------|
--2--2--2--2--2--2--2--2--|--5--5--5--5--5--5--5--5--|--------------------------|
--------------------------|--------------------------|--2--2--2--2--2--2--2--2--|


  E  E  E  E  E  E  E  E     E  E  E  E  E  E  E  E     E  E  E  E  E  E  E  E   
--------------------------|--------------------------|--------------------------|
--------------------------|--------------------------|--------------------------|
--------------------------|--------------------------|--------------------------|
--------------------------|--2--2--2--2--2--2--2--2--|--5--5--5--5--5--5--5--5--|
--5--5--5--5--5--5--5--5--|--------------------------|--------------------------|


  E  E  E  E  E  E  E  E     E  E  E  E  E  E  E  E     E  E  E  E  E  E  E  E   
--------------------------|--------------------------|--------------------------|
--------------------------|--------------------------|--------------------------|
--------------------------|--------------------------|--------------------------|
--------------------------|--------------------------|--2--2--2--2--2--2--2--2--|
--2--2--2--2--2--2--2--2--|--5--5--5--5--5--5--5--5--|--------------------------|


  E  E  E  E  E  E  E  E     E  E  E  E  E  E  E  E     E  E  E  E  E  E  E  E   
--------------------------|--------------------------|--------------------------|
--------------------------|--------------------------|--------------------------|
--------------------------|--------------------------|--------------------------|
--5--5--5--5--5--5--5--5--|--------------------------|--------------------------|
--------------------------|--2--2--2--2--2--2--2--2--|--5--5--5--5--5--5--5--5--|


  E  E  E  E  E  E  E  E     E  E  E  E  E  E  E  E     W                   W                 
--------------------------|--------------------------|-------------------|-------------------|
--------------------------|--------------------------|-------------------|-------------------|
--------------------------|--------------------------|-------------------|-------------------|
--2--2--2--2--2--2--2--2--|--5--5--5--5--5--5--5--5--|-------------------|-------------------|
--------------------------|--------------------------|--2----------------|--L----------------|


  W                   W                  
-------------------|-------------------||
-------------------|-------------------||
-------------------|-------------------||
-------------------|-------------------||
--L----------------|--L----------------||




Duration Legend
---------------
W - whole
H - half
Q - quarter
E - 8th
S - 16th
T - 32nd
X - 64th
. - note dotted
|-n-|  - n-tuplets


Tablature Legend
----------------
L - tied note
x - dead note
g - grace note
(n) - ghost note
> - accentuded note
NH - natural harmonic
AH - artificial harmonic
TH - tapped harmonic
SH - semi harmonic
PH - pitch harmonic
h - hammer on
p - pull off
b - bend
br - bendRelease
pb - preBend
pbr - preBendRelease
brb - bendReleaseBend
\n/ - tremolo bar dip
\n - tremolo bar dive
-/n - tremolo bar Release up
/n\ - tremolo bar inverted dip
/n - tremolo bar return
-\n - tremolo bar Release down
S - shift slide
s - legato slide
/ -  slide into from below or out of upwards
\ -  slide into from above or out of downwards
~ - vibrato
W - wide vibrato
tr - trill
TP - tremolo picking
T - tapping
S - slap
P - pop
< - fade in
^ - brush up
v - brush down
comments
We did not receive enough feedback on this tab! Please rate:
1 2 3 4 5
I want to post or [tab]
guest
You may want to rate the tab now too:
select rating
Please do not post tabs as comments. Select "correction" instead!