Oops, an error
Loading. Please wait.

Whispers Tab

ver1
ver1

Whole song

Interactive

More versions @911Tabs.com
6,605 views 6 this week
3 commentsread comments
1 2 3 4 5
excellent!
x 4
add to favorites launch autoscroll
font size
0
reset
Autoscroll
+/-
esc
set tempo
stop
Contributor
WARNING: You are trying to view
                                    content from Ultimate-Guitar.com
                                    in an unauthorized application,
                                    which is prohibited.

                                    Please use an official Ultimate
                                    Guitar Tabs application for iPhone,
                                    iPad or Android to access legitimate
                                    chords, guitar, bass, and drum tabs
                                    from Ultimate-Guitar.com database.

                                    Type "ultimate guitar tabs" in Apple
                                    App Store's or Android Market's
                                    search to find the application.
                                             Whispers                                               


                                                                                               UnSun
Guitar

http://www.myspace.com/unsunmusic

      ^                                                                              
      E  E  E  E  E  E  E  E     E  E  E  E  E  E  E  E     E  E  E  E  E  E  E  E   
C ||--------------------------|--------------------------|--------------------------|
G ||--5--------5--------5-----|--5--------5--------5-----|--5--------5--------5-----|
D#||--4--L--4-----4--4-----4--|-----4--4-----4--4-----4--|-----4--4-----4--4-----4--|
A#||--2-----------------------|--------------------------|-----------------------L--|
F ||--2-----------------------|--------------------------|-----------------------L--|
A#||--2-----------------------|--L-----------------------|--L-----------------------|

                             C                                  D#
  E  E  E  E  E  E  E  E      E   E   E   E   E   E   E   E      E   E   E   E   E   E   E   E   
--------------------------|----------------------------------|----------------------------------|
--5--------5--------5-----|----------------------------------|----------------------------------|
-----4--4-----4--4-----4--|--12--12--12--12--12--12--12--12--|--14--14--14--14--14--14--14--14--|
-----------------------L--|----------------------------------|----------------------------------|
-----------------------L--|--10--10--10--10--10--10--10--10--|--12--12--12--12--12--12--12--12--|
--L--------------------L--|----------------------------------|----------------------------------|

  F                          G#                              C
  E  E  E  E  E  E  E  E      E   E   E   E  E  E  E   E      E   E   E   E   E   E   E   E   
--------------------------|-------------------------------|----------------------------------|
--------------------------|-------------------------------|----------------------------------|
--9--9--9--9--9--9--9--9--|--12--12--12--12--9--9--9--11--|--12--12--12--12--12--12--12--12--|
--------------------------|-------------------------------|----------------------------------|
--7--7--7--7--7--7--7--7--|--10--10--10--10--7--7--7---9--|--10--10--10--10--10--10--10--10--|
--------------------------|-------------------------------|----------------------------------|

  D#                                 F                          G#
   E   E   E   E   E   E   E   E     E  E  E  E  E  E  E  E      E   E   E   E   E   E   E   E   
----------------------------------|--------------------------|----------------------------------|
----------------------------------|--------------------------|----------------------------------|
--14--14--14--14--14--14--14--14--|--9--9--9--9--9--9--9--9--|--12--12--12--14--14--14--14--14--|
----------------------------------|--------------------------|----------------------------------|
--12--12--12--12--12--12--12--12--|--7--7--7--7--7--7--7--7--|--10--10--10--12--12--12--12--12--|
----------------------------------|--------------------------|----------------------------------|

  C                                  D#                                 F 
   E   E   E   E   E   E   E   E      E   E   E   E   E   E   E   E     E  E  E  E  E  E  E  E   
----------------------------------|----------------------------------|--------------------------|
----------------------------------|----------------------------------|--------------------------|
--12--12--12--12--12--12--12--12--|--14--14--14--14--14--14--14--14--|--9--9--9--9--9--9--9--9--|
----------------------------------|----------------------------------|--------------------------|
--10--10--10--10--10--10--10--10--|--12--12--12--12--12--12--12--12--|--7--7--7--7--7--7--7--7--|
----------------------------------|----------------------------------|--------------------------|

  G#                              C
   E   E   E   E  E  E  E   E      E   E   E   E   E   E   E   E   
-------------------------------|----------------------------------|
-------------------------------|----------------------------------|
--12--12--12--12--9--9--9--11--|--12--12--12--12--12--12--12--12--|
-------------------------------|----------------------------------|
--10--10--10--10--7--7--7---9--|--10--10--10--10--10--10--10--10--|
-------------------------------|----------------------------------|

  D#                                 F                          G#
   E   E   E   E   E   E   E   E     E  E  E  E  E  E  E  E      E   E   E   E   E   E   E   E   
----------------------------------|--------------------------|----------------------------------|
----------------------------------|--------------------------|----------------------------------|
--14--14--14--14--14--14--14--14--|--9--9--9--9--9--9--9--9--|--12--12--12--14--14--14--14--14--|
----------------------------------|--------------------------|----------------------------------|
--12--12--12--12--12--12--12--12--|--7--7--7--7--7--7--7--7--|--10--10--10--12--12--12--12--12--|
----------------------------------|--------------------------|----------------------------------|


                      PM PM                        PM PM                        PM PM  
  S S E  E  S S E  E  E  E     S S E  E  S S E  E  E  E     S S E  E  S S E  E  E  E   
----------------------------|----------------------------|----------------------------|
----------------------------|----------------------------|----------------------------|
----------------------------|----------------------------|----------------------------|
----------------------------|----------------------------|----------------------------|
----------------------------|----------------------------|----------------------------|
--2-3-2--0--2-3-2--0--0--0--|--2-3-2--0--2-3-2--0--0--0--|--2-3-2--0--2-3-2--0--0--0--|


                                                  PM PM                        PM PM  
  S S E  E  E  E  E  E  E     S S E  E  S S E  E  E  E     S S E  E  S S E  E  E  E   
---------------------------|----------------------------|----------------------------|
---------------------------|----------------------------|----------------------------|
---------------------------|----------------------------|----------------------------|
------------5--5--5--5--5--|----------------------------|----------------------------|
------------x--x--x--x--x--|----------------------------|----------------------------|
--2-3-2--0--5--5--5--5--5--|--2-3-2--0--2-3-2--0--0--0--|--2-3-2--0--2-3-2--0--0--0--|


                      PM PM                                                    PM PM  
  S S E  E  S S E  E  E  E     S S E  E  E  E  E  E  E     S S E  E  S S E  E  E  E   
----------------------------|---------------------------|----------------------------|
----------------------------|---------------------------|----------------------------|
----------------------------|---------------------------|----------------------------|
----------------------------|------------5--5--5--5--5--|----------------------------|
----------------------------|------------x--x--x--x--x--|----------------------------|
--2-3-2--0--2-3-2--0--0--0--|--2-3-2--0--5--5--5--5--5--|--2-3-2--0--2-3-2--0--0--0--|


                      PM PM                        PM PM                              
  S S E  E  S S E  E  E  E     S S E  E  S S E  E  E  E     S S E  E  E  E  E  E  E   
----------------------------|----------------------------|---------------------------|
----------------------------|----------------------------|---------------------------|
----------------------------|----------------------------|---------------------------|
----------------------------|----------------------------|------------5--5--5--5--5--|
----------------------------|----------------------------|------------x--x--x--x--x--|
--2-3-2--0--2-3-2--0--0--0--|--2-3-2--0--2-3-2--0--0--0--|--2-3-2--0--5--5--5--5--5--|


                      PM PM                        PM PM                        PM PM  
  S S E  E  S S E  E  E  E     S S E  E  S S E  E  E  E     S S E  E  S S E  E  E  E   
----------------------------|----------------------------|----------------------------|
----------------------------|----------------------------|----------------------------|
----------------------------|----------------------------|----------------------------|
----------------------------|----------------------------|----------------------------|
----------------------------|----------------------------|----------------------------|
--2-3-2--0--2-3-2--0--0--0--|--2-3-2--0--2-3-2--0--0--0--|--2-3-2--0--2-3-2--0--0--0--|

                             C                                  D#
  E  E  E  E  E  E  E  E      E   E   E   E   E   E   E   E      E   E   E   E   E   E   E   E   
--------------------------|----------------------------------|----------------------------------|
--------------------------|----------------------------------|----------------------------------|
--5--5--5--5--7--7--7--7--|--12--12--12--12--12--12--12--12--|--14--14--14--14--14--14--14--14--|
--5--5--5--5--7--7--7--7--|----------------------------------|----------------------------------|
--3--3--3--3--5--5--5--5--|--10--10--10--10--10--10--10--10--|--12--12--12--12--12--12--12--12--|
--------------------------|----------------------------------|----------------------------------|

  F                         G#                              C 
  E  E  E  E  E  E  E  E      E   E   E   E  E  E  E   E      E   E   E   E   E   E   E   E   
--------------------------|-------------------------------|----------------------------------|
--------------------------|-------------------------------|----------------------------------|
--9--9--9--9--9--9--9--9--|--12--12--12--12--9--9--9--11--|--12--12--12--12--12--12--12--12--|
--------------------------|-------------------------------|----------------------------------|
--7--7--7--7--7--7--7--7--|--10--10--10--10--7--7--7---9--|--10--10--10--10--10--10--10--10--|
--------------------------|-------------------------------|----------------------------------|

 D#                                 F                          G#
   E   E   E   E   E   E   E   E     E  E  E  E  E  E  E  E      E   E   E   E   E   E   E   E   
----------------------------------|--------------------------|----------------------------------|
----------------------------------|--------------------------|----------------------------------|
--14--14--14--14--14--14--14--14--|--9--9--9--9--9--9--9--9--|--12--12--12--14--14--14--14--14--|
----------------------------------|--------------------------|----------------------------------|
--12--12--12--12--12--12--12--12--|--7--7--7--7--7--7--7--7--|--10--10--10--12--12--12--12--12--|
----------------------------------|--------------------------|----------------------------------|

 C                                  D#                                 F
   E   E   E   E   E   E   E   E      E   E   E   E   E   E   E   E     E  E  E  E  E  E  E  E   
----------------------------------|----------------------------------|--------------------------|
----------------------------------|----------------------------------|--------------------------|
--12--12--12--12--12--12--12--12--|--14--14--14--14--14--14--14--14--|--9--9--9--9--9--9--9--9--|
----------------------------------|----------------------------------|--------------------------|
--10--10--10--10--10--10--10--10--|--12--12--12--12--12--12--12--12--|--7--7--7--7--7--7--7--7--|
----------------------------------|----------------------------------|--------------------------|

 G#                              C
   E   E   E   E  E  E  E   E      E   E   E   E   E   E   E   E   
-------------------------------|----------------------------------|
-------------------------------|----------------------------------|
--12--12--12--12--9--9--9--11--|--12--12--12--12--12--12--12--12--|
-------------------------------|----------------------------------|
--10--10--10--10--7--7--7---9--|--10--10--10--10--10--10--10--10--|
-------------------------------|----------------------------------|

 D#                                 F                          G#
   E   E   E   E   E   E   E   E     E  E  E  E  E  E  E  E      E   E   E   E   E   E   E   E   
----------------------------------|--------------------------|----------------------------------|
----------------------------------|--------------------------|----------------------------------|
--14--14--14--14--14--14--14--14--|--9--9--9--9--9--9--9--9--|--12--12--12--14--14--14--14--14--|
----------------------------------|--------------------------|----------------------------------|
--12--12--12--12--12--12--12--12--|--7--7--7--7--7--7--7--7--|--10--10--10--12--12--12--12--12--|
----------------------------------|--------------------------|----------------------------------|

 C
  E  E  E  E  E  E  E  E     E  E  E  E  E  E  E  E     E  E  E  E  E  E  E  E   
--------------------------|--------------------------|--------------------------|
--5--------5--------5-----|--------------------------|--------------------------|
-----4--4-----4--4-----4--|--------------------------|--------------------------|
--------------------------|--3--2-----2--------------|--3--2-----2--------------|
--------------------------|--3--2-----2-----2--2--0--|--3--2-----2-----2--2--0--|
--------------------------|--3--2-----2-----2--2--0--|--3--2-----2-----2--2--0--|


  E  E  E  E  E  E  E  E     E  E  E  E  E  E  E  E     E  E  E  E  E  E  E  E   
--------------------------|--------------------------|--------------------------|
--------------------------|--------------------------|--------------------------|
--------------------------|--------------------------|--------------------------|
--3--2-----2--------------|--3--2-----5--5--5--5--5--|--3--2-----2--------------|
--3--2-----2-----2--2--0--|--3--2-----x--x--x--x--x--|--3--2-----2-----2--2--0--|
--3--2-----2-----2--2--0--|--3--2-----5--5--5--5--5--|--3--2-----2-----2--2--0--|


  E  E  E  E  E  E  E  E     E  E  E  E  E  E  E  E     E  E  E  E  E  E  E  E   
--------------------------|--------------------------|--------------------------|
--------------------------|--------------------------|--------------------------|
--------------------------|--------------------------|--------------------------|
--3--2-----2--------------|--3--2-----2--------------|--3--2-----5--5--5--5--5--|
--3--2-----2-----2--2--0--|--3--2-----2-----2--2--0--|--3--2-----x--x--x--x--x--|
--3--2-----2-----2--2--0--|--3--2-----2-----2--2--0--|--3--2-----5--5--5--5--5--|


  E  E  E  E  E  E  E  E     E  E  E  E  E  E  E  E     E  E  E  E  E  E  E  E   
--------------------------|--------------------------|--------------------------|
--------------------------|--------------------------|--------------------------|
--------------------------|--------------------------|--------------------------|
--3--2-----2--------------|--3--2-----2--------------|--3--2-----2--------------|
--3--2-----2-----2--2--0--|--3--2-----2-----2--2--0--|--3--2-----2-----2--2--0--|
--3--2-----2-----2--2--0--|--3--2-----2-----2--2--0--|--3--2-----2-----2--2--0--|


  E  E  E  E  E  E  E  E     E  E  E  E  E  E  E  E     E  E  E  E  E  E  E  E   
--------------------------|--------------------------|--------------------------|
--------------------------|--------------------------|--------------------------|
--------------------------|--------------------------|--------------------------|
--3--2-----5--5--5--5--5--|--3--2-----2--------------|--3--2-----2--------------|
--3--2-----x--x--x--x--x--|--3--2-----2-----2--2--0--|--3--2-----2-----2--2--0--|
--3--2-----5--5--5--5--5--|--3--2-----2-----2--2--0--|--3--2-----2-----2--2--0--|

                                                       C
  E  E  E  E  E  E  E  E     E  E  E  E  E  E  E  E      E   E   E   E   E   E   E   E   
--------------------------|--------------------------|----------------------------------|
--------------------------|--------------------------|----------------------------------|
--------------------------|--5--5--5--5--7--7--7--7--|--12--12--12--12--12--12--12--12--|
--3--2-----2--------------|--5--5--5--5--7--7--7--7--|----------------------------------|
--3--2-----2-----2--2--0--|--3--3--3--3--5--5--5--5--|--10--10--10--10--10--10--10--10--|
--3--2-----2-----2--2--0--|--------------------------|----------------------------------|

 D#                                 F                          G#
   E   E   E   E   E   E   E   E     E  E  E  E  E  E  E  E      E   E   E   E  E  E  E   E   
----------------------------------|--------------------------|-------------------------------|
----------------------------------|--------------------------|-------------------------------|
--14--14--14--14--14--14--14--14--|--9--9--9--9--9--9--9--9--|--12--12--12--12--9--9--9--11--|
----------------------------------|--------------------------|-------------------------------|
--12--12--12--12--12--12--12--12--|--7--7--7--7--7--7--7--7--|--10--10--10--10--7--7--7---9--|
----------------------------------|--------------------------|-------------------------------|

 C                                  D#                                 F 
   E   E   E   E   E   E   E   E      E   E   E   E   E   E   E   E     E  E  E  E  E  E  E  E   
----------------------------------|----------------------------------|--------------------------|
----------------------------------|----------------------------------|--------------------------|
--12--12--12--12--12--12--12--12--|--14--14--14--14--14--14--14--14--|--9--9--9--9--9--9--9--9--|
----------------------------------|----------------------------------|--------------------------|
--10--10--10--10--10--10--10--10--|--12--12--12--12--12--12--12--12--|--7--7--7--7--7--7--7--7--|
----------------------------------|----------------------------------|--------------------------|

 G#                                 C
   E   E   E   E   E   E   E   E      E   E   E   E   E   E   E   E   
----------------------------------|----------------------------------|
----------------------------------|----------------------------------|
--12--12--12--14--14--14--14--14--|--12--12--12--12--12--12--12--12--|
----------------------------------|----------------------------------|
--10--10--10--12--12--12--12--12--|--10--10--10--10--10--10--10--10--|
----------------------------------|----------------------------------|

 D#                                 F                          G#
   E   E   E   E   E   E   E   E     E  E  E  E  E  E  E  E      E   E   E   E  E  E  E   E   
----------------------------------|--------------------------|-------------------------------|
----------------------------------|--------------------------|-------------------------------|
--14--14--14--14--14--14--14--14--|--9--9--9--9--9--9--9--9--|--12--12--12--12--9--9--9--11--|
----------------------------------|--------------------------|-------------------------------|
--12--12--12--12--12--12--12--12--|--7--7--7--7--7--7--7--7--|--10--10--10--10--7--7--7---9--|
----------------------------------|--------------------------|-------------------------------|

 C                                  D#                                F                      
   E   E   E   E   E   E   E   E      E   E   E   E   E   E   E   E     E  E  E  E  E  E  E  E   
----------------------------------|----------------------------------|--------------------------|
----------------------------------|----------------------------------|--------------------------|
--12--12--12--12--12--12--12--12--|--14--14--14--14--14--14--14--14--|--9--9--9--9--9--9--9--9--|
----------------------------------|----------------------------------|--------------------------|
--10--10--10--10--10--10--10--10--|--12--12--12--12--12--12--12--12--|--7--7--7--7--7--7--7--7--|
----------------------------------|----------------------------------|--------------------------|

 G#
   E   E   E   E   E   E   E   E     H        E  E  Q       H        E  E  Q     
----------------------------------|----------------------|----------------------|
----------------------------------|-----------5----------|-----------5----------|
--12--12--12--14--14--14--14--14--|--------------4-------|--------------4-------|
----------------------------------|--2-----------L--2----|--L-----------L--2----|
--10--10--10--12--12--12--12--12--|--2--------------L----|--L--------------L----|
----------------------------------|--2--------------L----|--L--------------L----|


  W                   W                   H        E  E  Q       H        E  E  Q     
-------------------|-------------------|----------------------|----------------------|
-------------------|-------------------|-----------5----------|-----------5----------|
-------------------|-------------------|--------------4-------|--------------4-------|
--0----------------|--3----------------|--2-----------L--2----|--L-----------L--2----|
--0----------------|--3----------------|--2--------------L----|--L--------------L----|
--0----------------|--3----------------|--2--------------L----|--L--------------L----|


  W                   W                   E  E  H.              W                 
-------------------|-------------------|---------------------|-------------------|
-------------------|-------------------|---------------------|-------------------|
-------------------|-------------------|---------------------|-------------------|
--0----------------|--3----------------|---------------------|-------------------|
--0----------------|--3----------------|--3--2---------------|-------------------|
--0----------------|--3----------------|--3--2---------------|-------------------|


  W                   W                   W                   W                   W                 
-------------------|-------------------|-------------------|-------------------|-------------------|
-------------------|-------------------|-------------------|-------------------|-------------------|
-------------------|-------------------|-------------------|-------------------|-------------------|
-------------------|-------------------|-------------------|-------------------|-------------------|
-------------------|-------------------|-------------------|-------------------|-------------------|
-------------------|-------------------|-------------------|-------------------|-------------------|


  W                   W                   W                   W                   W                 
-------------------|-------------------|-------------------|-------------------|-------------------|
-------------------|-------------------|-------------------|-------------------|-------------------|
-------------------|-------------------|-------------------|-------------------|-------------------|
-------------------|-------------------|-------------------|-------------------|-------------------|
-------------------|-------------------|-------------------|-------------------|-------------------|
-------------------|-------------------|-------------------|-------------------|-------------------|


  W                   W                   W                   W                 
-------------------|-------------------|-------------------|-------------------|
-------------------|-------------------|-------------------|-------------------|
-------------------|-------------------|-------------------|-------------------|
-------------------|-------------------|-------------------|-------------------|
-------------------|-------------------|-------------------|-------------------|
-------------------|-------------------|-------------------|-------------------|

C                                   D#                                 F 
   E   E   E   E   E   E   E   E      E   E   E   E   E   E   E   E     E  E  E  E  E  E  E  E   
----------------------------------|----------------------------------|--------------------------|
----------------------------------|----------------------------------|--------------------------|
--12--12--12--12--12--12--12--12--|--14--14--14--14--14--14--14--14--|--9--9--9--9--9--9--9--9--|
----------------------------------|----------------------------------|--------------------------|
--10--10--10--10--10--10--10--10--|--12--12--12--12--12--12--12--12--|--7--7--7--7--7--7--7--7--|
----------------------------------|----------------------------------|--------------------------|

 G#                              C 
   E   E   E   E  E  E  E   E      E   E   E   E   E   E   E   E   
-------------------------------|----------------------------------|
-------------------------------|----------------------------------|
--12--12--12--12--9--9--9--11--|--12--12--12--12--12--12--12--12--|
-------------------------------|----------------------------------|
--10--10--10--10--7--7--7---9--|--10--10--10--10--10--10--10--10--|
-------------------------------|----------------------------------|

 D#                                F                          G#
   E   E   E   E   E   E   E   E     E  E  E  E  E  E  E  E      E   E   E   E   E   E   E   E   
----------------------------------|--------------------------|----------------------------------|
----------------------------------|--------------------------|----------------------------------|
--14--14--14--14--14--14--14--14--|--9--9--9--9--9--9--9--9--|--12--12--12--14--14--14--14--14--|
----------------------------------|--------------------------|----------------------------------|
--12--12--12--12--12--12--12--12--|--7--7--7--7--7--7--7--7--|--10--10--10--12--12--12--12--12--|
----------------------------------|--------------------------|----------------------------------|

 C                                 D#                                  F
   E   E   E   E   E   E   E   E      E   E   E   E   E   E   E   E     E  E  E  E  E  E  E  E   
----------------------------------|----------------------------------|--------------------------|
----------------------------------|----------------------------------|--------------------------|
--12--12--12--12--12--12--12--12--|--14--14--14--14--14--14--14--14--|--9--9--9--9--9--9--9--9--|
----------------------------------|----------------------------------|--------------------------|
--10--10--10--10--10--10--10--10--|--12--12--12--12--12--12--12--12--|--7--7--7--7--7--7--7--7--|
----------------------------------|----------------------------------|--------------------------|

 G#                              C 
   E   E   E   E  E  E  E   E      E   E   E   E   E   E   E   E   
-------------------------------|----------------------------------|
-------------------------------|----------------------------------|
--12--12--12--12--9--9--9--11--|--12--12--12--12--12--12--12--12--|
-------------------------------|----------------------------------|
--10--10--10--10--7--7--7---9--|--10--10--10--10--10--10--10--10--|
-------------------------------|----------------------------------|

 D#                                 F                          G#
   E   E   E   E   E   E   E   E     E  E  E  E  E  E  E  E      E   E   E   E   E   E   E   E   
----------------------------------|--------------------------|----------------------------------|
----------------------------------|--------------------------|----------------------------------|
--14--14--14--14--14--14--14--14--|--9--9--9--9--9--9--9--9--|--12--12--12--14--14--14--14--14--|
----------------------------------|--------------------------|----------------------------------|
--12--12--12--12--12--12--12--12--|--7--7--7--7--7--7--7--7--|--10--10--10--12--12--12--12--12--|
----------------------------------|--------------------------|----------------------------------|


  H        E  E  Q       W                   W                   W                  
----------------------|-------------------|-------------------|-------------------||
-----------5-----L----|--L----------------|--L----------------|--L----------------||
--------------4-------|--L----------------|--L----------------|--L----------------||
--2-----------L--2----|--L----------------|--L----------------|--L----------------||
--2-------------------|--L----------------|--L----------------|--L----------------||
--2-------------------|--L----------------|--L----------------|--L----------------||




Duration Legend
---------------
W - whole
H - half
Q - quarter
E - 8th
S - 16th
T - 32nd
X - 64th
. - note dotted
|-n-|  - n-tuplets


Tablature Legend
----------------
L - tied note
x - dead note
g - grace note
(n) - ghost note
> - accentuded note
NH - natural harmonic
AH - artificial harmonic
TH - tapped harmonic
SH - semi harmonic
PH - pitch harmonic
h - hammer on
p - pull off
b - bend
br - bendRelease
pb - preBend
pbr - preBendRelease
brb - bendReleaseBend
\n/ - tremolo bar dip
\n - tremolo bar dive
-/n - tremolo bar Release up
/n\ - tremolo bar inverted dip
/n - tremolo bar return
-\n - tremolo bar Release down
S - shift slide
s - legato slide
/ -  slide into from below or out of upwards
\ -  slide into from above or out of downwards
~ - vibrato
W - wide vibrato
tr - trill
TP - tremolo picking
T - tapping
S - slap
P - pop
< - fade in
^ - brush up
v - brush down
comments
print report bad tab
3 comments total.
-1 reply
zhmirlan wrote on March 19 2011, 09:54 am

Get a real tuning and add the text so that an actual human being can tell where the f***k in the song these tabs are suposed to be..

0 reply
saberrocks wrote on March 19 2011, 07:17 pm

Well, sorry dude if you disliked it, at least 2 others voted 5 stars for it.

+1 reply
TheHTee wrote on March 25 2011, 08:35 pm

Damn good tab

I want to post or [tab]
guest
You may want to rate the tab now too:
select rating
Please do not post tabs as comments. Select "correction" instead!