Oops, an error
Loading. Please wait.

Corpse Pose Tab

ver3
ver3

Whole song

More versions @911Tabs.com
286 views 12 this week
2 commentsread comments
1 2 3 4 5
excellent!
x 3
add to favorites launch autoscroll
font size
0
reset
Autoscroll
+/-
esc
set tempo
stop
Contributor
Difficulty
intermediate
WARNING: You are trying to view
                                    content from Ultimate-Guitar.com
                                    in an unauthorized application,
                                    which is prohibited.

                                    Please use an official Ultimate
                                    Guitar Tabs application for iPhone,
                                    iPad or Android to access legitimate
                                    chords, guitar, bass, and drum tabs
                                    from Ultimate-Guitar.com database.

                                    Type "ultimate guitar tabs" in Apple
                                    App Store's or Android Market's
                                    search to find the application.
Artist: Unwound
Song: "Corpse Pose"
Album: Repetition CD/LP (1996)



Standard Tuning



Guitar
Verse riff:
e|---------------------------------------------------------1212-----|
B|-------------------------------------------------1010----1010-----|
G|-----9-9-9-9---------2-----4b5p2-----9-9-9-9-----9-9-----1010-----|
D|-----x-x-x-x-------------------------x-x-x-x----------------------|
A|-----8-8-8-8-----3-------3-----------8-8-8-8----------------------|
E|------------------------------------------------------------------|



Guitar
Pre-Chorus riff:
e|------------------------------------------------------------------|
B|-----------------------------1010----------------------------1010-|
G|-----9-9-----1010----7-7-----9-9-----9-9-----1010----7-7-----9-9--|
D|-----7-7-----9-9-----9-9----(7)------7-7-----9-9-----9-9----(7)---|
A|-----8-8-----------------------------8-8--------------------------|
E|------------------------------------------------------------------|



Chorus riff:
e|------------------------------------------------------------------|
B|------------------------------------------------------------------|
G|---------12121212--------14141414--------12121212--------14141414-|
D|---------10101010--------12121212--------10101010--------12121212-|
A|-0-0-0-0---------0-0-0-0-x-x-x-x-0-0-0-0---------0-0-0-0----------|
E|-------------------------13131313---------------------------------|



Bridge riff:
e|--------------------------------------------------|
B|--------------------------------------------------|
G|-----9---7---------2------4b5r4-2-----------------|
D|--------------------------------------3---5---6---|
A|-8-----------8---3------3-------------------------|
E|----------------------------------4---------------|



Final riff:
e|------------------------------------------------------------------|
B|------------------------------------------------------------------|
G|---------12121212--------14141414--------12121212--------14141414-|
D|---------10101010--------12121212--------10101010--------12121212-|
A|-*______---------*______-x-x-x-x-*______---------*______----------|
E|-------------------------13131313---------------------------------|
+
e|------------------|
B|------------------|
G|---------12121212-|
D|---------10101010-|
A|-*______----------|
E|------------------|
*______ = feedback squall



Guitar:
Verse riff x4
Pre-Chorus riff x2
Chorus riff x3
Verse riff x4
Pre-Chorus riff x2
Chorus riff x3
Bridge riff x4
Chorus riff x2
Bridge riff x6
Final riff x1



As a point of reference, please check out the live YouTube video from 2001 of Unwound 
playing "Corpse Pose" at Rubber Gloves in Denton, TX.  You can see here that the tab 
matches up to what Justin Trosper is playing.



That's it.  Please feel free to leave any comments, questions, or requests.  Cheers!
-Bennyshambles78-
comments
We did not receive enough feedback on this tab! Please rate:
print report bad tab
1 2 3 4 5
2 comments total.
+1 reply
budameat wrote on March 6 2014, 11:09 am

Great tab and nice work on Unwound.

I have a correction for the chorus part:

Chorus riff:
e|------------------------------------------------------------------|
B|------------------------------------------------------------------|
G|---------12121212--------14141414--------12121212--------14141414-|
D|---------10101010--------12121212--------10101010--------12121212-|
A|-0-0-0-0---------0-0-0-0-x-x-x-x-0-0-0-0---------0-0-0-0----------|
E|-------------------------13131313---------------------------------|

What do you think?

+1 reply
bennyshambles78 wrote on March 6 2014, 07:51 pm

Awesome, yeah. I know Justin plays the chorus in that fret range, and he also adds a lot of low E fretting in that shape, so your correction totally makes sense. Cheers!

I want to post or [tab]
guest
You may want to rate the tab now too:
select rating
Please do not post tabs as comments. Select "correction" instead!