Oops, an error
Loading. Please wait.

Unwrittenxmas Tab

ver2
ver2

Whole song

More versions @911Tabs.com
110 views 1 this week
no commentswrite comment
1 2 3 4 5
excellent!
x 1
add to favorites launch autoscroll
font size
0
reset
Autoscroll
+/-
esc
set tempo
stop
Contributor
Difficulty
novice
WARNING: You are trying to view
                                    content from Ultimate-Guitar.com
                                    in an unauthorized application,
                                    which is prohibited.

                                    Please use an official Ultimate
                                    Guitar Tabs application for iPhone,
                                    iPad or Android to access legitimate
                                    chords, guitar, bass, and drum tabs
                                    from Ultimate-Guitar.com database.

                                    Type "ultimate guitar tabs" in Apple
                                    App Store's or Android Market's
                                    search to find the application.
-------------------------------------------------------------------------------
                             Unwritten Christmas - Unwritten Law/Sum 41
-------------------------------------------------------------------------------
Tabbed by:RucusBoy


Tuning: Standard
it sounds like they play with the high notes a bit more but it sounds good playing it this way 

solo and with the bass too.  


VERSE- play low strings on down stroke and high ones on the up stroke

e|-----3------3-----3-----2------------------|
B|-----3------3-----3-----3------------------|
G|---------------------2---------------------|
D|---------2-----------0---------------------|
A|--2------3------2--------------------------|
E|--3-------------0--------------------------|

SOLO

e|--15--14--12------------------------------|
B|--------------15--13--12------12----------|
G|--------------------------14--------------|
D|------------------------------------------|
A|------------------------------------------|
E|------------------------------------------|

CHORUS

e|---3-------3---2----------|
B|---3-------3---3----------| 
G|---0-------0---2----------| 
D|---0-------2---0----------|
A|---2-------2--------------|
E|---3-------0--------------|
         

e|---3---3---3---2----------|
B|---3---3---3---3----------| 
G|---0---0---0---2----------|
D|---0---2---2---0----------|
A|---2---3---2--------------|
E|---3-------0--------------|
        

PLAY BAR CHORDS IN THE RAP PART

    G   C   E   D
e|--------------------------------|
B|--------------------------------|
G|------5-------7-----------------|
D|--5---5---2---7-----------------|
A|--5---3---2---5-----------------|
E|--3-------0---------------------|

Remember when, I was ten,
lookin forward to Christmas again,
everything, I enjoy,
like the family Christmas tree and the toys,
and I'd wake up early morning
while mom and dad still snored in bed,
so I crept, down the steps,
couldn't wait to see what Santa had left now

[Chorus]
I could not wait for Christmas day,
wait for Christmas day now

Don't want to wait, gettin late,
march up stairs to give my parents a shake,
get out of bed, sleepy heads,
Christmas doesn't start till you are awake,
as we gather around the tree
I open everything they gave to me,
so I stay, end up late,
why cant it be Christmas everyday now

[Chorus]
I could not wait for Christmas day,
wait for Christmas day now,
but I, but I, will have to wait for Christmas,
I will hafta wait for Christmas,
I will always wait for Christmas day

Now wake up Christmas morning, guess what I saw,
it's Unwritten Law and Sum 41 rock it raw,
with the message for kids sayin they should be nice
not naughty cuz, Santa knows karate, he's on the cross Vader,
hip hop hoorayder , got wade on the beats,
like AC Slater, if you good like Wally,
or bad like the Beev, only Santa know the score
come Christmas eve

[Chorus]
But I, but I will have to wait for Christmas,
I will have to wait for Christmas,
I will always wait for Christmas
day now yeah, I could not wait for Christmas day.

===============================================================================
comments
We did not receive enough feedback on this tab! Please rate:
1 2 3 4 5
I want to post or [tab]
guest
You may want to rate the tab now too:
select rating
Please do not post tabs as comments. Select "correction" instead!