Oops, an error
Loading. Please wait.

Blue And Yellow Tab

by Used
ver4
ver4

Whole song

More versions @911Tabs.com
2,731 views 3 this week
1 commentread comment
1 2 3 4 5
accurate
x 3
Autoscroll
+/-
esc
set tempo
stop
Contributor
WARNING: You are trying to view
                                    content from Ultimate-Guitar.com
                                    in an unauthorized application,
                                    which is prohibited.

                                    Please use an official Ultimate
                                    Guitar Tabs application for iPhone,
                                    iPad or Android to access legitimate
                                    chords, guitar, bass, and drum tabs
                                    from Ultimate-Guitar.com database.

                                    Type "ultimate guitar tabs" in Apple
                                    App Store's or Android Market's
                                    search to find the application.
----------------------------------------------------------------------------
                          Blue And Yellow - The Used
----------------------------------------------------------------------------





Guitar 1: D A D G B E 'Rhythm'
Guitar 2: D A D G B E 'Lead'
Guitar 3: D A D G B E 'Piano'



Guitar 1:



     E  E  E  E  E  E  E  E     E  E  E  E  E  E  E  E   
E||--------------------------|--------------------------|
B||--------------------------|--------------------------|
G||--------------------------|--------------------------|
D||-----3--3--3--3--2--2-----|-----3--3--3--3--3--3--3--|
A||-----0--0--0--0--0--0--0--|--0--1--1--1--1--1--1--1--|
D||--------------------------|--------------------------|


  E  E  E  E  E  E  E  E     E  E  E  E  E  E  E  E   
--------------------------|--------------------------|
--------------------------|--------------------------|
--------------------------|--------------------------|
-----3--3--3--3--2--2-----|-----3--3--3--3--3--3--3--|
-----0--0--0--0--0--0--0--|--0--1--1--1--1--1--1--1--|
--------------------------|--------------------------|


  E  E  E  E  E  E  E  E     E  E  E  E  E  E  E  E   
--------------------------|--------------------------|
--------------------------|--------------------------|
--------------------------|--------------------------|
-----3--3--3--3--2--2-----|-----3--3--3--3--3--3--3--|
-----0--0--0--0--0--0--0--|--0--1--1--1--1--1--1--1--|
--------------------------|--------------------------|


  E  E  E  E  E  E  E  E     E  E  E  E  E  E  E  E   
--------------------------|--------------------------|
--------------------------|--------------------------|
--------------------------|--------------------------|
-----3--3--3--3--2--2-----|-----3--3--3--3--3--3--3--|
-----0--0--0--0--0--0--0--|--0--1--1--1--1--1--1--1--|
--------------------------|--------------------------|


  E  E  E  E  E  E  E  E     E  E  E  E  E  E  E  E   
--------------------------|--------------------------|
--------------------------|--------------------------|
--------------------------|--------------------------|
-----3--3--3--3--2--2-----|-----3--3--3--3--3--3--3--|
-----0--0--0--0--0--0--0--|--0--1--1--1--1--1--1--1--|
--------------------------|--------------------------|


  E  E  E  E  E  E  E  E     E  E  E  E  E  E  E  E   
--------------------------|--------------------------|
--------------------------|--------------------------|
--------------------------|--------------------------|
-----3--3--3--3--2--2-----|-----3--3--3--3--3--3--3--|
-----0--0--0--0--0--0--0--|--0--1--1--1--1--1--1--1--|
--------------------------|--------------------------|


  E  E  E  E  E  E  E  E     E  E  E  E  E  E  E  E   
--------------------------|--------------------------|
--------6-----------6-----|--------6-----------6-----|
--------------------------|--------------------------|
--5--5-----5--5--5-----5--|--5--5-----5--5--5-----5--|
--3--3-----3--3--3-----3--|--3--3-----3--3--3-----3--|
--------------------------|--------------------------|


  E  E  E  E  E  E  E  E     E  E  E  E  E  E  E  E   
--------1-----------1-----|--------1-----------1-----|
--------------------------|--------------------------|
--------------------------|--------------------------|
--3--3-----3--3--3-----3--|--3--3-----3--3--3-----3--|
--1--1-----1--1--1-----1--|--1--1-----1--1--1-----1--|
--------------------------|--------------------------|


  E  E  E  E  E  E  E  E     E  E  E  E  E  E  E  E   
--------------------------|--------------------------|
--------6-----------6-----|--------6-----------6-----|
--------------------------|--------------------------|
--5--5-----5--5--5-----5--|--5--5-----5--5--5-----5--|
--3--3-----3--3--3-----3--|--3--3-----3--3--3-----3--|
--------------------------|--------------------------|


  E  E  E  E  E  E  E  E     E  E  E  E  E  E  E  E   
--------1-----------1-----|--------1-----------1-----|
--------------------------|--------------------------|
--------------------------|--------------------------|
--3--3-----3--3--3-----3--|--3--3-----3--3--3-----3--|
--1--1-----1--1--1-----1--|--1--1-----1--1--1-----1--|
--------------------------|--------------------------|


  E  E  E  E  E  E  E  E     E  E  E  E  E  E  E  E   
--------1-----------1-----|--------------------------|
--------------------------|--------6-----------6-----|
--------------------------|--------------------------|
--3--3-----3--3--3-----3--|--5--5-----5--5--5-----5--|
--1--1-----1--1--1-----1--|--3--3-----3--3--3-----3--|
--------------------------|--------------------------|


  E  E  E  E  E  E  E  E      E   E   E   E   E   E   E   E   
--------------------------|----------------------------------|
--------6-----------6-----|----------------------------------|
--------------------------|----------10--------------10------|
--7--7-----7--7--7-----7--|--10--10------10--10--10------10--|
--5--5-----5--5--5-----5--|---8---8-------8---8---8-------8--|
--------------------------|----------------------------------|


  E  E  E  E  E  E  E  E     E  E  E  E  E  E  E  E   
--------------------------|--------------------------|
--------------------------|--------------------------|
--------------------------|--------------------------|
-----3--3--3--3--2--2-----|-----3--3--3--3--3--3--3--|
-----0--0--0--0--0--0--0--|--0--1--1--1--1--1--1--1--|
--------------------------|--------------------------|


  E  E  E  E  E  E  E  E     E  E  E  E  E  E  E  E   
--------------------------|--------------------------|
--------------------------|--------------------------|
--------------------------|--------------------------|
-----3--3--3--3--2--2-----|-----3--3--3--3--3--3--3--|
-----0--0--0--0--0--0--0--|--0--1--1--1--1--1--1--1--|
--------------------------|--------------------------|


  E  E  E  E  E  E  E  E     E  E  E  E  E  E  E  E   
--------------------------|--------------------------|
--------------------------|--------------------------|
--------------------------|--------------------------|
-----3--3--3--3--2--2-----|-----3--3--3--3--3--3--3--|
-----0--0--0--0--0--0--0--|--0--1--1--1--1--1--1--1--|
--------------------------|--------------------------|


  E  E  E  E  E  E  E  E     E  E  E  E  E  E  E  E   
--------------------------|--------------------------|
--------------------------|--------------------------|
--------------------------|--------------------------|
-----3--3--3--3--2--2-----|-----3--3--3--3--3--3--3--|
-----0--0--0--0--0--0--0--|--0--1--1--1--1--1--1--1--|
--------------------------|--------------------------|


  E  E  E  E  E  E  E  E     E  E  E  E  E  E  E  E   
--------------------------|--------------------------|
--------------------------|--------------------------|
--------------------------|--------------------------|
-----3--3--3--3--2--2-----|-----3--3--3--3--3--3--3--|
-----0--0--0--0--0--0--0--|--0--1--1--1--1--1--1--1--|
--------------------------|--------------------------|


  E  E  E  E  E  E  E  E     E  E  E  E  E  E  E  E   
--------------------------|--------------------------|
--------6-----------6-----|--------6-----------6-----|
--------------------------|--------------------------|
--5--5-----5--5--5-----5--|--5--5-----5--5--5-----5--|
--3--3-----3--3--3-----3--|--3--3-----3--3--3-----3--|
--------------------------|--------------------------|


  E  E  E  E  E  E  E  E     E  E  E  E  E  E  E  E   
--------1-----------1-----|--------1-----------1-----|
--------------------------|--------------------------|
--------------------------|--------------------------|
--3--3-----3--3--3-----3--|--3--3-----3--3--3-----3--|
--1--1-----1--1--1-----1--|--1--1-----1--1--1-----1--|
--------------------------|--------------------------|


  E  E  E  E  E  E  E  E     E  E  E  E  E  E  E  E   
--------------------------|--------------------------|
--------6-----------6-----|--------6-----------6-----|
--------------------------|--------------------------|
--5--5-----5--5--5-----5--|--5--5-----5--5--5-----5--|
--3--3-----3--3--3-----3--|--3--3-----3--3--3-----3--|
--------------------------|--------------------------|


  E  E  E  E  E  E  E  E     E  E  E  E  E  E  E  E   
--------1-----------1-----|--------1-----------1-----|
--------------------------|--------------------------|
--------------------------|--------------------------|
--3--3-----3--3--3-----3--|--3--3-----3--3--3-----3--|
--1--1-----1--1--1-----1--|--1--1-----1--1--1-----1--|
--------------------------|--------------------------|


  E  E  E  E  E  E  E  E     E  E  E  E  E  E  E  E   
--------1-----------1-----|--------------------------|
--------------------------|--------6-----------6-----|
--------------------------|--------------------------|
--3--3-----3--3--3-----3--|--5--5-----5--5--5-----5--|
--1--1-----1--1--1-----1--|--3--3-----3--3--3-----3--|
--------------------------|--------------------------|


  E  E  E  E  E  E  E  E      E   E   E   E   E   E   E   E   
--------------------------|----------------------------------|
--------6-----------6-----|----------------------------------|
--------------------------|----------10--------------10------|
--7--7-----7--7--7-----7--|--10--10------10--10--10------10--|
--5--5-----5--5--5-----5--|---8---8-------8---8---8-------8--|
--------------------------|----------------------------------|


  E  E  E  E  E  E  E  E     E  E  E  E  E  E  E  E   
--------1-----------1-----|--------------------------|
--------------------------|--------6-----------6-----|
--------------------------|--------------------------|
--3--3-----3--3--3-----3--|--5--5-----5--5--5-----5--|
--1--1-----1--1--1-----1--|--3--3-----3--3--3-----3--|
--------------------------|--------------------------|


  E  E  E  E  E  E  E  E      E   E   E   E   E   E   E   E   
--------------------------|----------------------------------|
--------6-----------6-----|----------------------------------|
--------------------------|----------10--------------10------|
--7--7-----7--7--7-----7--|--10--10------10--10--10------10--|
--5--5-----5--5--5-----5--|---8---8-------8---8---8-------8--|
--------------------------|----------------------------------|


  W                   E  E  E  E  E  E  E  E     W                 
-------------------|--------------------------|-------------------|
-------------------|--------------------------|-------------------|
-------------------|--------------------------|-------------------|
--0----------------|--8--8--8--8--8--8--8--8--|--0----------------|
--0----------------|--8--8--8--8--8--8--8--8--|--0----------------|
--0----------------|--8--8--8--8--8--8--8--8--|--0----------------|


  E  E  E  E  E  E  E  E     W                   E  E  E  E  E  E  E  E   
--------------------------|-------------------|--------------------------|
--------------------------|-------------------|--------------------------|
--------------------------|-------------------|--------------------------|
--8--8--8--8--8--8--8--8--|--0----------------|--8--8--8--8--8--8--8--8--|
--8--8--8--8--8--8--8--8--|--0----------------|--8--8--8--8--8--8--8--8--|
--8--8--8--8--8--8--8--8--|--0----------------|--8--8--8--8--8--8--8--8--|


  W                 E  E  E  E  E  E  E  E     E  E  E  E  S S S S S S S S  
-----------------|--------------------------|------------------------------|
-----------------|--------------------------|------------------------------|
-----------------|--------------------------|------------------------------|
--0--------------|--8--8--8--8--8--8--8--8--|--8--8--8--8------x-x-x-x-x-x-|
--0--------------|--8--8--8--8--8--8--8--8--|--8--8--8--8------x-x-x-x-x-x-|
--0--------------|--8--8--8--8--8--8--8--8--|--8--8--8--8------x-x-x-x-x-x-|


  E  E  E  E  E  E  E  E     E  E  E  E  E  E  E  E   
--------1-----------1-----|--------------------------|
--------------------------|--------6-----------6-----|
--------------------------|--------------------------|
--3--3-----3--3--3-----3--|--5--5-----5--5--5-----5--|
--1--1-----1--1--1-----1--|--3--3-----3--3--3-----3--|
--------------------------|--------------------------|


  E  E  E  E  E  E  E  E      E   E   E   E   E   E   E   E   
--------------------------|----------------------------------|
--------6-----------6-----|----------------------------------|
--------------------------|----------10--------------10------|
--7--7-----7--7--7-----7--|--10--10------10--10--10------10--|
--5--5-----5--5--5-----5--|---8---8-------8---8---8-------8--|
--------------------------|----------------------------------|


  E  E  E  E  E  E  E  E     E  E  E  E  E  E  E  E   
--------1-----------1-----|--------------------------|
--------------------------|--------6-----------6-----|
--------------------------|--------------------------|
--3--3-----3--3--3-----3--|--5--5-----5--5--5-----5--|
--1--1-----1--1--1-----1--|--3--3-----3--3--3-----3--|
--------------------------|--------------------------|


  E  E  E  E  E  E  E  E      E   E   E   E   E   E   E   E   
--------------------------|----------------------------------|
--------6-----------6-----|----------------------------------|
--------------------------|----------10--------------10------|
--7--7-----7--7--7-----7--|--10--10------10--10--10------10--|
--5--5-----5--5--5-----5--|---8---8-------8---8---8-------8--|
--------------------------|----------------------------------|


  E  E  E  E  E  E  E  E     E  E  E  E  E  E  E  E   
--------1-----------1-----|--------------------------|
--------------------------|--------6-----------6-----|
--------------------------|--------------------------|
--3--3-----3--3--3-----3--|--5--5-----5--5--5-----5--|
--1--1-----1--1--1-----1--|--3--3-----3--3--3-----3--|
--------------------------|--------------------------|


  E  E  E  E  E  E  E  E      E   E   E   E   E   E   E   E   
--------------------------|----------------------------------|
--------6-----------6-----|----------------------------------|
--------------------------|----------10--------------10------|
--7--7-----7--7--7-----7--|--10--10------10--10--10------10--|
--5--5-----5--5--5-----5--|---8---8-------8---8---8-------8--|
--------------------------|----------------------------------|


  E  E  E  E  E  E  E  E     E  E  E  E  E  E  E  E   
--------1-----------1-----|--------------------------|
--------------------------|--------6-----------6-----|
--------------------------|--------------------------|
--3--3-----3--3--3-----3--|--5--5-----5--5--5-----5--|
--1--1-----1--1--1-----1--|--3--3-----3--3--3-----3--|
--------------------------|--------------------------|


  E  E  E  E  E  E  E  E      E   E   E   E   E   E   E   E   
--------------------------|----------------------------------|
--------6-----------6-----|----------------------------------|
--------------------------|----------10--------------10------|
--7--7-----7--7--7-----7--|--10--10------10--10--10------10--|
--5--5-----5--5--5-----5--|---8---8-------8---8---8-------8--|
--------------------------|----------------------------------|


  W                   W                   W                 
-------------------|-------------------|-------------------|
-------------------|-------------------|-------------------|
--3----------------|--5----------------|--7----------------|
--3----------------|--5----------------|--7----------------|
--1----------------|--3----------------|--5----------------|
-------------------|-------------------|-------------------|


   W                   W                   W                 
--------------------|-------------------|-------------------|
--------------------|-------------------|-------------------|
--10----------------|--3----------------|--5----------------|
--10----------------|--3----------------|--5----------------|
---8----------------|--1----------------|--3----------------|
--------------------|-------------------|-------------------|


  W                    W                   W                 
-------------------|--------------------|-------------------|
-------------------|--------------------|-------------------|
--7----------------|--10----------------|--3----------------|
--7----------------|--10----------------|--3----------------|
--5----------------|---8----------------|--1----------------|
-------------------|--------------------|-------------------|


  W                   W                    W                 
-------------------|-------------------|--------------------|
-------------------|-------------------|--------------------|
--5----------------|--7----------------|--10----------------|
--5----------------|--7----------------|--10----------------|
--3----------------|--5----------------|---8----------------|
-------------------|-------------------|--------------------|


  W                   W                   W                 
-------------------|-------------------|-------------------|
-------------------|-------------------|-------------------|
--3----------------|--5----------------|--7----------------|
--3----------------|--5----------------|--7----------------|
--1----------------|--3----------------|--5----------------|
-------------------|-------------------|-------------------|


   W                   W                   W                 
--------------------|-------------------|-------------------|
--------------------|-------------------|-------------------|
--10----------------|--3----------------|--5----------------|
--10----------------|--3----------------|--5----------------|
---8----------------|--1----------------|--3----------------|
--------------------|-------------------|-------------------|



 W                   W                                                      
-------------------|--------------------||
-------------------|--------------------||
--7----------------|--10----------------||
--7----------------|--10----------------||
--5----------------|---8----------------||
-------------------|--------------------||






Guitar 2:


  E  E  E  E  E  E  E  E     Q       E  E  E  E  E  E  E  E     Q     
-----5--5--5--5--------0--|--1----|-----5--5--5--5--------0--|--1----|
--------------------------|-------|--------------------------|-------|
--------------------------|-------|--------------------------|-------|
--------------------------|-------|--------------------------|-------|
--------------------------|-------|--------------------------|-------|
--------------------------|-------|--------------------------|-------|


  E  E  E  E  E  E  E  E     E  E  E  E  E  E  E  E   
--------------------------|--------------------------|
--------6-----------6-----|--------6-----------6-----|
--------------------------|--------------------------|
--5--5-----5--5--5-----5--|--5--5-----5--5--5-----5--|
--3--3-----3--3--3-----3--|--3--3-----3--3--3-----3--|
--------------------------|--------------------------|


  E  E  E  E  E  E  E  E     E  E  E  E  E  E  E  E   
--------1-----------1-----|--------1-----------1-----|
--------------------------|--------------------------|
--------------------------|--------------------------|
--3--3-----3--3--3-----3--|--3--3-----3--3--3-----3--|
--1--1-----1--1--1-----1--|--1--1-----1--1--1-----1--|
--------------------------|--------------------------|


  E  E  E  E  E  E  E  E     E  E  E  E  E  E  E  E   
--------------------------|--------------------------|
--------6-----------6-----|--------6-----------6-----|
--------------------------|--------------------------|
--5--5-----5--5--5-----5--|--5--5-----5--5--5-----5--|
--3--3-----3--3--3-----3--|--3--3-----3--3--3-----3--|
--------------------------|--------------------------|


  E  E  E  E  E  E  E  E     E  E  E  E  E  E  E  E     Q    Q    Q    Q     
--------1-----------1-----|--------1-----------1-----|---------------------|
--------------------------|--------------------------|---------------------|
--------------------------|--------------------------|--3----3----3----3---|
--3--3-----3--3--3-----3--|--3--3-----3--3--3-----3--|--3----3----3----3---|
--1--1-----1--1--1-----1--|--1--1-----1--1--1-----1--|--1----1----1----1---|
--------------------------|--------------------------|---------------------|


  Q    Q    Q    Q       Q    Q    Q    Q        Q     Q     Q     Q     
----------------------|----------------------|--------------------------|
----------------------|----------------------|--------------------------|
--5----5----5----5----|--7----7----7----7----|--10----10----10----10----|
--5----5----5----5----|--7----7----7----7----|--10----10----10----10----|
--3----3----3----3----|--5----5----5----5----|---8-----8-----8-----8----|
----------------------|----------------------|--------------------------|


  E  E  E  E  E  E  E  E     Q       E  E  E  E  E  E  E  E     Q     
-----5--5--5--5--------0--|--1----|-----5--5--5--5--------0--|--1----|
--------------------------|-------|--------------------------|-------|
--------------------------|-------|--------------------------|-------|
--------------------------|-------|--------------------------|-------|
--------------------------|-------|--------------------------|-------|
--------------------------|-------|--------------------------|-------|


  E  E  E  E  E  E  E  E     Q       E  E  E  E  E  E  E  E     Q     
-----5--5--5--5--------0--|--1----|-----5--5--5--5--------0--|--1----|
--------------------------|-------|--------------------------|-------|
--------------------------|-------|--------------------------|-------|
--------------------------|-------|--------------------------|-------|
--------------------------|-------|--------------------------|-------|
--------------------------|-------|--------------------------|-------|


  E  E  E  E  E  E  E  E     Q       E  E  E  E  E  E  E  E   
-----5--5--5--5--------0--|--1----|--------------------------|
--------------------------|-------|--------6-----------6-----|
--------------------------|-------|--------------------------|
--------------------------|-------|--5--5-----5--5--5-----5--|
--------------------------|-------|--3--3-----3--3--3-----3--|
--------------------------|-------|--------------------------|


  E  E  E  E  E  E  E  E     E  E  E  E  E  E  E  E   
--------------------------|--------1-----------1-----|
--------6-----------6-----|--------------------------|
--------------------------|--------------------------|
--5--5-----5--5--5-----5--|--3--3-----3--3--3-----3--|
--3--3-----3--3--3-----3--|--1--1-----1--1--1-----1--|
--------------------------|--------------------------|


  E  E  E  E  E  E  E  E     E  E  E  E  E  E  E  E   
--------1-----------1-----|--------------------------|
--------------------------|--------6-----------6-----|
--------------------------|--------------------------|
--3--3-----3--3--3-----3--|--5--5-----5--5--5-----5--|
--1--1-----1--1--1-----1--|--3--3-----3--3--3-----3--|
--------------------------|--------------------------|


  E  E  E  E  E  E  E  E     E  E  E  E  E  E  E  E   
--------------------------|--------1-----------1-----|
--------6-----------6-----|--------------------------|
--------------------------|--------------------------|
--5--5-----5--5--5-----5--|--3--3-----3--3--3-----3--|
--3--3-----3--3--3-----3--|--1--1-----1--1--1-----1--|
--------------------------|--------------------------|


  E  E  E  E  E  E  E  E     Q    Q    Q    Q       Q    Q    Q    Q     
--------1-----------1-----|----------------------|----------------------|
--------------------------|----------------------|----------------------|
--------------------------|--3----3----3----3----|--5----5----5----5----|
--3--3-----3--3--3-----3--|--3----3----3----3----|--5----5----5----5----|
--1--1-----1--1--1-----1--|--1----1----1----1----|--3----3----3----3----|
--------------------------|----------------------|----------------------|


  Q    Q    Q    Q        Q     Q     Q     Q       Q    Q    Q    Q     
----------------------|--------------------------|----------------------|
----------------------|--------------------------|----------------------|
--7----7----7----7----|--10----10----10----10----|--3----3----3----3----|
--7----7----7----7----|--10----10----10----10----|--3----3----3----3----|
--5----5----5----5----|---8-----8-----8-----8----|--1----1----1----1----|
----------------------|--------------------------|----------------------|


  Q    Q    Q    Q       Q    Q    Q    Q        Q     Q     Q     Q     
----------------------|----------------------|--------------------------|
----------------------|----------------------|--------------------------|
--5----5----5----5----|--7----7----7----7----|--10----10----10----10----|
--5----5----5----5----|--7----7----7----7----|--10----10----10----10----|
--3----3----3----3----|--5----5----5----5----|---8-----8-----8-----8----|
----------------------|----------------------|--------------------------|


  W                   E  E  E  E  E  E  E  E     W                 
-------------------|--------------------------|-------------------|
-------------------|--------------------------|-------------------|
-------------------|--------------------------|-------------------|
--0----------------|--8--8--8--8--8--8--8--8--|--0----------------|
--0----------------|--8--8--8--8--8--8--8--8--|--0----------------|
--0----------------|--8--8--8--8--8--8--8--8--|--0----------------|


  E  E  E  E  E  E  E  E     W                   E  E  E  E  E  E  E  E   
--------------------------|-------------------|--------------------------|
--------------------------|-------------------|--------------------------|
--------------------------|-------------------|--------------------------|
--8--8--8--8--8--8--8--8--|--0----------------|--8--8--8--8--8--8--8--8--|
--8--8--8--8--8--8--8--8--|--0----------------|--8--8--8--8--8--8--8--8--|
--8--8--8--8--8--8--8--8--|--0----------------|--8--8--8--8--8--8--8--8--|


  W                   E  E  E  E  E  E  E  E     E  E  E  E  E  E  E  E   
-------------------|--------------------------|--------------------------|
-------------------|--------------------------|--------------------------|
-------------------|--------------------------|--------------------------|
--0----------------|--8--8--8--8--8--8--8--8--|--8--8--8--8--8--8--8--8--|
--0----------------|--8--8--8--8--8--8--8--8--|--8--8--8--8--8--8--8--8--|
--0----------------|--8--8--8--8--8--8--8--8--|--8--8--8--8--8--8--8--8--|


  E  E  E  E  E  E  E  E     E  E  E  E  E  E  E  E   
--------------------------|--------------------------|
--------------------------|--------------------------|
--3--3--3--3--3--3--3--3--|--5--5--5--5--5--5--5--5--|
--3--3--3--3--3--3--3--3--|--5--5--5--5--5--5--5--5--|
--1--1--1--1--1--1--1--1--|--3--3--3--3--3--3--3--3--|
--------------------------|--------------------------|


  E  E  E  E  E  E  E  E      E   E   E   E   E   E   E   E   
--------------------------|----------------------------------|
--------------------------|----------------------------------|
--7--7--7--7--7--7--7--7--|--10--10--10--10--10--10--10--10--|
--7--7--7--7--7--7--7--7--|--10--10--10--10--10--10--10--10--|
--5--5--5--5--5--5--5--5--|---8---8---8---8---8---8---8---8--|
--------------------------|----------------------------------|


  E  E  E  E  E  E  E  E     E  E  E  E  E  E  E  E   
--------------------------|--------------------------|
--------------------------|--------------------------|
--3--3--3--3--3--3--3--3--|--5--5--5--5--5--5--5--5--|
--3--3--3--3--3--3--3--3--|--5--5--5--5--5--5--5--5--|
--1--1--1--1--1--1--1--1--|--3--3--3--3--3--3--3--3--|
--------------------------|--------------------------|


  E  E  E  E  E  E  E  E      E   E   E   E   E   E   E   E   
--------------------------|----------------------------------|
--------------------------|----------------------------------|
--7--7--7--7--7--7--7--7--|--10--10--10--10--10--10--10--10--|
--7--7--7--7--7--7--7--7--|--10--10--10--10--10--10--10--10--|
--5--5--5--5--5--5--5--5--|---8---8---8---8---8---8---8---8--|
--------------------------|----------------------------------|


  E  E  E  E  E  E  E  E     E  E  E  E  E  E  E  E   
--------------------------|--------------------------|
--------------------------|--------------------------|
--3--3--3--3--3--3--3--3--|--5--5--5--5--5--5--5--5--|
--3--3--3--3--3--3--3--3--|--5--5--5--5--5--5--5--5--|
--1--1--1--1--1--1--1--1--|--3--3--3--3--3--3--3--3--|
--------------------------|--------------------------|


  E  E  E  E  E  E  E  E      E   E   E   E   E   E   E   E   
--------------------------|----------------------------------|
--------------------------|----------------------------------|
--7--7--7--7--7--7--7--7--|--10--10--10--10--10--10--10--10--|
--7--7--7--7--7--7--7--7--|--10--10--10--10--10--10--10--10--|
--5--5--5--5--5--5--5--5--|---8---8---8---8---8---8---8---8--|
--------------------------|----------------------------------|


  E  E  E  E  E  E  E  E     E  E  E  E  E  E  E  E   
--------------------------|--------------------------|
--------------------------|--------------------------|
--3--3--3--3--3--3--3--3--|--5--5--5--5--5--5--5--5--|
--3--3--3--3--3--3--3--3--|--5--5--5--5--5--5--5--5--|
--1--1--1--1--1--1--1--1--|--3--3--3--3--3--3--3--3--|
--------------------------|--------------------------|


  E  E  E  E  E  E  E  E      E   E   E   E   E   E   E   E   
--------------------------|----------------------------------|
--------------------------|----------------------------------|
--7--7--7--7--7--7--7--7--|--10--10--10--10--10--10--10--10--|
--7--7--7--7--7--7--7--7--|--10--10--10--10--10--10--10--10--|
--5--5--5--5--5--5--5--5--|---8---8---8---8---8---8---8---8--|
--------------------------|----------------------------------|


  Q    Q    Q    Q       Q    Q    Q    Q       Q    Q    Q    Q     
--1----1----1----1----|--3----3----3----3----|--5----5----5----5----|
--3----3----3----3----|--5----5----5----5----|--6----6----6----6----|
----------------------|----------------------|----------------------|
----------------------|----------------------|----------------------|
----------------------|----------------------|----------------------|
----------------------|----------------------|----------------------|


   Q     Q     Q     Q       Q    Q    Q    Q       Q    Q    Q    Q     
---8-----8-----8-----8----|--1----1----1----1----|--3----3----3----3----|
--10----10----10----10----|--3----3----3----3----|--5----5----5----5----|
--------------------------|----------------------|----------------------|
--------------------------|----------------------|----------------------|
--------------------------|----------------------|----------------------|
--------------------------|----------------------|----------------------|


  Q    Q    Q    Q        Q     Q     Q     Q       Q    Q    Q    Q     
--5----5----5----5----|---8-----8-----8-----8----|--1----1----1----1----|
--6----6----6----6----|--10----10----10----10----|--3----3----3----3----|
----------------------|--------------------------|----------------------|
----------------------|--------------------------|----------------------|
----------------------|--------------------------|----------------------|
----------------------|--------------------------|----------------------|


  Q    Q    Q    Q       Q    Q    Q    Q        Q     Q     Q     Q     
--3----3----3----3----|--5----5----5----5----|---8-----8-----8-----8----|
--5----5----5----5----|--6----6----6----6----|--10----10----10----10----|
----------------------|----------------------|--------------------------|
----------------------|----------------------|--------------------------|
----------------------|----------------------|--------------------------|
----------------------|----------------------|--------------------------|


  Q    Q    Q    Q       Q    Q    Q    Q       Q    Q    Q    Q     
--1----1----1----1----|--3----3----3----3----|--5----5----5----5----|
--3----3----3----3----|--5----5----5----5----|--6----6----6----6----|
----------------------|----------------------|----------------------|
----------------------|----------------------|----------------------|
----------------------|----------------------|----------------------|
----------------------|----------------------|----------------------|


   Q     Q     Q     Q       Q    Q    Q    Q       Q    Q    Q    Q     
---8-----8-----8-----8----|--1----1----1----1----|--3----3----3----3----|
--10----10----10----10----|--3----3----3----3----|--5----5----5----5----|
--------------------------|----------------------|----------------------|
--------------------------|----------------------|----------------------|
--------------------------|----------------------|----------------------|
--------------------------|----------------------|----------------------|


  Q    Q    Q    Q        Q     Q     Q     Q       Q    Q    Q    Q     
--5----5----5----5----|---8-----8-----8-----8----|--1----1----1----1----|
--6----6----6----6----|--10----10----10----10----|--3----3----3----3----|
----------------------|--------------------------|----------------------|
----------------------|--------------------------|----------------------|
----------------------|--------------------------|----------------------|
----------------------|--------------------------|----------------------|


  Q    Q    Q    Q               
--3----3----3----3----|
--5----5----5----5----|
----------------------|
----------------------|
----------------------|
----------------------|




Guitar 3: Piano


     Q.     Q.     Q       E  H.           E     Q.     Q.     Q     
E||--1------3------5----|--L--1---------------|---------3------5----|
B||--3------5------6----|--L--3---------------|---------5------6----|
G||---------------------|---------------------|---------------------|
D||---------------------|---------------------|---------------------|
A||---------------------|---------------------|---------------------|
E||---------------------|---------------------|---------------------|


  E  H.           E     Q.     Q.     Q       E  H.           E   
--L--1---------------|--1------3------5----|--L--1---------------|
--L--3---------------|--3------5------6----|--L--3---------------|
---------------------|---------------------|---------------------|
---------------------|---------------------|---------------------|
---------------------|---------------------|---------------------|
---------------------|---------------------|---------------------|


  Q.     Q.     Q       E  H.           E     Q.     Q.     Q     
---------3------5----|--L--1---------------|---------3------5----|
---------5------6----|--L--3---------------|---------5------6----|
---------------------|---------------------|---------------------|
---------------------|---------------------|---------------------|
---------------------|---------------------|---------------------|
---------------------|---------------------|---------------------|


  E  H.           E     Q.     Q.     Q       E  H.           E   
--L--1---------------|---------3------5----|--L--1---------------|
--L--3---------------|---------5------6----|--L--3---------------|
---------------------|---------------------|---------------------|
---------------------|---------------------|---------------------|
---------------------|---------------------|---------------------|
---------------------|---------------------|---------------------|


  Q    H        Q       Q    H        Q       Q    H        Q     
-------5--------5----|--L----5--------5----|--L----5--------5----|
-------6--------6----|--L----6--------6----|--L----6--------6----|
---------------------|---------------------|---------------------|
---------------------|---------------------|---------------------|
---------------------|---------------------|---------------------|
---------------------|---------------------|---------------------|


  Q    H        Q       Q    H        Q       Q    H        Q     
--L----5--------5----|--L----5--------5----|--L----5--------5----|
--L----6--------6----|--L----6--------6----|--L----6--------6----|
---------------------|---------------------|---------------------|
---------------------|---------------------|---------------------|
---------------------|---------------------|---------------------|
---------------------|---------------------|---------------------|


  Q    H        Q       Q    H        Q       H.           E  E   
--L----5--------5----|--L----5--------5----|--1---------------1--|
--L----6--------6----|--L----6--------6----|--3---------------3--|
---------------------|---------------------|---------------------|
---------------------|---------------------|---------------------|
---------------------|---------------------|---------------------|
---------------------|---------------------|---------------------|


  H.           E  E     H.           E  E     H.           E  E   
--3---------------3--|--5---------------5--|---------------------|
--5---------------5--|--6---------------6--|---------------------|
---------------------|---------------------|--5---------------5--|
---------------------|---------------------|--3---------------3--|
---------------------|---------------------|---------------------|
---------------------|---------------------|---------------------|


  Q.     Q.     Q       E  H.           E     Q.     Q.     Q     
--1------3------5----|--L--1---------------|--1------3------5----|
--3------5------6----|--L--3---------------|--3------5------6----|
---------------------|---------------------|---------------------|
---------------------|---------------------|---------------------|
---------------------|---------------------|---------------------|
---------------------|---------------------|---------------------|


  E  H.           E     Q.     Q.     Q       E  H.           E   
--L--1---------------|---------3------5----|--L--1---------------|
--L--3---------------|---------5------6----|--L--3---------------|
---------------------|---------------------|---------------------|
---------------------|---------------------|---------------------|
---------------------|---------------------|---------------------|
---------------------|---------------------|---------------------|


  Q.     Q.     Q       E  H.           E     Q.     Q.     Q     
---------3------5----|--L--1---------------|---------3------5----|
---------5------6----|--L--3---------------|---------5------6----|
---------------------|---------------------|---------------------|
---------------------|---------------------|---------------------|
---------------------|---------------------|---------------------|
---------------------|---------------------|---------------------|


  E  H.           E     Q    H        Q       Q    H        Q     
--L--1---------------|-------5--------5----|--L----5--------5----|
--L--3---------------|-------6--------6----|--L----6--------6----|
---------------------|---------------------|---------------------|
---------------------|---------------------|---------------------|
---------------------|---------------------|---------------------|
---------------------|---------------------|---------------------|


  Q    H        Q       Q    H        Q       Q    H        Q     
--L----5--------5----|--L----5--------5----|--L----5--------5----|
--L----6--------6----|--L----6--------6----|--L----6--------6----|
---------------------|---------------------|---------------------|
---------------------|---------------------|---------------------|
---------------------|---------------------|---------------------|
---------------------|---------------------|---------------------|


  Q    H        Q       Q    H        Q       Q    H        Q     
--L----5--------5----|--L----5--------5----|--L----5--------5----|
--L----6--------6----|--L----6--------6----|--L----6--------6----|
---------------------|---------------------|---------------------|
---------------------|---------------------|---------------------|
---------------------|---------------------|---------------------|
---------------------|---------------------|---------------------|


  H.           E  E     H.           E  E     H.           E  E   
--1---------------1--|--3---------------3--|--5---------------5--|
--3---------------3--|--5---------------5--|--6---------------6--|
---------------------|---------------------|---------------------|
---------------------|---------------------|---------------------|
---------------------|---------------------|---------------------|
---------------------|---------------------|---------------------|


  H.           E  E     H.           E  E     H.           E  E   
---------------------|--1---------------1--|--3---------------3--|
---------------------|--3---------------3--|--5---------------5--|
--5---------------5--|---------------------|---------------------|
--3---------------3--|---------------------|---------------------|
---------------------|---------------------|---------------------|
---------------------|---------------------|---------------------|


  H.           E  E     H.           E  E     H.           E  E   
--5---------------5--|---------------------|---------------------|
--6---------------6--|---------------------|---------------------|
---------------------|--5---------------5--|---------------------|
---------------------|--3---------------3--|---------------------|
---------------------|---------------------|---------------------|
---------------------|---------------------|---------------------|


  H.           E  E     H.           E  E     H.           E  E   
---------------------|---------------------|---------------------|
---------------------|---------------------|---------------------|
---------------------|---------------------|---------------------|
---------------------|---------------------|---------------------|
---------------------|---------------------|---------------------|
---------------------|---------------------|---------------------|


  H.           E  E     H.           E  E     H.           E  E   
---------------------|---------------------|---------------------|
---------------------|---------------------|---------------------|
---------------------|---------------------|---------------------|
---------------------|---------------------|---------------------|
---------------------|---------------------|---------------------|
---------------------|---------------------|---------------------|


  H.           E  E     H.           E  E     H.           E  E   
---------------------|---------------------|--1---------------1--|
---------------------|---------------------|--3---------------3--|
---------------------|---------------------|---------------------|
---------------------|---------------------|---------------------|
---------------------|---------------------|---------------------|
---------------------|---------------------|---------------------|


  H.           E  E     H.           E  E     H.           E  E   
--3---------------3--|--5---------------5--|---------------------|
--5---------------5--|--6---------------6--|---------------------|
---------------------|---------------------|--5---------------5--|
---------------------|---------------------|--3---------------3--|
---------------------|---------------------|---------------------|
---------------------|---------------------|---------------------|


  H.           E  E     H.           E  E     H.           E  E   
--1---------------1--|--3---------------3--|--5---------------5--|
--3---------------3--|--5---------------5--|--6---------------6--|
---------------------|---------------------|---------------------|
---------------------|---------------------|---------------------|
---------------------|---------------------|---------------------|
---------------------|---------------------|---------------------|


  H.           E  E     H.           E  E     H.           E  E   
---------------------|--1---------------1--|--3---------------3--|
---------------------|--3---------------3--|--5---------------5--|
--5---------------5--|---------------------|---------------------|
--3---------------3--|---------------------|---------------------|
---------------------|---------------------|---------------------|
---------------------|---------------------|---------------------|


  H.           E  E     H.           E  E     H.           E  E   
--5---------------5--|---------------------|--1---------------1--|
--6---------------6--|---------------------|--3---------------3--|
---------------------|--5---------------5--|---------------------|
---------------------|--3---------------3--|---------------------|
---------------------|---------------------|---------------------|
---------------------|---------------------|---------------------|


  H.           E  E     H.           E  E     H.           E  E   
--3---------------3--|--5---------------5--|---------------------|
--5---------------5--|--6---------------6--|---------------------|
---------------------|---------------------|--5---------------5--|
---------------------|---------------------|--3---------------3--|
---------------------|---------------------|---------------------|
---------------------|---------------------|---------------------|


   E   E   E   E   E   E   E   E      E   E   E   E   E   E   E   E   
------12------13--12------13--12--|------13--12------13--12------13--|
--13------13----------13----------|--13----------13----------13------|
----------------------------------|----------------------------------|
----------------------------------|----------------------------------|
----------------------------------|----------------------------------|
----------------------------------|----------------------------------|


   E   E   E   E   E   E   E   E      E   E   E   E   E   E   E   E   
--12------13--12------13--12------|--13--12------13--12------13--12--|
------13----------13----------13--|----------13----------13----------|
----------------------------------|----------------------------------|
----------------------------------|----------------------------------|
----------------------------------|----------------------------------|
----------------------------------|----------------------------------|


   E   E   E   E   E   E   E   E      E   E   E   E   E   E   E   E   
------12------13--12------13--12--|------13--12------13--12------13--|
--13------13----------13----------|--13----------13----------13------|
----------------------------------|----------------------------------|
----------------------------------|----------------------------------|
----------------------------------|----------------------------------|
----------------------------------|----------------------------------|


   E   E   E   E   E   E   E   E      E   E   E   E   E   E   E   E   
--12------13--12------13--12------|--13--12------13--12------13--12--|
------13----------13----------13--|----------13----------13----------|
----------------------------------|----------------------------------|
----------------------------------|----------------------------------|
----------------------------------|----------------------------------|
----------------------------------|----------------------------------|


   E   E   E   E   E   E   E   E      E   E   E   E   E   E   E   E   
------12------13--12------13--12--|------13--12------13--12------13--|
--13------13----------13----------|--13----------13----------13------|
----------------------------------|----------------------------------|
----------------------------------|----------------------------------|
----------------------------------|----------------------------------|
----------------------------------|----------------------------------|


   E   E   E   E   E   E   E   E      E   E   E   E   E   E   E   E   
--12------13--12------13--12------|--13--12------13--12------13--12--|
------13----------13----------13--|----------13----------13----------|
----------------------------------|----------------------------------|
----------------------------------|----------------------------------|
----------------------------------|----------------------------------|
----------------------------------|----------------------------------|


   E   E   E   E   E   E   E   E      E   E   E   E   E   E   E   E   
------12------13--12------13--12--|------13--12------13--12------13--|
--13------13----------13----------|--13----------13----------13------|
----------------------------------|----------------------------------|
----------------------------------|----------------------------------|
----------------------------------|----------------------------------|
----------------------------------|----------------------------------|


   E   E   E   E   E   E   E   E      E   E   E   E   E   E   E   E   
--12------13--12------13--12------|--13--12------13--12------13--12--|
------13----------13----------13--|----------13----------13----------|
----------------------------------|----------------------------------|
----------------------------------|----------------------------------|
----------------------------------|----------------------------------|
----------------------------------|----------------------------------|


   E   E   E   E   E   E   E   E      E   E   E   E   E   E   E   E   
------12------13--12------13--12--|------13--12------13--12------13--|
--13------13----------13----------|--13----------13----------13------|
----------------------------------|----------------------------------|
----------------------------------|----------------------------------|
----------------------------------|----------------------------------|
----------------------------------|----------------------------------|


   E   E   E   E   E   E   E   E      E   E   E   E   E   E   E   E   
--12------13--12------13--12------|--13--12------13--12------13--12--|
------13----------13----------13--|----------13----------13----------|
----------------------------------|----------------------------------|
----------------------------------|----------------------------------|
----------------------------------|----------------------------------|
----------------------------------|----------------------------------|


   E   E   E   E   E   E   E   E      E   E   E   E   E   E   E   E   
------12------13--12------13--12--|------13--12------13--12------13--|
--13------13----------13----------|--13----------13----------13------|
----------------------------------|----------------------------------|
----------------------------------|----------------------------------|
----------------------------------|----------------------------------|
----------------------------------|----------------------------------|


   E   E   E   E   E   E   E   E      E   E   E   E   E   E   E   E   
--12------13--12------13--12------|--13--12------13--12------13--12--|
------13----------13----------13--|----------13----------13----------|
----------------------------------|----------------------------------|
----------------------------------|----------------------------------|
----------------------------------|----------------------------------|
----------------------------------|----------------------------------|


  H        H                      
--L-----------------|-----------||
--------------------|-----------||
--------------------|-----------||
--------------------|-----------||
--------------------|-----------||
--------------------|-----------||




Duration Legend
---------------
W - whole
H - half
Q - quarter
E - 8th
S - 16th
T - 32nd
X - 64th
. - note dotted
|-n-|  - n-tuplets


Tablature Legend
----------------
L - tied note
x - dead note
g - grace note
(n) - ghost note
> - accentuded note
NH - natural harmonic
AH - artificial harmonic
TH - tapped harmonic
SH - semi harmonic
PH - pitch harmonic
h - hammer on
p - pull off
b - bend
br - bendRelease
pb - preBend
pbr - preBendRelease
brb - bendReleaseBend
\n/ - tremolo bar dip
\n - tremolo bar dive
-/n - tremolo bar Release up
/n\ - tremolo bar inverted dip
/n - tremolo bar return
-\n - tremolo bar Release down
S - shift slide
s - legato slide
/ -  slide into from below or out of upwards
\ -  slide into from above or out of downwards
~ - vibrato
W - wide vibrato
tr - trill
TP - tremolo picking
T - tapping
S - slap
P - pop
< - fade in
^ - brush up
v - brush down
comments
We did not receive enough feedback on this tab! Please rate:
1 2 3 4 5
1 comment total.
0 reply
Techno7 wrote on December 22 2008, 06:45 pm

You have the intro written in the wrong octave...I didn't bother to read the tab further.

I want to post or [tab]
guest
You may want to rate the tab now too:
select rating
Please do not post tabs as comments. Select "correction" instead!