Oops, an error
Loading. Please wait.

I Caught Fire In Your Eyes Bass Tab

by Used
ver3
ver3

Whole song

More versions @911Tabs.com
2,534 views 3 this week
no commentswrite comment
1 2 3 4 5
excellent!
x 4
Autoscroll
+/-
esc
set tempo
stop
Contributor
Difficulty
intermediate
Hey! There's an official Ultimate Guitar app which is ideal
for learning songs when you're away from computer. Get the app
WARNING: You are trying to view
                                    content from Ultimate-Guitar.com
                                    in an unauthorized application,
                                    which is prohibited.

                                    Please use an official Ultimate
                                    Guitar Tabs application for iPhone,
                                    iPad or Android to access legitimate
                                    chords, guitar, bass, and drum tabs
                                    from Ultimate-Guitar.com database.

                                    Type "ultimate guitar tabs" in Apple
                                    App Store's or Android Market's
                                    search to find the application.
I Caught Fire (In Your Eyes)                           
The Used
Bass Guitar


Intro  
G||---------------------------|
D||---------------------------|
A||-4--4--x-x--x-2--2--x-x--x-|
D||---------------------------|
 
G||--------------------------|--------------------------|
D||--------------------------|--------------------------|
A||--------------------------|--2----2----2--2-2-2--2-2-|
D||--2----2----2--2-2-2--2-2-|--------------------------|
 
G||--------------------------|----------------------------|
D||--------------------------|----------------------------|
A||--0----0----0--0-0-0--0-0-|--4--4--x-x--x-2--2--x-x--x-|
D||--------------------------|----------------------------|

Verse 1  
G||------------------------|---------------9----------|---------------------------|
D||------------------------|------------------9--7--6-|--------------------6h-7---|
A||--4--4-----4-4----------|--7--7-------7------------|---------------------------|
D||------------------------|--------------------------|--7--7-----7-7-------------|
 
G||---------------------------|------------------------|--------------------------|
D||--------------------6h-7---|------------------------|--------------------------|
A||---------------------------|--4--4-----4-4----------|--7--7-------7-7--7--7--7-|
D||--7--7-----7-7-------------|------------------------|--------------------------|

G||--------------------------|----------------------------|
D||--------------------------|----------------------------|
A||--------------------------|----------------------------|
D||--7--7-----7-7------7-7---|--7--7-----7-7------7-7S--8-|
  
G||---------------------------------|---------------------------------|
D||---------------------------------|---------------------------------|
A||--4--4-4-4-4-4-4-4-4-4-4-4-4-4-4-|--7--7-7-7-7-7-7-7-7-7-7-7-7-7-7-|
D||---------------------------------|---------------------------------|
 
G||------------------------|------------------------|----------------------|
D||------------------------|------------------------|----------------------|
A||------------------------|------------------------|----------------------|
D||--7--7-----7-7----------|--7--7-----7-7----------|--7------------12\----|
  
Chorua
G||--------------------------|--------------------------|
D||--------------------------|--------------------------|
A||--------------------------|--2----2----2--2-2-2--2-2-|
D||--2----2----2--2-2-2--2-2-|--------------------------|
 
G||--------------------------|----------------------------|
D||--------------------------|----------------------------|
A||--0----0----0--0-0-0--0-0-|--4--4--x-x--x-2--2--x-x--x-|
D||--------------------------|----------------------------|
 
G||--------------------------|--------------------------|
D||--------------------------|--------------------------|
A||--------------------------|--2----2----2--2-2-2--2-2-|
D||--2----2----2--2-2-2--2-2-|--------------------------|
 
G||--------------------------|----------------------------|
D||--------------------------|----------------------------|
A||--0----0----0--0-0-0--0-0-|--4--4--x-x--x-2--2--x-x--x-|
D||--------------------------|----------------------------|
       
G||----------------------------|-------------------|-------------------|
D||----------------------------|-------------------|-------------------|
A||--4--4--x-x--x-2--2--x-x--x-|-------------------|-------------------|
D||----------------------------|-------------------|-------------------|

Verse 2   
G||------------------------|------------------------|------------------------|
D||------------------------|------------------------|------------------------|
A||--4--4-----4-4----------|--7--7-----7-7----------|--0--0-----0-0----------|
D||------------------------|------------------------|------------------------|

G||--------------------------|---------------------------------|
D||--------------------------|---------------------------------|
A||--0--0-----0-0------7\----|--4--4-4-4-4-4-4-4-4-4-4-4-4-4-4-|
D||--------------------------|---------------------------------|
       
G||---------------------------------|------------------------|
D||---------------------------------|------------------------|
A||--7--7-7-7-7-7-7-7-7-7-7-7-7-7-7-|------------------------|
D||---------------------------------|--7--7-----7-7----------|
 
G||------------------------|----------------------|
D||------------------------|----------------------|
A||------------------------|----------------------|
D||--7--7-----7-7----------|--7------------12\----|

Chorus
G||--------------------------|
D||--------------------------|
A||--------------------------|
D||--2----2----2--2-2-2--2-2-|
 
G||--------------------------|--------------------------|
D||--------------------------|--------------------------|
A||--2----2----2--2-2-2--2-2-|--0----0----0--0-0-0--0-0-|
D||--------------------------|--------------------------|

G||----------------------------|--------------------------|
D||----------------------------|--------------------------|
A||--4--4--x-x--x-2--2--x-x--x-|--------------------------|
D||----------------------------|--2----2----2--2-2-2--2-2-|

G||--------------------------|--------------------------|
D||--------------------------|--------------------------|
A||--2----2----2--2-2-2--2-2-|--0----0----0--0-0-0--0-0-|
D||--------------------------|--------------------------|
 
G||----------------------------|----------------------------|
D||----------------------------|----------------------------|
A||--4--4--x-x--x-2--2--x-x--x-|--4--4--x-x--x-2--2--x-x--x-|
D||----------------------------|----------------------------|
 
G||----------------------------|--------------------------|
D||----------------------------|--------------------------|
A||--4--4--x-x--x-2--2--x-x--x-|--4-4-4-4-4---------4--2--|
D||----------------------------|--------------------------|

Bridge
G||--------------------------|
D||--------------------------|
A||--4-4-4-4-4---------4--2--|
D||--------------------------|
 
G||---------------------------|-----------------------------|
D||---------------------------|-----------------------------|
A||--0-0-0-0-0---------0h--2--|-----------------------------|
D||---------------------------|--2--2--2--2-2--2--2-2-2-2-2-|
  
G||-----------------------------|--------------------------|
D||-----------------------------|--------------------------|
A||--2--2--2--2-2--2--2-2-2-2-2-|--4-4-4-4-4---------4--2--|
D||-----------------------------|--------------------------|
   
G||---------------------------|--------------------------------|
D||---------------------------|--------------------------------|
A||--0-0-0-0-0---------0h--2--|--------14--12--10--11--12--10--|
D||---------------------------|--2--2--------------------------|

G||--------------------------------|-------------------|----|
D||--------------------------------|-------------------|----|
A||--2--2--14--12--10--11--12--10--|--0----------------|----|
D||--------------------------------|-------------------|----|

Chorus  
G||--------------------------|--------------------------|
D||--------------------------|--------------------------|
A||--------------------------|--2----2----2--2-2-2--2-2-|
D||--2----2----2--2-2-2--2-2-|--------------------------|
 
G||--------------------------|----------------------------|
D||--------------------------|----------------------------|
A||--0----0----0--0-0-0--0-0-|--4--4--x-x--x-2--2--x-x--x-|
D||--------------------------|----------------------------|
 
G||--------------------------|--------------------------|
D||--------------------------|--------------------------|
A||--------------------------|--2----2----2--2-2-2--2-2-|
D||--2----2----2--2-2-2--2-2-|--------------------------|

G||--------------------------|----------------------------|
D||--------------------------|----------------------------|
A||--0----0----0--0-0-0--0-0-|--4--4--x-x--x-2--2--x-x--x-|
D||--------------------------|----------------------------|
  
G||----------------------------|------------------4-2-1------1--|
D||----------------------------|------------------------2-4-----|
A||--4--4--x-x--x-2--2--x-x--x-|--------------------------------|
D||----------------------------|--2-2-2-2-2-2-2-2---------------|
 
G||------------------2-1--------1--|--------------------------|
D||----------------------4-2-4-----|--------------------------|
A||--2-2-2-2-2-2-2-2---------------|--0----0----0--0-0-0--0-0-|
D||--------------------------------|--------------------------|
  
G||----------------------------|----------------------------------|
D||----------------------------|----------------------------------|
A||--4--4--x-x--x-2--2--x-x--x-|--7-7-7-7-7-7-7-7-7-7-7-7-7-7-7-7-|
D||----------------------------|----------------------------------|

G||-----------------------------------|-----------------------------------|
D||-----------------------------------|-----------------------------------|
A||--6-6-6-6-6-6-6-6-6-6-6-6-6-6-6-6\-|--\4-4-4-4-4-4-4-4-4-4-4-4-4-4-4-4-|
D||-----------------------------------|-----------------------------------|

G||----------------------------|----------------------------|
D||----------------------------|----------------------------|
A||--4--4--x-x--x-2--2--x-x--x-|--4--4--x-x--x-2--2--x-x--x-|
D||----------------------------|----------------------------|

Outro
G||------|------|------|------|------|
D||------|------|------|------|------|
A||------|--2~--|--4~--|--0~--|------|
D||--2~--|------|------|------|--2~--|

comments
print report bad tab
I want to post or [tab]
guest
You may want to rate the tab now too:
select rating
Please do not post tabs as comments. Select "correction" instead!