Oops, an error
Loading. Please wait.

In Love And Death Tab

by Used
5,358 views 9 this week
3 commentsread comments
1 2 3 4 5
worth learning
x 3
add to favorites launch autoscroll
font size
0
reset
Autoscroll
+/-
esc
set tempo
stop
WARNING: You are trying to view
                                    content from Ultimate-Guitar.com
                                    in an unauthorized application,
                                    which is prohibited.

                                    Please use an official Ultimate
                                    Guitar Tabs application for iPhone,
                                    iPad or Android to access legitimate
                                    chords, guitar, bass, and drum tabs
                                    from Ultimate-Guitar.com database.

                                    Type "ultimate guitar tabs" in Apple
                                    App Store's or Android Market's
                                    search to find the application.
Hi everybody,I just put the tabs that I found on the site because when you want all the 
you have it al together and you don't need to go and search them everytime you want ot 
of tunes to play.So here are all the tunes of the album In Love and Death from the Used

1.Take It Away tabbed by slipsoad928


Email:snoutman928@yahoo.com
Tuning:drop d
This is the kick ass song by the used. I cant wait for the new album.
intro
e|-3--3--3--3--3--3--3--3--3------------------------------------------------|
B|-5--5--5--5--5--5--5--5--5------------------------------------------------|
G|-4--4--4--4--4--4--4--4--4------------------------------------------------|
D|-2--0--2--------------0--2------------------------------------------------|
A|-2--0--2--------------0--2------------------------------------------------|
D|-2--0--2--------------0--2------------------------------------------------|

Chorus
e|--------------------------------------------------------------------------|
B|-5------8------10------13-------------------------------------------------|
G|-4------7------9-------12-------------------------------------------------|
D|-2(x3)--5(x4)--7(x3)---10(x4)---------------------------------------------|
A|-2------5------7-------10-------------------------------------------------|
D|-2------5------7-------10-------------------------------------------------|

 First Part of Verse
e|-2-3-0-3-2-3-7-3-2-0-3-0-2-3-7--------------------------------------------|
B|-------------0---------------0--------------------------------------------|
G|--------------------------------------------------------------------------|
D|--------------------------------------------------------------------------|
A|--------------------------------------------------------------------------|
D|--------------------------------------------------------------------------|

Second Part of Verse
e|-5-7-5-7-5-7-3--5-7-3--5-7-14---------------------------------------------|
B|--------------------------------------------------------------------------|
G|--------------------------------------------------------------------------|
D|--------------------------------------------------------------------------|
A|--------------------------------------------------------------------------|
D|--------------------------------------------------------------------------|

Bridge (brothers and sisters are right here with you......)
e|-3------------------------------------------------------------------------|
B|-5------------------------------------------------------------------------|
G|-4------------------------------------------------------------------------|
D|-2(listen to the song to figure out how many times to hit this chord)-----|
A|-2------------------------------------------------------------------------|
D|-2------------------------------------------------------------------------|

Part After Bridge
e|--------------------------------------------------------------------------|
B|--------------------------------------------------------------------------|
G|--------------------------------------------------------------------------|
D|--------------------------------------------------------------------------|
A|---------------0-0-0-3-3-3-3(x5)------------------------------------------|
D|-2-2-2-4-4-4-4------------------------------------------------------------|


2.I Caught Fire tabbed by paulson

-|-9p0-4p0-2h4p0--7p0-4p0-2h4p0-2p0-|-x8-------------------------------------|
-|----------------------------------|----------------------------------------|
-|----------------------------------|----------------------------------------|
-|----------------------------------|----------------------------------------|
-|----------------------------------|----------------------------------------|
-|----------------------------------|----------------------------------------|
    intro ( rightway)
-|-9p0-----------7p0----------------|-x8-------------------------------------|
-|-----9p0-7h9p0-----9p0-7h9p0-7p5--|----------------------------------------|
-|----------------------------------|----------------------------------------|
-|----------------------------------|----------------------------------------|
-|----------------------------------|----------------------------------------|
-|----------------------------------|----------------------------------------|
  or this way (doesnt sound rightthough!)
-|----------------------000000000000000-------------------------------------|
-|-5-5-------4-4--------000000000000000----------------------55555555-------|
-|-6-6-------4-4--------111111111111111--444444444--22222222-66666666-444444|
-|-6-6-66666-4-4-44444--222222222222222--444444444--22222222-66666666-444444|
-|-4-4-44444-2-2-22222--222222222222222--222222222--00000000-44444444-222222|
-|----------------------000000000000000-------------------------------------|
   rhythmguitar
-|-4------9-------7----------4------9-----7----------|-----------------------|
-|-5--------9---------9------5---------9--------9----|-----------------------|
-|-6-------------------------6-----------------------|-----------------------|
-|---------------------------------------------------|-----------------------|
-|---------------------------------------------------|-----------------------|
-|---------------------------------------------------|-----------------------|
   verse
-|-------------------------------------------------------|-------------------|
-|-------------------------------------------------------|-------------------|
-|--6666666666666666--9999999999999999---2-2-----2-2-----|-------------------|
-|---------------------------------------2-2-----2-2-----|-------------------|
-|---------------------------------------0-0-----0-0-----|-------------------|
-|-------------------------------------------------------|-------------------|
   verse cont...palmmuted
-|-5555555555555555---55-55555|----------------------------------------------|
-|------------------5---------|----------------------------------------------|
-|----------------------------|----------------------------------------------|
-|----------------------------|----------------------------------------------|
-|----------------------------|----------------------------------------------|
-|----------------------------|----------------------------------------------|
 pre chorus....with weird ffect (5 is harmonic on 5)
-|-0000000000000----------------------------------------------------|--------|
-|-0000000000000--44444444444444--22222222222222-5555555-4444444----|--------|
-|-1111111111111--44444444444444--22222222222222-6666666-4444444----|--------|
-|-2222222222222--44444444444444--22222222222222-6666666-4444444----|--------|
-|-2222222222222--22222222222222--00000000000000-4444444-2222222----|--------|
-|-0000000000000----------------------------------------------------|--------|
  chorus
-|-9p0-4p0-2h4p0--7p0-4p0-2h4p0-2p0-|-x2-------------------------------------|
-|----------------------------------|----------------------------------------|
-|----------------------------------|----------------------------------------|
-|----------------------------------|----------------------------------------|
-|----------------------------------|----------------------------------------|
-|----------------------------------|----------------------------------------|

--|-9-----9----12----9----9---9---9---9---9----12----12----12----12----------|
--|-9-----9----12----9--9---9---9---9---9---12----12----12----12-------------|
--|-9------------------------------------------------------------------------|
--|--------------------------------------------------------------------------|
--|--------------------------------------------------------------------------|
--|--------------------------------------------------------------------------|
 2nd verse(delay)
-|-----------------------------------------------0000000----------|----------|
-|-----------------------------------------------0000000-2222222--|----------|
-|-1414xx1414x1414xx1414--1414xx1414x1414xx1414--1111111-2222222--|----------|
-|--x-xxx-x-xx-x-xxx-x-x---x-xxx-x-xx-x-xxx-x-x--2222222-2222222--|----------|
-|-1212xx1212x1212xx1212--1212xx1212x1212xx1212--2222222-0000000--|----------|
-|-----------------------------------------------0000000----------|----------|

-|-------------------------------------------------00000000-----------|------|
-|-------------------------------------------------00000000-22222222--|------|
-|6666666666666666-9999999999999999----------------11111111-22222222--|------|
-|6666666666666666-9999999999999999--22-22-22-22-4-22222222-22222222--|------|
-|4444444444444444-7777777777777777--00-00-00-00-2-22222222-00000000--|------|
-|-------------------------------------------------00000000-----------|------|
   2nd guitar (comes in o 'trust these words'(palm muting
-|----------------------------00000000000000000000000000--|x2----------------|
-|-55555----------------------00000000000000000000000000--|------------------|
-|-66666--x--4---22222--x--4--11111111111444444444444444--|------------------|
-|-66666--x--4---22222--x--4--22222222222444444444444444--|------------------|
-|-44444--x--2---00000--x--2--22222222222222222222222222--|------------------|
-|----------------------------00000000000-----------------|------------------|
 middlesection
-|-4444444444444444--5555555555555555--00000000000000000000000000--|---------|
-|-5555555555555555--5555555555555555--00000000000000000000000000--|---------|
-|-------------------------------------11111111111144444444444444--|---------|
-|-------------------------------------22222222222244444444444444--|---------|
-|-------------------------------------22222222222222222222222222--|---------|
-|-------------------------------------000000000000----------------|---------|
   guitar 2 secondtime
-|---------------------|-12p0-7p0-5h7p0-7p0-4p0-2h4p0--|---------------------|
-|---------------------|-------------------------------|---------------------|
-|---------------------|-------------------------------|---------------------|
-|-4444444444444444----|-------------------------------|---------------------|
-|-4444444444444444----|-------------------------------|---------------------|
-|-2222222222222222----|-------------------------------|---------------------|
   little break rhythm   lead                                chorus toend

3.Let It Bleed tabbed by alexakos

Tuning:DADGBE(drop-d)

Intro

guitar 1
e|-------------------------------------------------------------------------|
B|--8-------88---88-------88---88----------88---88-------------------------|
G|--8-------88---88-------88---88----------88---88-------------------------|
D|-----66------------88-------------1010------------1010-------------------|
A|----(P.M)---------(P.M)-----------(P.M)-----------(P.M)------------------|
D|-------------------------------------------------------------------------|

guitar 2(instead of bass)plays that part after g1 has played intro twice
e|-----------------------------------------------------------------------|
B|-----------------------------------------------------------------------|
G|-----------------------------------------------------------------------|
D|-----------------------------------------------------------------------|
A|------6--8--10---------------------------------------------------------|
D|--10-------------------------------------------------------------------|

Verse

guitar 2(plays that,while guitar 1 keeps playing the intro part)
e|-------------------------------------------------------------------------|
B|-------------------------------------------------------------------------|
G|-------------------------------------------------------------------------|
D|--6666---88888---10-10-10-10-10-10-10-10---------------------------------|
A|--6666---88888---10-10-10-10-10-10-10-10---------------------------------|
D|--6666---88888---10-10-10-10-10-10-10-10---------------------------------|


Pre-chorus(actually it's the last piece of the verse,play that part after
you've played the verse part 3 times)

e|-------------------------------------------------------------------------|
B|-------------------------------------------------------------------------|
G|-------------------------------------------------------------------------|
D|--6666--8888--33333333---------------------------------------------------|
A|--6666--8888--33333333---------------------------------------------------|
D|--6666--8888--33333333---------------------------------------------------|


Chorus(GAIN)

e|-----------------------------------------------------------------------|
B|-----------------------------------------------------------------------|
G|--888------------------------------------------------------------------|
D|--888--10-10-10---13-13-13---------------------------------------------|
A|--666--8--8--8----10-10-10---------------------------------------------|
D|--666--8--8--8----10-10-10---------------------------------------------|


Bridge

e|-----------------------------------------------------------------------|
B|-----------------------------------------------------------------------|
G|--12---8--10-----------------------------------------------------------|
D|---x---x--x-------10-10-10---------------------------------------------|
A|--10---6--8-------10-10-10---------------------------------------------|
D|------------------10-10-10---------------------------------------------|

(HEAVY GAIN)

e|-------------------------------------------------------------------------|
B|-------------------------------------------------------------------------|
G|-------------------------------------------------------------------------|
D|---------------10--------------------------------------------------------|
A|--10---6---8---10--------------------------------------------------------|
D|--12---8--10---10--------------------------------------------------------|

(THIS SMALL PART SHOULD ONLY BE PLAYED AFTER THE FIRST BRIDGE)

e|--88----------8--88------------------------------------------------------|
B|--88----------8--88------------------------------------------------------|
G|--88----------8--88------------------------------------------------------|
D|------888888-------------------------------------------------------------|
A|------666666-------------------------------------------------------------|
D|-------------------------------------------------------------------------|


End on

e|-------------------------------------------------------------------------|
B|-------------------------------------------------------------------------|
G|-------------------------------------------------------------------------|
D|---10--10--10--/---------------------------------------------------------|
A|---10--10--10--/---------------------------------------------------------|
D|---10--10--10--/---------------------------------------------------------|

INTRO(X2)
VERSE(X3)
PRE-CHORUS
CHORUS
VERSE(X3)
PRE-CHORUS
CHORUS
BRIDGE
VERSE(X3)
CHORUS
BRIDGE
END ON

4.All that I've got tabbed by jordy

Intro:

|---10-----------10------------------------------------|
|-------8-7-8--------8-7-8------5--8-7-8----5--8-7-8---|
|------------------------------------------------------|
|------------------------------------------------------| x2
|------------------------------------------------------|
|------------------------------------------------------|

|--------------------------------------|--------------------------------------|
|--------------------------------------|----------6-6-6-6-4-4-4-4-4-----------|
|----------7-7-7-7-5-5-5-5-7-7-7-7-----|--4-4-4-4-7-7-7-7-5-5-5-5-5-----------|
|--5-5-5-5-7-7-7-7-5-5-5-5-7-7-7-7-----|--5-5-5-5-7-7-7-7-5-5-5-5-5-----------|
|--5-5-5-5-5-5-5-5-3-3-3-3-5-5-5-5-----|--5-5-5-5-5-5-5-5-3-3-3-3-3-----------|
|--3-3-3-3-----------------------------|--3-3-3-3-----------------------------|

Verse 1


|-----3-3~~0----3-3~~0----3-3~~0----3-3~~------|---3-3~~0----3-3~~0---3-3~~0---3-3~~0------------|
|-----3-3~~3----3-3~~3----3-3~~3----3-3~~------|---3-3~~3----3-3~~3---3-3~~3---3-3~~3------------|
|-----0-0~~0----0-0~~0----0-0~~0----0-0~~------|---0-0~~0----0-0~~0---0-0~~0---0-0~~0------------|
|-(5)-2-2~~2----2-2~~2----2-2~~2----2-2~~------|-5-2-2~~2----2-2~~2---2-2~~2---2-2~~2------------|
|-(5)-3-3~~3----3-3~~3----3-3~~3----3-3~~------|-5-3-3~~3----3-3~~3---3-3~~3---3-3~~3------------|
|-(3)------------------------------------------|-3-----------------------------------------------|

|-----3-3~~0----3-3~~0----3-3~~0----3-3~~------|---3-3~~0----3-3~~0---3-3~~0---3-3~~0------------|
|-----3-3~~3----3-3~~3----3-3~~3----3-3~~------|---3-3~~3----3-3~~3---3-3~~3---3-3~~3------------|
|-----0-0~~0----0-0~~0----0-0~~0----0-0~~------|---0-0~~0----0-0~~0---0-0~~0---0-0~~0------------|
|-(5)-2-2~~2----2-2~~2----2-2~~2----2-2~~------|-5-2-2~~2----2-2~~2---2-2~~2---2-2~~2------------|
|-(5)-3-3~~3----3-3~~3----3-3~~3----3-3~~------|-5-3-3~~3----3-3~~3---3-3~~3---3-3~~3------------|
|-(3)------------------------------------------|-3-----------------------------------------------|

Prechorus:

|----------------------------------|
|--8-8-8-8-8-8-8-8-----------------|
|----------------------------------|
|----------------------------------|
|----------------------------------|
|----------------------------------|

Verse 2

|-----3-3-3~~~~---3-3-3~~~~---3-3-3~~~~---3-3-3~~~~--|-----3-3-3~~~~---3-3-3~~~~---3-3-3~~~~---3-3-3~~~~---|
|-----3-3-3~~~~---3-3-3~~~~---3-3-3~~~~---3-3-3~~~~--|-----3-3-3~~~~---3-3-3~~~~---3-3-3~~~~---3-3-3~~~~---|
|-----0-0~~-------0-0~~-------0-0~~-------0-0~~------|-----0-0~~-------0-0~~-------0-0~~-------0-0~~-------|
|-(5)-2-2~~-------2-2~~-------2-2~~-------2-2~~------|-(5)-2-2~~-------2-2~~-------2-2~~-------2-2~~-------|
|-(5)-3-3~~-------3-3~~-------3-3~~-------3-3~~------|-(5)-3-3~~-------3-3~~-------3-3~~-------3-3~~-------|
|-(3)------------------------------------------------|-(3)-------------------------------------------------|

|-----3-3-3~~~~---3-3-3~~~~---3-3-3~~~~---3-3-3~~~~--|-----3-3-3~~~~---3-3-3~~~~---3-3-3~~~~---3-3-3~~~~---|
|-----3-3-3~~~~---3-3-3~~~~---3-3-3~~~~---3-3-3~~~~--|-----3-3-3~~~~---3-3-3~~~~---3-3-3~~~~---3-3-3~~~~---|
|-----0-0~~-------0-0~~-------0-0~~-------0-0~~------|-----0-0~~-------0-0~~-------0-0~~-------0-0~~-------|
|-(5)-2-2~~-------2-2~~-------2-2~~-------2-2~~------|-(5)-2-2~~-------2-2~~-------2-2~~-------2-2~~-------|
|-(5)-3-3~~-------3-3~~-------3-3~~-------3-3~~------|-(5)-3-3~~-------3-3~~-------3-3~~-------3-3~~-------|
|-(3)------------------------------------------------|-(3)-------------------------------------------------|

Chorus:

|---------------------------------------------------------------------|
|---------------------------------------------------------------------|
|----------7-7-7-7-5-5-5-5-7-7-7-7-9-9-9-9-7-7-7-7-5-5-5-5---(4)------|
|--5-5-5-5-7-7-7-7-5-5-5-5-7-7-7-7-9-9-9-9-7-7-7-7-5-5-5-5---(4)------|
|--5-5-5-5-5-5-5-5-3-3-3-3-5-5-5-5-7-7-7-7-5-5-5-5-3-3-3-3---(2)------|
|--3-3-3-3------------------------------------------------------------|

|---------------------------------------------------------------------|
|---------------------------------------------------------------------|
|----------7-7-7-7-5-5-5-5-7-7-7-7-9-9-9-9-7-7-7-7-5-5-5-5-7--(4)(4)--|
|--5-5-5-5-7-7-7-7-5-5-5-5-7-7-7-7-9-9-9-9-7-7-7-7-5-5-5-5-7--(4)(4)--|
|--5-5-5-5-5-5-5-5-3-3-3-3-5-5-5-5-7-7-7-7-5-5-5-5-3-3-3-3-5--(2)(2)--|
|--3-3-3-3------------------------------------------------------------|

|-----(10)--10---------10---------------------|
|---------------9-8-9-------------------------|
|---------------------------------------------|
|---------------------------------------------|
|---------------------------------------------|
|---------------------------------------------|


Verse:

|-----3-3~~0----3-3~~0----3-3~~0----3-3~~------|---3-3~~0----3-3~~0---3-3~~0---3-3~~0------------|
|-----3-3~~3----3-3~~3----3-3~~3----3-3~~------|---3-3~~3----3-3~~3---3-3~~3---3-3~~3------------|
|-----0-0~~0----0-0~~0----0-0~~0----0-0~~------|---0-0~~0----0-0~~0---0-0~~0---0-0~~0------------|
|-(5)-2-2~~2----2-2~~2----2-2~~2----2-2~~------|-5-2-2~~2----2-2~~2---2-2~~2---2-2~~2------------|
|-(5)-3-3~~3----3-3~~3----3-3~~3----3-3~~------|-5-3-3~~3----3-3~~3---3-3~~3---3-3~~3------------|
|-(3)------------------------------------------|-3-----------------------------------------------|


|--x--x------x--x------x--x------x--x-----|--x--x------x--x------x--x------x--x--------------------|
|--11-11-----11-11-----11-11-----11-11----|--11-11-----11-11-----11-11-----11-11-------------------|
|--12-12-----12-12-----12-12-----12-12----|--12-12-----12-12-----12-12-----12-12-------------------|
|--12-12-----12-12-----12-12-----12-12----|--12-12-----12-12-----12-12-----12-12-------------------|
|--10-10-x-x-10-10-x-x-10-10-x-x-10-10x-x-|--10-10-x-x-10-10-x-x-10-10-x-x-10-10-------------------|
|--10-10-x-x-10-10-x-x-10-10-x-x-10-10x-x-|--10-10-x-x-10-10-x-x-10-10-x-x-10-10-------------------|


Chorus:

|---------------------------------------------------------------------|
|---------------------------------------------------------------------|
|----------7-7-7-7-5-5-5-5-7-7-7-7-9-9-9-9-7-7-7-7-5-5-5-5---(4)------|
|--5-5-5-5-7-7-7-7-5-5-5-5-7-7-7-7-9-9-9-9-7-7-7-7-5-5-5-5---(4)------|
|--5-5-5-5-5-5-5-5-3-3-3-3-5-5-5-5-7-7-7-7-5-5-5-5-3-3-3-3---(2)------|
|--3-3-3-3------------------------------------------------------------|

|---------------------------------------------------------------------|
|---------------------------------------------------------------------|
|----------7-7-7-7-5-5-5-5-7-7-7-7-9-9-9-9-7-7-7-7-5-5-5-5-7--(4)(4)--|
|--5-5-5-5-7-7-7-7-5-5-5-5-7-7-7-7-9-9-9-9-7-7-7-7-5-5-5-5-7--(4)(4)--|
|--5-5-5-5-5-5-5-5-3-3-3-3-5-5-5-5-7-7-7-7-5-5-5-5-3-3-3-3-5--(2)(2)--|
|--3-3-3-3------------------------------------------------------------|

Bridge:

|---------------------------------------------||---10----------10----------------------------|
|---8p9h8p9h8p9h8p9h8p9h8p9h8p9h8p9h8p9h8/6/4-||-------8-7-8-------8-7-8---------------------|
|---------------------------------------------||---------------------------------------------|
|---------------------------------------------||---------------------------------------------|
|---------------------------------------------||---------------------------------------------|
|---------------------------------------------||---------------------------------------------|

Verse/Chorus:

|-----3-3~~0----3-3~~0----3-3~~0----3-3~~------|-----------------------------------------------------|
|-----3-3~~3----3-3~~3----3-3~~3----3-3~~------|-----------------------------------------------------|
|-----0-0~~0----0-0~~0----0-0~~0----0-0~~------|---12-12-12-12-12-12-12-12-12-12-12-12---------------|
|-(5)-2-2~~2----2-2~~2----2-2~~2----2-2~~------|---12-12-12-12-12-12-12-12-12-12-12-12---------------|
|-(5)-3-3~~3----3-3~~3----3-3~~3----3-3~~------|---10-10-10-10-10-10-10-10-10-10-10-10---------------|
|-(3)------------------------------------------|-----------------------------------------------------|

|--------------------------------------------------------------------------------------------|
|--------------------------------------------------------------------------------------------|
|-9-9-9-9-7-7-7-7-5-5-5-5---------7-7-7-7-5-5-5-5-7-7-7-7-9-9-9-9-7-7-7-7-5-5-5-5---(4)------|
|-9-9-9-9-7-7-7-7-5-5-5-5-5-5-5-5-7-7-7-7-5-5-5-5-7-7-7-7-9-9-9-9-7-7-7-7-5-5-5-5---(4)------|
|-7-7-7-7-5-5-5-5-3-3-3-3-5-5-5-5-5-5-5-5-3-3-3-3-5-5-5-5-7-7-7-7-5-5-5-5-3-3-3-3---(2)------|
|-------------------------3-3-3-3------------------------------------------------------------|

Outro:

|-10-----------------10---10------------10-----------------|---------------------------|
|----x-8-7-8-5-8-7-8----8----8--5-8-7-8----8-7-8-7-8-7-8---|---------------------------|
|----------------------------------------------------------|---------------------------|
|----------------------------------------------------------|---------------------------|
|----------------------------------------------------------|---------------------------|
|----------------------------------------------------------|---------------------------|

5.Cut Up Angels tabbed by zman919191

Tuning: Capo on 2nd Fret and Drop D

Intro
e|-0---0------------|     |------------------|
B|----------0---0---|     |-6---6----0---0---|
G|---5---5----5---5-|     |---5---5----5---5-|
D|------------------|3x   |------------------| 1x
A|------------------|     |------------------|
D|------------------|     |------------------|

Verse
e|--------------------------------|
B|------------------------6-6-8---|
G|-5--5-4-2--2------------------5-|
D|-5--5-5-2--2-0-2--2-2-5---------| 4x
A|-3--3-2-0--0-0-2--2-2-5---------|
D|-------------0-2--2-2-5---------|

PreChorus
e|-------------|
B|-------------|
G|-------------|
D|-6--6--6--6--| 1x
A|-6--6--6--6--|
D|-6--6--6--6--|

Chorus Part 1
e|-------------------------------------|
B|-33333333-33333333-33333333----------|
G|-22222222-22222222-44444444-77777777-|
D|-00000000-22222222-44444444-55557777-| 1x
A|-00000000-00000000-22222222-55557777-|
D|-00000000-------------------55557777-|

Repeat Verse
Repeat Prechorus
Repeat Chorus

Chorus Part 2
e|-----------------------------------------------------|
B|-33333333-33333333-33333333--------------------------|
G|-22222222-22222222-33333333-7777777-7777777-777777777|
D|-00000000-22222222-33333333-5555555-5555555-555555555| 1x
A|-00000000-00000000-11111111-5555555-5555555-555555555|
D|-00000000-------------------5555555-5555555-555555555|

Bridge
Guitar One
e|--------------------------------------|     |------------------|
B|--55555555----------11111111----------|     |-3333333333333333-|
G|--55555555-44444444-22222222-55555555-|     |-3333333333333333-|
D|--55555555-22222222-22222222-33333333-|2x   |-3333333333333333-|
A|--33333333-22222222-00000000-33333333-|     |-1111111111111111-|
D|-----------22222222----------33333333-|     |------------------|

    Guitar Two plays Intro during             e|8-8-8-8-8-8-8-8-8|
        first part of Bridge,                 B|-6-6-6-6-6-6-6-6-|
                 then plays this ------->     G|-----------------|
                                              D|-----------------|
                                              A|-----------------|
                                              D|-----------------|

Repeat Verse, but only play it 2x instead of four times
Repeat Chorus Part 1
Repeat Chorus Part 2, but dont play the last part of it
Repeat Chorus Part 1
Repeat Chorus Part 2

Outro
e|-------------------|    e|-------------------|
B|-33333333-33333333-|    B|-33333333----------|
G|-44444444-33333333-|    G|-44444444-77777777-|
D|-44444444-33333333-|3x  D|-44444444-55555555-|1x
A|-22222222-11111111-|    A|-22222222-55555555-|
D|-------------------|    D|----------55555555-|

End
e|---|
B|-3-|
G|-2-|
D|-0-|1x
A|-0-|
D|-0-|

6.Listening tabbed by Stumaster18


Tuning: Drop D Tuning (D A D G B e)

Intro Part 1: Plays through once, then goes to Intro Part 2

e|-000-000-000-000-00000-0-00000-0-00000-----------------------------------|
B|-888-666-555-666-55555-3-55555-3-55555-----------------------------------|
G|-------------------------------------------------------------------------|
D|-------------------------------------------------------------------------|
A|-------------------------------------------------------------------------|
D|-------------------------------------------------------------------------|

Intro Part 2: Plays through four times

e|-000-000-000-000-0000----------------------------------------------------|
B|-888-666-555-666-5555----------------------------------------------------|
G|-------------------------------------------------------------------------|
D|-------------------------------------------------------------------------|
A|-------------------------------------------------------------------------|
D|-------------------------------------------------------------------------|

Intro Part 2 is also the second half of the first verse (you again play it four times),
then it leads into the chorus...

Chorus: I'm pretty sure this is how many times he plays each chord (play through two times)

e|-------------------------------------------------------------------------|
B|-------------------------------------------------------------------------|
G|-------------------------------------------------------------------------|
D|-77-777-77-77--33-333--00-00---------------------------------------------|
A|-77-777-77-77--33-333--00-00---------------------------------------------|
D|-77-777-77-77--33-333--00-00---------------------------------------------|

There is absolutely no guitar through the entire second verse. After the second verse
is all screaming), you start the chorus again, and play through it four times instead of
times

And through the interlude, there is no guitar again (to my knowledge), and then it gets
the chorus again. Play the chorus four times.

Then after that chorus, it leads into guitar with heavy distortion playing this...

e|-------------------------------------------------------------------------|
B|-------------------------------------------------------------------------|
G|-------------------------------------------------------------------------|
D|---77777-77777--33333-33333----------------------------------------------|
A|---77777-77777--33333-33333----------------------------------------------|
D|---77777-77777--33333-33333----------------------------------------------|

Then that leads into the outro..

Outro:

e|--------------------------------|-----------------------------------------|
B|--Plays through-twice-----------|------------Finish with this-------------|
G|--------------------------------|-----------------------------------------|
D|-77-777-77-77--33-333--00-00----|-----7--7~-------------------------------|
A|-77-777-77-77--33-333--00-00----|-----7--7~-------------------------------|
D|-77-777-77-77--33-333--00-00----|-----7--7~-------------------------------|

And there you go! pretty easy song to play, but the song rock anyways.

7.Yesterday's Feeling tabbed by:Megan Divyak
Tuning: Standard


Intro:
	B		D	       A	         G
e|----10-10-10-10-12-14-12-12-12-12-14-10-9-9-9-9-9-9--7-7-7-5-5---|
B|-----------------------------------------------------------------|
G|-----------------------------------------------------------------|
D|-----------------------------------------------------------------|
A|-----------------------------------------------------------------|
E|-----------------------------------------------------------------|
	B		D		A	G
e|--10-10-10-10-12-14-12-12-12-12-14-10-9-9-9-9-9-9--7-7-7-14-10-14-5--|
B|---------------------------------------------------------------------|
G|---------------------------------------------------------------------|
D|---------------------------------------------------------------------|
A|---------------------------------------------------------------------|
E|---------------------------------------------------------------------|


Verse:

Bm	    D
Free from the torment of sin
A	G
All this I'm giving up
	B	D	   A
Much as the sun would decide to give in
	  G
Explode into orange
	       Bm	      D	     A
And hear all the voices sing praise with hymns
	G
Mark the birth of a change
Bm	    D	  A
Free from the torment of sin
	G	G
All this I'm giving up

E-10-10-10-10-10-10-12-12-12-12-12-12----12-17----12-17----12-17----12-17--|
B-------------------------------------14-------14--------14-------14-------|
G--------------------------------------------------------------------------|
D--------------------------------------------------------------------------|
A--------------------------------------------------------------------------|
E--------------------------------------------------------------------------|

Repeat 2x


Chorus:
D	F#
It's not me
G
Buried wreckage my soul
D     F#	G
It's not me so who am I now

Bm	A	G
Over and over again
	A
Light with a sharpened edge
Bm	A		G
Cut through the black empty space we call sky
	A
Beginning the cycle that stays
Bm	A		G
And I know in my heart we all die
	A
Like the day and the night
Bm		A	G
Like the sun in the sky
G
All this I'm giving up

Chorus:

D    F#
It's not me
G
Buried wreckage my soul
D    F#	G
It's not me so who am I now?

Bridge:

Bm	Bflat
Is there another side?
D
Beyond the black and the white
Bm	Bflat
Place I could meet you by
D
A place on the other side
Bm	Bflat	D
I'll let you know when I go
D	D
When I'm gone

Interlude:

Bm	D	A	G
Bm	D	A	G

D	F#
It's not me
G
Buried wreckage my soul
D	F#	G
It's not me so who am I now?

9.Sounds and overdramatics tabbed by stumaster18


Tuning: Drop D (
Intro:                                         _
e|----------------------------------------------- |    \
B|-------7-7-------7-7-------7-7-------7-7-|   -- |
G|-------7-7-------7-7-------7-7-------7-7-|   -- |
D|-4-4-4-----4-4-4-----4-4-4-----4-4-4-----|   -- |
A|-4-4-4-----4-4-4-----4-4-4-----4-4-4-----|   -- |
D|-4-4-4-----4-4-4-----4-4-4-----4-4-4----------- |    \
                                                /
e|-----------------------------------------|   -- |
B|-------7-7-------7-7-------7-7-------7-7-|   -- |
G|-------7-7-------7-7-------7-7-------7-7-|   -- |
D|-0-0-0-----0-0-0-----0-0-0-----0-0-0-----|   -- |
A|-0-0-0-----0-0-0-----0-0-0-----0-0-0-----|   -- |
D|-0-0-0-----0-0-0-----0-0-0-----0-0-0----------- |   _/

Verse: Played softly with light distortion
e|-------------------------------------------------------------|
B|-------------------------------------------------------------|
G|-------------------------------------------------------------|
D|-------------------------------------------------------------|
A|---------------------------0---------0---------2---------2---|
D|-4-4-4-4-4-4-4-4-4-4-2-2-2---2-2-2-2---2-0-0-0---0-0-0-0---0-|...

   ---------------------|
   ---------------------|
   ---------------------|
   ---------------------|
   ---------------------|
...-2-2-2-2-2-6-6-6-6-6-|

Pre-Chorus: Also played softly with light distortion
e|-------------------------------------------------------------------------|
B|-------------------------------------------------------------------------|
G|-------------------------------------------------------------------------|
D|-------------------------------------------------------------------------|
A|-------------------------------------------------------------------------|
D|-4-4-4-4-4-4-4-4-4-4-6-6-6-6-6-6-6-6-6-6-7-7-7-7-7-7-7-7-7-7-6-6-6-6-6-6~|

Chorus:                                        _
e|----------------------------------------------- |    \
B|-------7-7-------7-7-------7-7-------7-7-|   -- |
G|-------7-7-------7-7-------7-7-------7-7-|   -- |
D|-4-4-4-----4-4-4-----4-4-4-----4-4-4-----|   -- |
A|-4-4-4-----4-4-4-----4-4-4-----4-4-4-----|   -- |
D|-4-4-4-----4-4-4-----4-4-4-----4-4-4----------- |    \
                                                /
e|-----------------------------------------|   -- |
B|-------7-7-------7-7-------7-7-------7-7-|   -- |
G|-------7-7-------7-7-------7-7-------7-7-|   -- |
D|-0-0-0-----0-0-0-----0-0-0-----0-0-0-----|   -- |
A|-0-0-0-----0-0-0-----0-0-0-----0-0-0-----|   -- |
D|-0-0-0-----0-0-0-----0-0-0-----0-0-0----------- |   _/

Interlude: ALL PALM MUTED!                                           _
e|--------------------------------------------------------------------- |  \
B|-----------------------------------------------------------------| -- |
G|-----------------------------------------------------------------| -- |
D|-----------------------------------------------------------------| -- |
A|-------5-5-5-------5-5-5-----5-5-------4-4-4-------4-4-4-----4-4-| -- |
D|-4-4-4-------4-4-4-------4-4-----2-2-2-------2-2-2-------2-2--------- |  \
                                                                      /
e|-----------------------------------------------------------------| -- |
B|-----------------------------------------------------------------| -- |
G|-----------------------------------------------------------------| -- |
D|-----------------------------------------------------------------| -- |
A|-------2-2-2-------2-2-2-----2-2-------4-4-4-------4-4-4-----4-4-| -- |
D|-0-0-0-------0-0-0-------0-0-----2-2-2-------2-2-2-------2-2--------- | _/

Solo/Interlude 2
e|-------------------------------------------------------------------------- |
B|-19-19-19-19-19-19-17-17-17-17-17-17-16-16-16-16-16-16-14-14-14-14-14-14-- |
G|-------------------------------------------------------------------------- |
D|-------------------------------------------------------------------------- |
A|-------------------------------------------------------------------------- |
D|-------------------------------------------------------------------------- |

e|-----------------------------------------------------------------------|
B|-17-17-17-17-17-17-19-19-19-19-19-19-17-17-17-17-17-17-16-16-16-16-16~-|
G|-----------------------------------------------------------------------|
D|-----------------------------------------------------------------------|
A|-----------------------------------------------------------------------|
D|-----------------------------------------------------------------------|

Weird Chorus:                                  _
e|----------------------------------------------- |    \
B|-------------------------------------7-7-|   -- |
G|-------------------------------------7-7-|   -- |
D|-4-4-4-----4-4-4-----4-4-4-----4-4-4-----|   -- |
A|-4-4-4-----4-4-4-----4-4-4-----4-4-4-----|   -- |
D|-4-4-4-----4-4-4-----4-4-4-----4-4-4----------- |    \
                                                /
e|-----------------------------------------|   -- |
B|-------7-7-------7-7-------7-7-------7-7-|   -- |
G|-------7-7-------7-7-------7-7-------7-7-|   -- |
D|-0-0-0-----0-0-0-----0-0-0-----0-0-0-----|   -- |
A|-0-0-0-----0-0-0-----0-0-0-----0-0-0-----|   -- |
D|-0-0-0-----0-0-0-----0-0-0-----0-0-0----------- |   _/

Outro:
e|----------------------------------|
B|----------------------------------|
G|----------------------------------|
D|-6-6-6-x-x-6-6-6-x-x-6-6-6-x-x-6~-|
A|-6-6-6-x-x-6-6-6-x-x-6-6-6-x-x-6~-|
D|-6-6-6-x-x-6-6-6-x-x-6-6-6-x-x-6~-|


ORDER OF PARTS FOR SONG
Intro x1
Verse x1
Pre-Chorus x1
Chorus x1
Verse x1
Pre-Chorus x1
Chorus x2
Interlude x2
Solo/Interlude 2 x1
Chorus (played a bit slower) x1
Bass Interlude (no guitaring)
Weird Chorus x1
Chorus x1
Outro x1

10.Hard to say tabbed by erickd

intro:

e|-----5-----.-----5-----|
B|--------5--.--------5--|
G|--7--------.--7--------|
D|-----------.-----------|
A|-----------.-----------|
E|-----------.-----------|

verse:

    D		     Bm 		      A
The singer finished singing and she's walking out
    D		    Bm			A
The singer sheds a tear fear of falling out
	 G		   A
and it's hard to say how I feel today
    Bm    Bm/A G            A
for years gone by and I cry...


chorus:

D			D/C#    Bm
  It's hard to say that I was wrong
It's hard to say I miss you
F#m		     G			    D
  since you've been gone it's not the same


repeat verse:

My worries weigh the world how I used to be
and everything in cold seems a plague in me
and it's hard to say how I feel today
For years gone by and I cry...

repeat chorus:

It's hard to say that I was wrong
It's hard to say I miss you
Since you've been gone it's not the same
It's hard to say I held my tongue
It's hard to say if only
since you've been gone it's not the same

middle:

Em		     Bm		C
   The worst that I fear is the lie you told a thousand times a before
Em 		     Bm    	C
   The worst that I fear is the night
	 G		   A
And it's hard to say how I feel today
    Bm         G            A
for years gone by and I cry...


repeat chorus:

It's hard to say that I was wrong.
It's hard to say I miss you
Since you've been gone it's not the same
It's hard to say I held my tongue
It's hard to say if only
Since you've been gone I'm not the same
[God it's hard to say]

11.Lunacy Fringe tabbed by the_shame

Tuning - Eb Ab Db Gb Bb Eb
Intro Part 1

Eb:--------------------:            Eb:---------0-------:
Bb:-----0-0-0-0--------:            Bb:-----3-------3---:
Gb:-2-2------------2-2-:            Gb:---2---2-------2-:    x4
Db:-2-2------------2-2-:    x2      Db:-0---------------:
Ab:-0-0-3-2---2po0-0-0-:            Ab:-----------------:
Eb:---------3----------:            Eb:-----------------:


Verse Part 1

"Wake Up, My Love..."

Eb:-0-0-0-0-0-0-0-0-0-0-0-0-:
Bb:-1-1-1-1-1-1-0-0-0-0-0-0-:
Gb:-2-2-2-2-2-2-0-0-0-0-0-0-:      x4
Db:-2-2-2-2-2-2-2-2-2-2-2-2-:
Ab:-0-0-0-0-0-0-3-3-3-3-3-3-:
Eb:-------------------------:


Verse Part 2

"Will your Love Keep Buring..."

Eb:-0-0-0-0-0-0-0-0-0-0-0-0-0-0-0-0-0-0-0-0-0-0-0-0-(0)-:
Bb:-1-1-1-1-1-1-3-3-3-3-3-3-3-3-3-3-3-3-6-6-6-6-6-6-(6)-:
Gb:-2-2-2-2-2-2-0-0-0-0-0-0-2-2-2-2-2-2-5-5-5-5-5-5-(5)-:
Db:-2-2-2-2-2-2-0-0-0-0-0-0-0-0-0-0-0-0-x-x-x-x-x-x-(x)-: x2  ()=2nd Time
Ab:-0-0-0-0-0-0-2-2-2-2-2-2-------------8-8-8-8-8-8-(8)-:        Let Ring
Eb:-------------3-3-3-3-3-3-----------------------------:


Chorus

"I'm So Far Gone..."

Eb:-----0-----------0---------0-0-0-0-0-0-:
Bb:-------3--3--------3---0---6-6-6-6-6-6-:
Gb:--------0-------0----0-----5-5-5-5-5-5-:
Db:---------------------------x-x-x-x-x-x-:    Let the Note Ring
Ab:-3-3--------3/5----------5/8-8-8-8-8-8-:
Eb:---------------------------------------:


Verse 2
Same as Verse 1 but ends with

"But I'm Not Sure..."

Eb:-0-0-0-0-0-0--0--0--0--0--0--0-:
Bb:-5-5-5-5-5-5--8--8--8--8--8--8-:
Gb:-6-6-6-6-6-6--7--7--7--7--7--7-:
Db:-x-x-x-x-x-x-x-x-x-x-x-x-x-x-x-:
Ab:-8-8-8-8-8-8-10-10-10-10-10-10-:
Eb:-------------------------------:

Back to Chorus


Bridge

"Do You Wanna Take Me On...."

Eb:-0-0-0-0-0-0-0-0-0-0-0-0-0-0-0-0-0-0-0-0-0-0-0-:
Bb:-1-1-1-1-1-1-1-1-1-1-1-6-6-6-6-6-6-6-6-6-6-6-6-:
Gb:-2-2-2-2-2-2-2-2-2-2-2-5-5-5-5-5-5-5-5-5-5-5-5-:   x4
Db:-2-2-2-2-2-2-2-2-2-2-2-x-x-x-x-x-x-x-x-x-x-x-x-:
Ab:-0-0-0-0-0-0-0-0-0-0-0-8-8-8-8-8-8-8-8-8-8-8-8-:
Eb:-----------------------------------------------:


Back to Verse

12.I'm a fake tabbed by kiefermatot


Intro - Bert talking

Then main riff comes in about 30 seconds into the intro
E|------------------------------------------------------------------| X2
B|------------------------------------------------------------------|
G|--99999999--1212121212121212--5555555555555555--------------------|
D|--99999999--1212121212121212--5555555555555555--------------------|
A|--77777777--1010101010101010--3333333333333333--------------------|
E|------------------------------------------------------------------|


E|---15-------------------------------------------------------------| X2
B|------13--12--15--13--12-12--12--13--12--12-12--------------------|
G|------------------------------------------------------------------|
D|------------------------------------------------------------------|
A|------------------------------------------------------------------|
E|------------------------------------------------------------------|
   Then main riff keeps going with this on top^^^


Verse 1
E|------------------------------------------------------------------| X2
B|------------------------------------------------------------------|
G|--99999999--1212121212121212--5555555555555555--------------------|
D|--99999999--1212121212121212--5555555555555555--------------------|
A|--77777777--1010101010101010--3333333333333333--------------------|
E|------------------------------------------------------------------|
P.M.............................................

Then twice, not palm muted^^

Pre-Chorus
E|------------------------------------------------------------------|
B|--12-12-12-12-12-12-12-12-13-13-13-13-13-13-13-13-----------------|
G|--12-12-12-12-12-12-12-12-12-12-12-12-12-12-12-12-----------------|
D|------------------------------------------------------------------|
A|------------------------------------------------------------------|
E|------------------------------------------------------------------|

Chorus
E|------------------------------------------------------------------| X2
B|------------------------------------------------------------------|
G|--99999999--1212121212121212--5555555555555555--------------------|
D|--99999999--1212121212121212--5555555555555555--------------------|
A|--77777777--1010101010101010--3333333333333333--------------------|
E|------------------------------------------------------------------|

Bridge- Similar to the Intro, a few different notes.

Verse 2
E|------------------------------------------------------------------|X2
B|------------------------------------------------------------------|
G|--99999999--1212121212121212--5555555555555555--------------------|
D|--99999999--1212121212121212--5555555555555555--------------------|
A|--77777777--1010101010101010--3333333333333333--------------------|
E|------------------------------------------------------------------|
P.M. three notes, then play one open, in that order

Verse 2- Part 2
E|------------------------------------------------------------------| X2
B|------------------------------------------------------------------|
G|--99-0-999-0--1212-0-121212-0--55-0-555-0-555-0-555-0-------------|
D|--99-0-999-0--1212-0-121212-0--55-0-555-0-555-0-555-0-------------|
A|--77-0-777-0--1010-0-101010-0--33-0-333-0-333-0-333-0-------------|
E|------------------------------------------------------------------|

Pre-Chorus
Chorus

Interlude-1-Heavy Bass in the background, But still the main riff with a few changes
E|------------------------------------------------------------------| X2
B|------------------------------------------------------------------|
G|--9-9-9-9--12-12-12-12--5-5-5-5--5-5-5-5--------------------------|
D|--9-9-9-9--12-12-12-12--5-5-5-5--5-5-5-5--------------------------|
A|--7-7-7-7--10-10-10-10--3-3-3-3--3-3-3-3--------------------------|
E|------------------------------------------------------------------|

Interlude-2
E|--12--10--8-------------------------------------------------------|X6
B|------------------------------------------------------------------|
G|------------------------------------------------------------------|
D|------------------------------------------------------------------|
A|------------------------------------------------------------------|
E|------------------------------------------------------------------|

Interlude-2 continued...

E|------------------------------------------------------------------|X2
B|------------------------------------------------------------------|
G|--99999999--1212121212121212--5555555555555555--------------------|
D|--99999999--1212121212121212--5555555555555555--------------------|
A|--77777777--1010101010101010--3333333333333333--------------------|
E|------------------------------------------------------------------|
P.M.............................................

Chorus
Interlude-1

Ending Riff
E|------------------0----------------------------------------------|
B|------------------0----------------------------------------------|
G|9999--9999--9999--0--9999--5---5---5---5-------------------------|
D|9999--9999--9999-----9999--5---5---5---5-------------------------|
A|7777--7777--7777-----7777--3---3---3---3-------------------------|
E|-----------------------------------------------------------------|


| .  palm mute note
| /  slide up
| \  slide down
| h  hammer-on
| p  pull-off
| ~  vibrato
| +  harmonic
| x  Mute note
=============================================================================
 That's all!I hope that it will use for you!
comments
We did not receive enough feedback on this tab! Please rate:
print report bad tab
1 2 3 4 5
3 comments total.
0 reply
Vin2254 wrote on July 19 2006, 02:08 am

I dont think Sound effeects and Overdramatics is right.

0 reply
f1f2 wrote on August 2 2006, 06:32 am

this is a crap, Yesterday's feelings should be titled Light With A Sharpened Edge, and it's better if you make a tab on your own, not taking tab from others, even with permission. this makes you bigger, you know? i rated it 4 stars...

0 reply
LoisJackman wrote on August 25 2013, 09:43 am

Where's Yesterday's Feelings? And why is the tab for Light With A Sharpened Edge in it's place?

I want to post or [tab]
guest
You may want to rate the tab now too:
select rating
Please do not post tabs as comments. Select "correction" instead!