Oops, an error
Loading. Please wait.

Let It Bleed Bass Tab

by Used
ver2
ver2

Whole song

Interactive

More versions @911Tabs.com
586 views 1 this week
no commentswrite comment
1 2 3 4 5
please rate
Autoscroll
+/-
esc
set tempo
stop
Contributor
Difficulty
intermediate
Hey! There's an official Ultimate Guitar app which is ideal
for learning songs when you're away from computer. Get the app
WARNING: You are trying to view
                                    content from Ultimate-Guitar.com
                                    in an unauthorized application,
                                    which is prohibited.

                                    Please use an official Ultimate
                                    Guitar Tabs application for iPhone,
                                    iPad or Android to access legitimate
                                    chords, guitar, bass, and drum tabs
                                    from Ultimate-Guitar.com database.

                                    Type "ultimate guitar tabs" in Apple
                                    App Store's or Android Market's
                                    search to find the application.
Let It Bleed                                   
The Used
Bass

Intro
G||-----|
D||-----|
A||-----|
D||-----|

Verse 1  
G||--------------------------|--------------------------|
D||--------------------------|--------------------------|
A||--------------------------|-----1--1-----1-----1--1--|
D||-----6--6-----6-----6--6--|--------------------------|
  
G||--------------------------|--------------------------|
D||--------------1--0--------|--------------1--0--------|
A||-----3--3-----------3-----|-----3-----3--------1-----|
D||--------------------------|-----------------------6--|

G||--------------------------|--------------------------|
D||--------------------------|--------------------------|
A||--------------------------|-----1--1-----1-----1--1--|
D||-----6--6-----6-----6--6--|--------------------------|

G||--------------3-----------|--------------------------|
D||-----------------0--------|--------------1--0--------|
A||-----3--3-----------3-----|-----3-----3--------3-----|
D||--------------------------|-----------------------6--|

G||--------------------------|--------------------------|
D||--------------------------|--------------------------|
A||--------------------------|-----1--1-----1-----1--1--|
D||-----6--6-----6-----6--6--|--------------------------|
 
G||--------------------------|--------------------------|
D||--------------1--0--------|--------------1--0--------|
A||-----3--3-----------3-----|-----3-----3--------1-----|
D||--------------------------|-----------------------6--|
 
G||--------------------------|--------------------------|
D||--------------------------|--------------------------|
A||--------------------------|-----1--1-----1-----1--1--|
D||-----6--6-----6-----6--6--|--------------------------|
 
G||--------------------------|--------------------------|
D||--3--3--3--1--1--1--------|--------------1-----------|
A||--------------------4--4--|--4--3--3--3-----4--3-----|
D||--------------------------|--------------------------|

Chorus  
G||--------------------------|--------------------------|
D||--------------------------|--------------------------|
A||--------------------------|--------------------------|
D||--6--6-----6--6--6-----6--|--8--8-----8--8--8-----8--|
  
G||---------------------------------|---------------------------------|
D||---------------------------------|---------------------------------|
A||---------------------------------|---------------------------------|
D||--10--10------10--10--10-----10--|--10--10------10--10--10-----10--|

G||--------------------------|--------------------------|
D||--------------------------|--------------------------|
A||--------------------------|--------------------------|
D||--6--6-----6--6--6-----6--|--8--8-----8--8--8-----8--|
  
G||---------------------------------|---------------------------------|
D||---------------------------------|---------------------------------|
A||---------------------------------|---------------------------------|
D||--10--10------10--10--10-----10--|--10--10------10--10--10-----10--|
  
G||------|-----|
D||------|-----|
A||------|-----|
D||--6~--|--8--|

Verse 2
G||--------------------------|--------------------------|
D||--------------------------|--------------------------|
A||--------------------------|-----1--1-----1-----1--1--|
D||-----6--6-----6-----6--6--|--------------------------|
  
G||--------------------------|--------------------------|
D||--------------1--0--------|--------------1--0--------|
A||-----3--3-----------3-----|-----3-----3--------1-----|
D||--------------------------|-----------------------6--|

G||--------------------------|--------------------------|
D||--------------------------|--------------------------|
A||--------------------------|-----1--1-----1-----1--1--|
D||-----6--6-----6-----6--6--|--------------------------|

G||--------------3-----------|--------------------------|
D||-----------------0--------|--------------1--0--------|
A||-----3--3-----------3-----|-----3-----3--------3-----|
D||--------------------------|-----------------------6--|

G||--------------------------|--------------------------|
D||--------------------------|--------------------------|
A||--------------------------|-----1--1-----1-----1--1--|
D||-----6--6-----6-----6--6--|--------------------------|
 
G||--------------------------|--------------------------|
D||--------------1--0--------|--------------1--0--------|
A||-----3--3-----------3-----|-----3-----3--------1-----|
D||--------------------------|-----------------------6--|
 
G||--------------------------|--------------------------|
D||--------------------------|--------------------------|
A||--------------------------|-----1--1-----1-----1--1--|
D||-----6--6-----6-----6--6--|--------------------------|
 
G||--------------------------|--------------------------|
D||--3--3--3--1--1--1--------|--------------1-----------|
A||--------------------4--4--|--4--3--3--3-----4--3-----|
D||--------------------------|--------------------------|

Chorus  
G||--------------------------|--------------------------|
D||--------------------------|--------------------------|
A||--------------------------|--------------------------|
D||--6--6-----6--6--6-----6--|--8--8-----8--8--8-----8--|
  
G||---------------------------------|---------------------------------|
D||---------------------------------|---------------------------------|
A||---------------------------------|---------------------------------|
D||--10--10------10--10--10-----10--|--10--10------10--10--10-----10--|

G||--------------------------|--------------------------|
D||--------------------------|--------------------------|
A||--------------------------|--------------------------|
D||--6--6-----6--6--6-----6--|--8--8-----8--8--8-----8--|
  
G||---------------------------------|---------------------------------|
D||---------------------------------|---------------------------------|
A||---------------------------------|---------------------------------|
D||--10--10------10--10--10-----10--|--10--10------10--10--10-----10--|
  
G||------|-----|
D||------|-----|
A||------|-----|
D||--6~--|--8--|

Bridge 
G||-------|----|--------------------------|
D||-------|----|--------------------------|
A||-------|----|--3-----3-----3-----3-----|
D||--10~--|----|--------------------------|
  
G||--------------------------|--------------------------|
D||--------------------------|--------------------------|
A||--3-----3-----3-----3-----|--3-----3-----3-----3-----|
D||--------------------------|--------------------------|
  
G||--------------------------|--------------------------|
D||--------------------------|--------------------------|
A||--3-----3-----3-----3-----|--3--3--3--3--3--3--3--3--|
D||--------------------------|--------------------------|
  
G||--------------------------|--------------------------|
D||--------------------------|--------------------------|
A||--3--3--3--3--3--3--3--3--|--3--3--3--3--3--3--3--3--|
D||--------------------------|--------------------------|
 
G||--------------------------|--------------------------|
D||--------------------------|--------------------------|
A||--3--3--3--3--3-----------|--------------------------|
D||--------------------------|--5--5--5--1--1--1--3--3--|
 
G||--------------------------|--------------------------|
D||--------------------------|--------------------------|
A||--------------------------|--------------------------|
D||--3-----------------------|--5--5--5--1--1--1--3--3--|
 
G||--------------------------|--------------------------|
D||--------------------------|--------------------------|
A||--------------------------|--------------------------|
D||--3-----------------------|--5--5--5--1--1--1--3--3--|
  
G||--------------------------|----------|
D||--------------------------|----------|
A||--------------------------|----------|
D||--3-----------------------|--5--1--3-|


Verse 2
G||--------------------------|--------------------------|
D||--------------------------|--------------------------|
A||--------------------------|-----1--1-----1-----1--1--|
D||-----6--6-----6-----6--6--|--------------------------|
  
G||--------------------------|--------------------------|
D||--------------1--0--------|--------------1--0--------|
A||-----3--3-----------3-----|-----3-----3--------1-----|
D||--------------------------|-----------------------6--|

G||--------------------------|--------------------------|
D||--------------------------|--------------------------|
A||--------------------------|-----1--1-----1-----1--1--|
D||-----6--6-----6-----6--6--|--------------------------|

G||--------------3-----------|---------|
D||-----------------0--------|---------|
A||-----3--3-----------3-----|-----3---|
D||--------------------------|---------|


Chorus 
G||--------------------------|---------------------------|----------------------------|
D||--------------------------|---------------------------|----------------------------|
A||-----------------------1--|------1-----1--1--1-----3--|------3------3--3--3-----3--|
D||--6--6-----6--6--6--------|---------------------------|----------------------------|
  
G||---------------------------|--------------------------|
D||---------------------------|--------------------------|
A||--3--3------3--3--3--------|-----------------------1--|
D||------------------------6--|-----6-----6--6--6--------|
  
G||---------------------------|----------------------------|
D||---------------------------|----------------------------|
A||------1-----1--1--1-----3--|------3------3--3--3-----3--|
D||---------------------------|----------------------------|

                  |--3--|  |--3--|                               
G||---------------------------------|--------------------------|
D||---------------------------------|--------------------------|
A||--3--3------3--3--3--3--3--3--3--|--------------------------|
D||---------------------------------|--6--6-----6--6--6-----6--|

G||--------------------------|---------------------------------|
D||--------------------------|---------------------------------|
A||--------------------------|---------------------------------|
D||--8--8-----8--8--8-----8--|--10--10------10--10--10-----10--|

G||---------------------------------|--------------------------|
D||---------------------------------|--------------------------|
A||---------------------------------|--------------------------|
D||--10--10------10--10--10-----10--|--6--6-----6--6--6-----6--|
  
G||----------------------|
D||----------------------|
A||----------------------|
D||--8-------------------|

Outro
G||-----------------------------------------------------|
D||--------------------------|--------------------------|
A||--------------------------|--------------------------|
D||--5--5--5--1--1--1--3--3--|--3-----------------------|

G||-----------------------------------------------------|
D||--------------------------|--------------------------|
A||--------------------------|--------------------------|
D||--5--5--5--1--1--1--3--3--|--3-----------------------|

G||-----------------------------------------------------|
D||--------------------------|--------------------------|
A||--------------------------|--------------------------|
D||--5--5--5--1--1--1--3--3--|--3-----------------------|

G||----------------|
D||----------------|
A||----------------|
D||--5----1----3~--|

  
G||----------------|
D||----------------|
A||----------------|
D||--5----1----3~--|
comments
We did not receive enough feedback on this tab! Please rate:
print report bad tab
1 2 3 4 5
I want to post or [tab]
guest
You may want to rate the tab now too:
select rating
Please do not post tabs as comments. Select "correction" instead!