Oops, an error
Loading. Please wait.

Lies For The Liars Tab

by Used
5,570 views 1 this week
4 commentsread comments
1 2 3 4 5
accurate
x 6
add to favorites launch autoscroll
font size
0
reset
Autoscroll
+/-
esc
set tempo
stop
WARNING: You are trying to view
                                    content from Ultimate-Guitar.com
                                    in an unauthorized application,
                                    which is prohibited.

                                    Please use an official Ultimate
                                    Guitar Tabs application for iPhone,
                                    iPad or Android to access legitimate
                                    chords, guitar, bass, and drum tabs
                                    from Ultimate-Guitar.com database.

                                    Type "ultimate guitar tabs" in Apple
                                    App Store's or Android Market's
                                    search to find the application.
Lies For The Liars
The Used
Compiled By:Fenn

-------------------------------------------------------------------------------
			     THE RIPPER - THE USED
-------------------------------------------------------------------------------
Tabbed by:randomkiller


Tuning: D A D G B E (DROP D)

this is an interesting song, it uses alot of heavy distortion, and different effects and 
fills.
great song, off lies for the liars(5.22.07)

sorry for confusing tab... the structures on the bottom, and the riffs are noted. play 
riffs marked as many times in the song structure.
RYTHM A

e|---------------------------|
B|---------------------------|
G|---------------------------|
D|-0--3--5------0---3--5--0--|
A|-0--3--5--5-0X0---3--5--0--|
D|-0--3--5--5-0X0---3--5--0--|

FILL A1

e|----------------------------------|
B|----------------------------------|
G|-5-5-5-5-5-5-5-5-7-7-7-7-4-4-4-4--|
D|-x-x-x-x-x-x-x-x-x-x-x-x-x-x-x-x--|
A|-3-3-3-3-3-3-3-3-5-5-5-5-2-2-2-2--|
D|----------------------------------|

RYTHM B

e|--------------------------------------------------------------------|
B|--------------------------------------------------------------------|
G|-4-4-4-4-4-4-4-4-5-5-5-5-5-5-5-5-7-7-7-7-7-7-7-7-7-7-7-7-7-7-7-7-7--|
D|-x-x-x-x-x-x-x-x-x-x-x-x-x-x-x-x-x-x-x-x-x-x-x-x-x-x-x-x-x-x-x-x-x--|
A|-2-2-2-2-2-2-2-2-3-3-3-3-3-3-3-3-5-5-5-5-5-5-5-5-5-5-5-5-5-5-5-5-5--|
D|--------------------------------------------------------------------|

RYTHM C

e|------------------------|
B|------------------------|
G|------------------------|
D|------------------------|
A|-0-0-0-0--0-0--0-0------|
D|-0-0-0-0--0-0--0-0------|
PM...................

RYTHM D

e|-----------------------------|
B|-----------------------------|
G|--------------------8-8-8-8--|
D|--------------------X-X-X-X--|
A|-0-0-0-0--0-0--0-0--6-6-6-6--|
D|-0-0-0-0--0-0--0-0-----------|
PM..................

RYTHM D1

e|-------------|
B|-------------|
G|----------8--|
D|----------X--|
A|-0--0--0--6--|
D|-0--0--0-----|

FILL B1

e|------------------------------------------------------------|
B|------------------------------------------------------------|
G|-7-7-7-7-7-7-7-7-7-8-8-8-8-8-8-8-8-10-10-10-10-10-10-10-10--|
D|------------------------------------------------------------|
A|-5-5-5-5-5-5-5-5-5-6-6-6-6-6-6-6-6-8--8--8--8--8--8--8--8---|
D|------------------------------------------------------------|

LEAD A

e|---------------------------------|
B|---------------------------------|
G|---------------------------------|
D|---------------------------------|
A|---------------------------------|
D|-0-10p0-12-0-0-10-0-0-12-0-0-10--|
HEAVY PM.........................


SONG STRUCTURE
--------------
LEAD A(w/phaser) X4
REST
RYTHM A X3
FILL A1
REST
FILL A1
REST
FILL A1
RYTHM B X4*
RYTHM A X3
FILL A1
REST
FILL A1
REST
FILL A1
RYTHM B X4*
RYTHM A
RYTHM C X2
RYTHM D X4
RYTHM D1 X4
REST
FILL B1
RYTHM B X4*
RYTHM A X8
END

-------------------------------------------------------------------------------
			     Handsome Awkward - The Used
-------------------------------------------------------------------------------
Tabbed by: Jamie Cassidy
Email: Jamiec90@googlemail.com

Tuning: DADGBE

I think this is right but if there's any errors let me know ;]

Intro
e|---------------------------------------------------------------------------|
B|---------------------------------------------------------------------------|
G|---------------------------------------------------------------------------|
D|----------------------0-------------0-------------0-------------3-333-555--|
A|----------------------------------------------------------------3-333-555--|
D|-0-3-5---0x0x0x0x0x-0-3-5---0x0x0x0x0x-0-3-5---0x0x0x0x0x-0-3-5-3-333-555--|
x1 Light Overdrive then another x1 Heavy

Verse
D|---------------------------------------------------------------------------------|
e|---------------------------------------------------------------------------------|
B|---------------------------------------------------------------------------------|
G|---------------------------------------------------------------------------------|
D|------------------0-----------------0-------------------3-3x3x3x-5x5x5x-------0--|
A|-0x0x0x0x0x---------0x0x0x0x0x---------0x0x0x0x0x-------3-3x3x3x-5x5x5x-------0--|
D|-0x0x0x0x0x-0-3-5---0x0x0x0x0x-0-3-5---0x0x0x0x0x-0-3-5-3-3x3x3x-5x5x5x-0-3-5-0--|
x2

Weird sound going on here sounds like Quinn's scratching the stings with his pick or 
down the fret board, unsure.

Chorus
e|---------------------------------------------------------------------------|
B|---------------------------------------------------------------------------|
G|-----5-4-------------------------------------------------------------------|
D|-0-3-3-2-------------------------------------------------------------------|
A|-0-3-3-2-------------------------------------------------------------------|
D|-0-3-----------------------------------------------------------------------|
x4
There's a lead solo part in behind this but I havn't worked it out yet.

Outro
D|---------------------------------------------------------------------------------|
e|---------------------------------------------------------------------------------|
B|---------------------------------------------------------------------------------|
G|---------------------------------------------------------------------------------|
D|------------------0-----------------0-------------------3-3x3x3x-5x5x5x-------0--|
A|-0x0x0x0x0x---------0x0x0x0x0x---------0x0x0x0x0x-------3-3x3x3x-5x5x5x-------0--|
D|-0x0x0x0x0x-0-3-5---0x0x0x0x0x-0-3-5---0x0x0x0x0x-0-3-5-3-3x3x3x-5x5x5x-0-3-5-0--|

D|---------------------------------------------------------------------------|
e|---------------------------------------------------------------------------|
B|---------------------------------------------------------------------------|
G|---------------------------------------------------------------------------|
D|------------------6------------------6------------------3-3x3x3x-5x5x5x----|
A|-0x0x0x0x0x-------6-0x0x0x0x0x-------6-0x0x0x0x0x-------3-3x3x3x-5x5x5x----|
D|-0x0x0x0x0x-0-3-5-6-0x0x0x0x0x-0-3-5-6-0x0x0x0x0x-0-3-5-3-3x3x3x-5x5x5x----|

e|---------------------------------------------------------------------------|
B|---------------------------------------------------------------------------|
G|---------------------------------------------------------------------------|
D|-------0-------0------0-------0--------------------------------------------|
A|------------------------------0--------------------------------------------|
D|-0-3-5---0-3-5---0-3-5--0-3-5-0--------------------------------------------|


Song Title: The Bird And The Worm
Artist: The Used
Album: Lies For The Liars

In this song, I think you can play it in standard tuning, but since The Used
prefer the Dropped D Tuning (like almost all their songs), it's the tuning I used here. 
up to you whether you use Dropped D or the standard tuning.

Cheers!

Ins.:
	Gtr 1 – Quinn Allman (Lead) - Dropped D Tuning
	Gtr 2 – Extra Guitar (Rhythm)
	Gtr 3 – Extra Guitar


I. INTRO (0:04 – 0:12)

Gtr 1 (all palm muted)
e|---------------------------|---------------------------|
B|---------------------------|---------------------------|
G|---------------------------|---------------------------|
D|------4---4-------4---4----|------3---3-------3---3----|
A|----4---4---4---4---4---4--|----4---4---4---4---4---4--|
D|--4-----------4------------|--3-----------3------------|

Then,

Gtr 1 (all palm muted)
e|---------------------------|---------------------------|
B|---------------------------|---------------------------|
G|---------------------------|---------------------------|
D|------4---4-------4---4----|------3---3-------3---3----|
A|----4---4---4---4---4---4--|----4---4---4---4---4---4--|
D|--4-----------4------------|--3-----------3------------|
Gtr 2
e|---------------------------|---------------------------|
B|------10-10-------10-10----|------9--9----9-7-6--------|
G|------11-11-------11-11----|------10-10----------6-----|
D|---------------------------|---------------------------|
A|---------------------------|---------------------------|
E|---------------------------|---------------------------|


II. VERSE 1 (0:12 – 0:27)

Gtr 1
e|---------------------------|---------------------------|3x
B|---------------------------|---------------------------|
G|---------------------------|---------------------------|
D|------4---4-------4---4----|------3---3-------3---3----|
A|----4---4---4---4---4---4--|----4---4---4---4---4---4--|
D|--4-----------4------------|--3-----------3------------|
 (continued)
e|---------------------------|---------------------------|
B|---------------------------|---------------------------|
G|---------------------------|---------------------------|
D|------4---4-------4---4----|------3---3----------------|
A|----4---4---4---4---4---4--|----4---4---4--------------|
D|--4-----------4------------|--3-----------3------------|

Gtr 2
e|--------9-----------9------|--------9---------------9--|3x
B|---------------------------|--------------------12-----|
G|---------------------------|---------------------------|
D|-----11----11----11----11--|-----11----11----11--------|
A|--9-----------9------------|--8-----------8------------|
E|---------------------------|---------------------------|
(continued)
e|--------9-----------9------|--------9------------------|
B|---------------------------|---------------------------|
G|---------------------------|---------------------------|
D|-----11----11----11----11--|-----11----11--------------|
A|--9-----------9------------|--8-----------8------------|
E|---------------------------|---------------------------|


III. CHORUS (0:28 – 0:43)

Gtr 1
e|---------------------------|---------------------------|
B|---------------------------|---------------------------|
G|---------------------------|---------------------------|
D|--4-4-4-4-4-4-4-4-4-4-4-4--|--0-0-0-0-0-0-0-0-0-0-0-0--|
A|--4-4-4-4-4-4-4-4-4-4-4-4--|--0-0-0-0-0-0-0-0-0-0-0-0--|
D|--4-4-4-4-4-4-4-4-4-4-4-4--|--0-0-0-0-0-0-0-0-0-0-0-0--|
(continued)
e|---------------------------|---------------------------|
B|---------------------------|---not sure on this part---|
G|--2-2-2-2-2-2-2-2-2-2-2-2--|---------------------------|
D|--2-2-2-2-2-2-2-2-2-2-2-2--|--3-3-3-3-3-3-3-3-3-3-3-3--|
A|--0-0-0-0-0-0-0-0-0-0-0-0--|--4-4-4-4-4-4-4-4-4-4-4-4--|
D|---------------------------|--2-2-2-2-2-2-3-3-3-3-3-3--|
(continued)
e|---------------------------|---------------------------|
B|---------------------------|---------------------------|
G|---------------------------|---------------------------|
D|--4-4-4-4-4-4-4-4-4-4-4-4--|--0-0-0-0-0-0-0-0-0-0-0-0--|
A|--4-4-4-4-4-4-4-4-4-4-4-4--|--0-0-0-0-0-0-0-0-0-0-0-0--|
D|--4-4-4-4-4-4-4-4-4-4-4-4--|--0-0-0-0-0-0-0-0-0-0-0-0--|
 (continued)
e|---------------------------|---------------------------|
B|---------------------------|---------------------------|
G|--2-2-2-2-2-2-2-2-2-2-2-2--|---------------------------|
D|--2-2-2-2-2-2-2-2-2-2-2-2--|----3-3-3-------3-3-3------|
A|--0-0-0-0-0-0-0-0-0-0-0-0--|----4-4-4-------4-4-4------|
D|---------------------------|----3-3-3-------3-3-3------|

Gtr 2
e|----------------------------|---------------------------|
B|----------------------------|---------------------------|
G|--111111111111111111111111--|--7-7-7-7-7-7-7-7-7-7-7-7--|
D|---x-x-x-x-x-x-x-x-x-x-x-x--|--x-x-x-x-x-x-x-x-x-x-x-x--|
A|---9-9-9-9-9-9-9-9-9-9-9-9--|--5-5-5-5-5-5-5-5-5-5-5-5--|
E|----------------------------|---------------------------|
(continued)
e|---------------------------|----------------------------|
B|---------------------------|----------------------------|
G|--9-9-9-9-9-9-9-9-9-9-9-9--|--9-9-9-9-9-9-101010101010--|
D|--x-x-x-x-x-x-x-x-x-x-x-x--|--x-x-x-x-x-x--x-x-x-x-x-x--|
A|--7-7-7-7-7-7-7-7-7-7-7-7--|--7-7-7-7-7-7--8-8-8-8-8-8--|
E|---------------------------|----------------------------|
(continued)
e|----------------------------|---------------------------|
B|----------------------------|---------------------------|
G|--111111111111111111111111--|--7-7-7-7-7-7-7-7-7-7-7-7--|
D|---x-x-x-x-x-x-x-x-x-x-x-x--|--x-x-x-x-x-x-x-x-x-x-x-x--|
A|---9-9-9-9-9-9-9-9-9-9-9-9--|--5-5-5-5-5-5-5-5-5-5-5-5--|
E|----------------------------|---------------------------|
(continued)
e|---------------------------|----------------------------|
B|---------------------------|----------------------------|
G|--9-9-9-9-9-9-9-9-9-9-9-9--|----101010------101010------|
D|--x-x-x-x-x-x-x-x-x-x-x-x--|-----x-x-x-------x-x-x------|
A|--7-7-7-7-7-7-7-7-7-7-7-7--|-----8-8-8-------8-8-8------|
E|---------------------------|----------------------------|


IV. POST CHORUS (0:44 – 0:48)
I don’t think there’s a guitar playing here (except for bass)
That’s what I think; let me know what you think :)

Just before the 2nd verse: (0:48 – 0:55)
Gtr 2
e|--------------------------------------------------------------------|
B|--10-10---10-10---9--9----9--9----10-10---10-10---9--9---6-7-9--10--|
G|--11-11---11-11---10-10---10-10---11-11---11-11---10-10-------------|
D|--------------------------------------------------------------------|
A|--------------------------------------------------------------------|
E|--------------------------------------------------------------------|

V. VERSE II (0:56 – 1:14)
This part is very tricky, you know.

Gtr 1
e|---------------------------|---------------------------|
B|---------------------------|---------------------------|
G|---------------------------|---------------------------|
D|--4-4-4-4-4-4-4-4-4-4-4-4--|------3---3-------3---3----|
A|--4-4-4-4-4-4-4-4-4-4-4-4--|----4---4---4---4---4---4--|
D|--4-4-4-4-4-4-4-4-4-4-4-4--|--3-----------3------------|
Gtr 2
e|----------------------------|--------13----13----------13----13-----|
B|----------------------------|-----14----14----14----14----14----14--|
G|--111111111111111111111111--|---------------------------------------|
D|---x-x-x-x-x-x-x-x-x-x-x-x--|--15----------------15-----------------|
A|---9-9-9-9-9-9-9-9-9-9-9-9--|---------------------------------------|
E|----------------------------|---------------------------------------|


Gtr 1
e|---------------------------|---------|
B|---------------------------|---------|
G|---------------------------|---------|
D|--4-4-4-4-4-4-4-4-4-4-4-4--|---------|
A|--4-4-4-4-4-4-4-4-4-4-4-4--|---------|
D|--4-4-4-4-4-4-4-4-4-4-4-4--|--11\6~--|
Gtr 2
e|----------------------------|------------------------|
B|----------------------------|------------------------|
G|--111111111111111111111111--|--10-10-10-10-10-10-10--|
D|---x-x-x-x-x-x-x-x-x-x-x-x--|------------------------|
A|---9-9-9-9-9-9-9-9-9-9-9-9--|------------------------|
E|----------------------------|------------------------|


Gtr 1
e|------------------------------|------------|
B|------------------------------|------------|
G|------------------------------|------------|
D|------------------------------|--(silent)--|
A|--4----4-4-4----4----4-4-4-4--|------------|
D|--4-44-4-4-4-44-4-44-4-4-4-4--|------------|
Gtr 2
e|----------------------------|--------13----13----------13----13-----|
B|----------------------------|-----14----14----14----14----14----14--|
G|--111111111111111111111111--|---------------------------------------|
D|---x-x-x-x-x-x-x-x-x-x-x-x--|--15----------------15-----------------|
A|---9-9-9-9-9-9-9-9-9-9-9-9--|---------------------------------------|
E|----------------------------|---------------------------------------|


Gtr 1
e|------------------------------------------------|
B|------------------------------------------------|
G|------------------------------------------------|
D|--4-4-4-4-4-4-4-4-3-3-3-3-3-3-3-3---------------|
A|--4-4-4-4-4-4-4-4-4-4-4-4-4-4-4-4--4-4-4-4-4-4--|
D|--4-4-4-4-4-4-4-4-3-3-3-3-3-3-3-3--4-4-4-4-4-4--|
Gtr 2
e|------------------------------------------------|
B|------------------------------------------------|
G|--11111111111111111010101010101010--------------|
D|---x-x-x-x-x-x-x-x-x-x-x-x-x-x-x-x--------------|
A|---9-9-9-9-9-9-9-9-8-8-8-8-8-8-8-8-4-4-4-4-4-4--|
E|-----------------------------------2-2-2-2-2-2--|


[REPEAT CHORUS (1:15 – 1:32)]
[POST CHORUS (1:33 – 1:46)]


VI. ADLIB (1:46 – 2:00)
This is a harmonized part.

Gtr 1 (left speaker)
e|--------------------------12---------------------------------12-----|
B|--14-----12-----14--14-15----12-----14--14--12-----14--14-15----12--|
G|--------------------------------------------------------------------|
D|--------------------------------------------------------------------|
A|--------------------------------------------------------------------|
D|--------------------------------------------------------------------|
Gtr 2 (right speaker)
e|--------------------------------------------------------------------|
B|--------------------------14---------------------------------14-----|
G|--14-----13-----14--14-16----13-----14------13-----14--14-16----13--|
D|--------------------------------------------------------------------|
A|--------------------------------------------------------------------|
E|--------------------------------------------------------------------|


VII. INTERLUDE (2:02 – 2:15)
There is now a guitar playing here.

Gtr 1
e|------------------------|--------------------------------------|
B|--9-10-9-10--9-10-9-10--|-------9-10-9-10--9-10-9-10-12-10-----|
G|------------------------|--11~-----------------------------11--|
D|------------------------|--------------------------------------|
A|------------------------|--------------------------------------|
D|------------------------|--------------------------------------|
(continued)
e|---------------------|
B|---------------------|
G|--10-10-10-10-10-10--|
D|---------------------|
A|---------------------|
D|---------------------|


VIII. SCREAMING PART (2:18 – 2:29)

Gtr 1
e|---------------------------------------------------------------------|
B|---------------------------------------------------------------------|
G|---------------------------------------------------------------------|
D|--4--4--------------4--4--------------3--3---------------------------|
A|--4--4--------------4--4--------------4--4---------------------------|
D|--4--4--6h7-6h7-6h7-4--4--6h7-6h7-6h7-3--3--6h7-6h7-6h7-6h7-6h7-6h7--|
(continued)
e|-------------------------------|
B|-------------------------------|
G|-------------------------------|
D|--------------------------(4)--|
A|--------------------------(4)--|
D|--6h7-6h7-6h7-6h7-6h7-6h7-(4)--|


IX. BREAK (2:30 – 2:37)

Gtr 2
e|--------------------------------------------------------------------|
B|--10-10---10-10---9--9----9--9----10-10---10-10---9--9---10-9-7-----|
G|--11-11---11-11---10-10---10-10---11-11---11-11---10-10----------6--|
D|--------------------------------------------------------------------|
A|--------------------------------------------------------------------|
E|--------------------------------------------------------------------|


[REPEAT CHORUS 2x – (2:38 – 3:11)]


X. OUTRO (3:12 – 3:43)

Gtr 1 (start on 3:19)
e|---------------------------|------------------------------------------|
B|---------------------------|------------------------------------------|
G|---------------------------|------------------------------------------|
D|--4-4-4-4-4-4-6-6-6-6-6-6--|--6-6-6-6-6-6-------------------------4~--|
A|--4-4-4-4-4-4-7-7-7-7-7-7--|--7-7-7-7-7-7-------------------------4~--|
D|--4-4-4-4-4-4-6-6-6-6-6-6--|--6-6-6-6-6-6-6h7-6h7-6h7-6h7-6h7-6h7-4~--|

Then,
Gtr 1 (all palm muted)
e|---------------------------|---------------------------|4x
B|---------------------------|---------------------------|
G|---------------------------|---------------------------|
D|------4---4-------4---4----|------3---3-------3---3----|
A|----4---4---4---4---4---4--|----4---4---4---4---4---4--|
D|--4-----------4------------|--3-----------3------------|
Gtr 2
e|---------------------------------------------------------------------|
B|--10-10---10-10---9--9----9--9----10-10---10-10---9--9----9--10-9-7--|
G|--11-11---11-11---10-10---10-10---11-11---11-11---10-10---10---------|
D|---------------------------------------------------------------------|
A|---------------------------------------------------------------------|
E|---------------------------------------------------------------------|
(continued)
e|--------------------------------------------------------------------|
B|--10-10---10-10---9--9----9--9----10-10---10-10---9--9---6-7-9--10--|
G|--11-11---11-11---10-10---10-10---11-11---11-11---10-10-------------|
D|--------------------------------------------------------------------|
A|--------------------------------------------------------------------|
E|--------------------------------------------------------------------|
Credit: f1f2

Song Title: Earthquake
Artist: The Used
Album: Lies For The Liars


Ins.:
	Gtr 1 – Quinn Allman (Lead)
	Gtr 2 – Quinn Allman (Extra)
	Gtr 2 – Quinn Allman (Extra)

Tuning:
	Dropped D Tuning (eBGDAD)


I. INTRO
(Gtr 1 and 2 palm muted)

Gtr 1 (left speaker)
e|---------------|--2-0---------2-0----------|
B|----------2-3--|------3-2-0-------3-2-0----|
G|------0-2------|------------2-----------2--|
D|--0-4----------|---------------------------|
A|---------------|---------------------------|
D|--(repeat 6x)--|---------------------------|

Gtr 2 (right speaker)
e|----------0-2--|---------------------------|
B|------0-2------|---------------------------|
G|----2----------|---------------------------|
D|--0------------|---------------------------|
A|---------------|--5-5-5-5-5-5-7-7-7-7-7-7--|
D|--(repeat 6x)--|--5-5-5-5-5-5-7-7-7-7-7-7--|

Gtr 3
e|--(repeat 2x)--|---------------------------|
B|---------------|---------------------------|
G|--------7~~~~--|---------------------------|
D|--------5~~~~--|---------------------------|
A|--0--0--5~~~~--|--5-5-5-5-5-5-7-7-7-7-7-7--|
D|--0--0---------|--5-5-5-5-5-5-7-7-7-7-7-7--|


II. VERSE

Gtr 1 (Palm Muted)
e|---------------------------------------------------|
B|---------------------------------------------------|
G|---------------------------------------------------|
D|---------------------------------------------------|
A|--0-0-0-0-0-0-0-0-0-0-0-0-0-0-0-0-0-0-0-0-0-0-0-0--|
D|--0-0-0-0-0-0-0-0-0-0-0-0-0-0-0-0-0-0-0-0-0-0-0-0--|
(continued)
e|---------------------------------------------------|
B|---------------------------------------------------|
G|---------------------------------------------------|
D|--4-4-4-4-4-4-4-4-4-4-4-4-4-4-4-4-4-4-4-4-4-4-4-4--|
A|--2-2-2-2-2-2-2-2-2-2-2-2-2-2-2-2-2-2-2-2-2-2-2-2--|
D|---------------------------------------------------|
(continued)
e|---------------------------------------------------|
B|---------------------------------------------------|
G|---------------------------------------------------|
D|---------------------------------------------------|
A|--2-2-2-2-2-2-2-2-2-2-2-2-5-5-5-5-5-5-5-5-5-5-5-5--|
D|--2-2-2-2-2-2-2-2-2-2-2-2-5-5-5-5-5-5-5-5-5-5-5-5--|
(continued)
e|---------------------------------------------------|
B|---------------------------------------------------|
G|---------------------------------------------------|
D|---------------------------------------------------|
A|--0-0-0-0-0-0-0-0-0-0-0-0-0-0-0-0-0-0-0-0-0-0-0-0--|
D|--0-0-0-0-0-0-0-0-0-0-0-0-0-0-0-0-0-0-0-0-0-0-0-0--|
(continued)
e|---------------------------------------------------|
B|---------------------------------------------------|
G|---------------------------------------------------|
D|--4-4-4-4-4-4-4-4-4-4-4-4-4-4-4-4-4-4-4-4-4-4-4-4--|
A|--2-2-2-2-2-2-2-2-2-2-2-2-2-2-2-2-2-2-2-2-2-2-2-2--|
D|---------------------------------------------------|
(continued)
e|---------------------------------------------------|
B|---------------------------------------------------|
G|---------------------------------------------------|
D|--------------------------------------5-5-5-5-5-5--|
A|--2-2-2-2-2-2-2-2-2-2-2-2-5-5-5-5-5-5-5-5-5-5-5-5--|
D|--2-2-2-2-2-2-2-2-2-2-2-2-5-5-5-5-5-5-5-5-5-5-5-5--|



III. CHORUS

Gtr 1
e|---------------------------|---------------------------|2x
B|---------------------------|---------------------------|
G|---------------------------|---------------------------|
D|--0-0-0-0-0-0-7-7-7-7-7-7--|--4-4-4-4-4-4-5-5-5-5-5-5--|
A|--0-0-0-0-0-0-7-7-7-7-7-7--|--4-4-4-4-4-4-5-5-5-5-5-5--|
D|--0-0-0-0-0-0-7-7-7-7-7-7--|--4-4-4-4-4-4-5-5-5-5-5-5--|
Gtr 2
e|---------------------------|--10~~--9~~----------------|
B|---------------------------|--------------10~~--8~~----|
G|---------------------------|---------------------------|
D|---------------------------|---------------------------|
A|---------------------------|---------------------------|
D|---------------------------|---------------------------|



IV. POST - CHORUS

Gtr 1
e|---------------------------------------------------|
B|---------------------------------------------------|
G|---------------------------------------------------|
D|---------------------------------------------------|
A|--0-0-0-0-0-0-0-0-0-0-0-0-0-0-0-0-0-0-0-0-0-0-0-0--|
D|--0-0-0-0-0-0-0-0-0-0-0-0-0-0-0-0-0-0-0-0-0-0-0-0--|
Gtr 2
e|---------------------------------------------------|
B|---------------------------------------------------|
G|---------------------------------------------------|
D|---------------------------------------------------|
A|--------------------------0-2-4-5~--2-0-2-4-5~--2--|
D|---------------------------------------------------|



V. VERSE 2
(Gtr 1 and 2 Palm Muted)

Gtr 1
e|---------------------------------------------------|
B|---------------------------------------------------|
G|---------------------------------------------------|
D|---------------------------------------------------|
A|--0-0-0-0-0-0-0-0-0-0-0-0-0-0-0-0-0-0-0-0-0-0-0-0--|
D|--0-0-0-0-0-0-0-0-0-0-0-0-0-0-0-0-0-0-0-0-0-0-0-0--|
Gtr 2
e|----------0-2---------0-2---------0-2---------0-2--|
B|------0-2---------0-2---------0-2---------0-2------|
G|----2-----------2-----------2-----------2----------|
D|--0-----------0-----------0-----------0------------|
A|---------------------------------------------------|
D|---------------------------------------------------|



Gtr 1
e|---------------------------------------------------|
B|---------------------------------------------------|
G|---------------------------------------------------|
D|--4-4-4-4-4-4-4-4-4-4-4-4-4-4-4-4-4-4-4-4-4-4-4-4--|
A|--2-2-2-2-2-2-2-2-2-2-2-2-2-2-2-2-2-2-2-2-2-2-2-2--|
D|---------------------------------------------------|
Gtr 2
e|--2-0---------2-0---------2-0---------2-0----------|
B|------3-2-0-------3-2-0-------3-2-0-------3-2-0----|
G|------------2-----------2-----------2-----------2--|
D|---------------------------------------------------|
A|---------------------------------------------------|
D|---------------------------------------------------|



Gtr 1
e|---------------------------------------------------|
B|---------------------------------------------------|
G|---------------------------------------------------|
D|---------------------------------------------------|
A|--2-2-2-2-2-2-2-2-2-2-2-2-5-5-5-5-5-5-5-5-5-5-5-5--|
D|--2-2-2-2-2-2-2-2-2-2-2-2-5-5-5-5-5-5-5-5-5-5-5-5--|
Gtr 2
e|----------0-2---------0-2---------0-2---------0-2--|
B|------0-2---------0-2---------0-2---------0-2------|
G|----2-----------2-----------2-----------2----------|
D|--0-----------0-----------0-----------0------------|
A|---------------------------------------------------|
D|---------------------------------------------------|



Gtr 1
e|---------------------------------------------------|
B|---------------------------------------------------|
G|---------------------------------------------------|
D|---------------------------------------------------|
A|--0-0-0-0-0-0-0-0-0-0-0-0-0-0-0-0-0-0-0-0-0-0-0-0--|
D|--0-0-0-0-0-0-0-0-0-0-0-0-0-0-0-0-0-0-0-0-0-0-0-0--|
Gtr 2
e|--2-0---------2-0---------2-0---------2-0----------|
B|------3-2-0-------3-2-0-------3-2-0-------3-2-0----|
G|------------2-----------2-----------2-----------2--|
D|---------------------------------------------------|
A|---------------------------------------------------|
D|---------------------------------------------------|



Gtr 1
e|---------------------------------------------------|
B|---------------------------------------------------|
G|---------------------------------------------------|
D|--4-4-4-4-4-4-4-4-4-4-4-4-4-4-4-4-4-4-4-4-4-4-4-4--|
A|--2-2-2-2-2-2-2-2-2-2-2-2-2-2-2-2-2-2-2-2-2-2-2-2--|
D|---------------------------------------------------|
Gtr 2
e|----------0-2---------0-2---------0-2---------0-2--|
B|------0-2---------0-2---------0-2---------0-2------|
G|----2-----------2-----------2-----------2----------|
D|--0-----------0-----------0-----------0------------|
A|---------------------------------------------------|
D|---------------------------------------------------|



Gtr 1
e|---------------------------------------------------|
B|---------------------------------------------------|
G|---------------------------------------------------|
D|--------------------------------------5-5-5-5-5-5--|
A|--2-2-2-2-2-2-2-2-2-2-2-2-5-5-5-5-5-5-5-5-5-5-5-5--|
D|--2-2-2-2-2-2-2-2-2-2-2-2-5-5-5-5-5-5-5-5-5-5-5-5--|
Gtr 2
e|--2-0---------2-0---------2-0---------2-0----------|
B|------3-2-0-------3-2-0-------3-2-0-------3-2-0----|
G|------------2-----------2-----------2-----------2--|
D|---------------------------------------------------|
A|---------------------------------------------------|
D|---------------------------------------------------|

[Repeat CHORUS]
[Repeat POST - CHORUS]


VI. BRIDGE

Gtr 1
e|-------------------------------------------------------------------------|2x
B|-------------------------------------------------------------------------|
G|-------------------------------------------------------------------------|
D|-------------------------------------------------------------------------|
A|-------------------------------------------------------------------------|
D|--0~~--5-7-8~~--7-5-4~~--0-5~--2~--4~~--5-7-8~~--7-5-4~~--0-5~--2~--4~~--|
(continued)
e|---------------------------|---------------------------|
B|---------------------------|---------------------------|
G|---------------------------|---------------------------|
D|--4-4-4-4-4-4-5-5-5-5-5-5--|--4-4-4-4-4-4-7-7-7-7-7-7--|
A|--4-4-4-4-4-4-5-5-5-5-5-5--|--4-4-4-4-4-4-7-7-7-7-7-7--|
D|--4-4-4-4-4-4-5-5-5-5-5-5--|--4-4-4-4-4-4-7-7-7-7-7-7--|
(continued)
e|---------------------------|
B|---------------------------|
G|----4-6-7~--4---4-6-7~--4--|
D|--7-----------7------------|
A|---------------------------|
D|---------------------------|

[Repeat CHORUS 2x]
[Repeat POST - CHORUS]



VII. OUTRO

Gtr 1
e|---------------|--2-0----------|--10~~--|
B|----------2-3--|------3-2-0----|--------|
G|------0-2------|------------2--|--------|
D|--0-4----------|---------------|--------|
A|---------------|---------------|--------|
D|--(repeat 8x)--|--(repeat 4x)--|--------|

e|----------0-2--|---------------|--10~~--|
B|------0-2------|---------------|--------|
G|----2----------|---------------|--------|
D|--0------------|------5-4-2-0--|--------|
A|---------------|---------------|--------|
D|--(repeat 8x)--|--(repeat 4x)--|--------|
Credit:f1f2

Hospital
Tabbed By: DAVE

This is my first tab so bear with me

UPDATED:(6/1) fixed verse

VERSE 1(0:00-0:21)
e|-------------------------------------|
B|-------------------------------------|
G|7-7-7-7-7-7-7-7979-7-7-7-7-7-7-7-7979|
D|X-X-X-X-X-X-X-XXXX-X-X-X-X-X-X-X-XXXX|
A|5-5-5-5-5-5-5-5555-5-5-5-5-5-5-5-5555|
D|-------------------------------------|
                                           2X
e|-------------------------------------|
B|-------------------------------------|
G|3-3-3-3-3-3-3-3333-6-6-6-6-6-6-6-6666|
D|X-X-X-X-X-X-X-XXXX-X-X-X-X-X-X-X-XXXX|
A|1-1-1-1-1-1-1-1111-4-4-4-4-4-4-4-4444|
D|-------------------------------------|

CHORUS(0:22-0:32)
e|---------------------------|
B|---------------------------|
G|3-3333--------5-5555-------|
D|3-3333-3-3333-5-5555-0-0000|
A|1-1111-3-3333-3-3333-0-0000|
D|-------3-3333--------0-0000|

e|---------------------------|
B|---------------------------|
G|3-3333--------5-55555555555|
D|3-3333-3-3333-5-55555555555|
A|1-1111-3-3333-3-33333333333|
D|-------3-3333--------------|

VERSE 2(0:33-0:54) NO GUITAR UNTIL 0:44
e|-------------------------------------|
B|-------------------------------------|
G|7-7-7-7-7-7-7-7979-7-7-7-7-7-7-7-7979|
D|X-X-X-X-X-X-X-XXXX-X-X-X-X-X-X-X-XXXX|
A|5-5-5-5-5-5-5-5555-5-5-5-5-5-5-5-5555|
D|-------------------------------------|

e|-------------|
B|-------------|
G|-------------|
D|----2---3---3|
A|5---0---1---1|
D|5------------|

WIERD PART(0:55-1:05)
NO GUITAR

CHORUS(1:05-1:30) PLAY 2X
e|---------------------------|
B|---------------------------|
G|3-3333--------5-5555-------|
D|3-3333-3-3333-5-5555-0-0000|
A|1-1111-3-3333-3-3333-0-0000|
D|-------3-3333--------0-0000|

e|---------------------------|
B|---------------------------|
G|3-3333--------5-55555555555|
D|3-3333-3-3333-5-55555555555|
A|1-1111-3-3333-3-33333333333|
D|-------3-3333--------------|

BRIDGE
(1:31-1:34)
e|--------------|
B|--------------|
G|--------------|
D|-0~~----------|
A|-0~~(LET RING)|
D|-0~~----------|
(1:35-1:45)
e|-----------------------------------------------------|
B|-----------------------------------------------------|
G|1010101010101010101010101010101010101010/121212121212|
D|X-X-X-X-X-X-X-X-X-X-X-X-X-X-X-X-X-X-X-X--X-X-X-X-X-X-|2X
A|8-8-8-8-8-8-8-8-8-8-8-8-8-8-8-8-8-8-8-8-/101010101010|
D|-----------------------------------------------------|
(1:46-1:58
e|---------------------------------------------------|
B|---------------------------------------------------|
G|101010---101010-101010--101010--101010--1010/121212|
D|X-X-X----X-X-X--X-X-X---X-X-X---X-X-X---X-X--X-X-X-|2X
A|8-8-8----8-8-8--8-8-8---8-8-8---8-8-8---8-8-/101010|
D|---------------------------------------------------|

CHORUS (2:00-2:23)PLAY 2X
e|---------------------------|
B|---------------------------|
G|3-3333--------5-5555-------|
D|3-3333-3-3333-5-5555-0-0000|
A|1-1111-3-3333-3-3333-0-0000|
D|-------3-3333--------0-0000|

e|---------------------------|
B|---------------------------|
G|3-3333--------5-55555555555|
D|3-3333-3-3333-5-55555555555|
A|1-1111-3-3333-3-33333333333|
D|-------3-3333--------------|

OUTRO(2:24-2:37)
e|------------------|
B|------------------|
G|7-7-7-7-7-7-7-7979|
D|X-X-X-X-X-X-X-XXXX|5x
A|5-5-5-5-5-5-5-5555|
D|------------------|

END ON
e|---|
B|---|U PLAY IT THREE TIMES, AT 2:38, 2:40, AND 2:47
G|---|LET IT RING EACH TIME
D|-0-|
A|-0-|
D|-0-|

-------------------------------------------------------------------------------
			     Paralyzed - The Used
-------------------------------------------------------------------------------
Tabbed by: MyChemicalLife a.k.a AblinkVboxa
Email: ablinkvboxa@hotmail.com *feel free to e-mail with comments or corrections*

Tuning: Standard (EADGBe)


I tabbed this from the instrumental video that The Used had made.
Because this song isn't released yet...but I cant wait lol.
This is very rough..like seriously..this took me 10 minutes.
But when the album is released I will update it.
(I just don't want to spend forever on it..and then the song is in a different order or something :/ )

e|-------------------------------------------------|
B|-------------------------------------------------|
G|-------------------------------------------------|  X 2
D|-------------------------------------------------|
A|-9-9-9------------5-5-5--5-5-2-4-5-4-------------|
E|------2-4-5-9-10-9-------------------------------|
  . . . . . . . . . . . . . . . . . . .

e|-----------------------------------------------|--Last ending----------|
B|-----------------------------------------------|-----------------------|
G|11-11-11----------------7-7-7--7-7-4-6-7-6-----|-7-7-7-7-7-9-99/11-----|
D|11-11-11-4-6-7-11-12-11-7-7-7--7-7-4-6-7-6--X2-|-7-7-7-7-7-9-99/11-----|
A|9--9--9--2-6-5-11-12-11-5-5-5--5-5-2-4-5-4-----|-5-5-5-5-5/7-77/9------|
E|---------2-4-5--9-10-9-------------------------|-----------------------|
                                                         not 100% ^^

e|------5---(5)------5---(5)-------5---(5)--------------------0-------5---(5)-|
B|--------7------------7-------------7-----------3----------------------7-----|
G|-------------------------------------------------2-------4------------------|
D|-4-4-----------4-4----------4-4-----------0-0----------4--------4-4---------|
A|-----------------------------------------------------2----------------------|
E|----------------------------------------------------------------------------|

Repeat the chorus etc.


                         bridge part

e|-------------------------------|--------------------------------------------|
B|-------------------------------|---horn-part->--11\\-11\\-11\\-11\\---------|
G|-77777-9/111111--9/11/9\7/9----|----------------11\\-11\\-11\\-11\\---------|
D|-77777-9/111111--9/11/9\7/9----|----------------9-\\--9\\--9\\--9\\---------|
A|-55555-7/999999--7/9-/7\5/7----|--------------------------------------------|
E|-------------------------------|--------------------------------------------|

e|---------------------------------------|
B|---------------------------------------|
G|-11-1111\--7-77/--11-1111-xxxxx-7-77/--|
D|-11-1111\--7-77/--11-1111-xxxxx-7-77/--|
A|--9--9-9\--5-55/---9-9-9--xxxxx-5-55/--|
E|---------------------------------------|

the chorus just repeats etc.

-------------------------------------------------------------------------------
			     With Me Tonight - The Used
-------------------------------------------------------------------------------
Tabbed by: MyChemicalLife a.k.a AblinkVboxaA
Email: ablinkvboxa@hotmail.com (feel free to e-mail with comments or corrections THANKS!)

Tuning: Standard EADGBe


Yet another first tab for the used lol.
This time its for one of the coolest songs on the new album with me tonight...
Enjoy!!!
This took a while :P


Intro
e|---------------------------------------------------------------------------|
B|---------------------------------------------------<5>---------------------|
G|-------2-------------------------2-----------------<5>--------------2------|
D|---------5-4-2-0-------------------5-4-2-0--7/2----<5>---------------------|
A|-0-2-2-----------5-5-5-5---0-2-2------------------------------0-2-2--------|
E|-----------------3-3-3--------------------------3-------5~~----------------|
   . . .   . . . . . . .     . . .   . . . .                    . . . 
e|---------------------------------------------------------------------------|
B|---------------------------------------------------------------------------|
G|-------------------------------2--------7/2--------------------------------|
D|-5-4-2-0-2-2h4p2-----------------5-4-2-------------------------------------|
A|------------------5-2-0---2-2---------------------------0-1~~--------------|
E|---------------------------------------------------------------------------|
   . . . . .                . .   . . . 
e|-----------------------------------------------|---------------------------|
B|-----------------------------------------------|--end-2nd-time-adding------|
G|-----------------------------------------------|--------------------777777-|
D|-0-4-4-4-4-4-4-4-4-----------7-7-7-7-7----x2---|--------------------777777-|
A|-0-2-2-2-2-2-2-2-2-5-5-5-5-5-5-5-5-5-5---------|--------------------555555-|
E|-------------------3-3-3-3-3-------------------|---------------------------|
   . . . . . . . . . . . . . . . . . . .
e|---------------------------------------------------------------------------|
B|---------------------------------------------------------------------------|
G|---------------------------------------------------------------------------|
D|-2-222--4-444--5-555---7~--------------------------------------------------|
A|-2-222--4-444--5-555---5~--------------------------------------------------|
E|-0-000--2-222--3-333---5~--------------------------------------------------|


Chorus
e|-----------------------------------------------------------------------------|
B|-----------------------------------------------------------------------------|
G|-444444444444-------------------------7777777777---44444444444---------------|
D|-444444444444--44444444444-5555555555-7777777777---44444444444-4444444444-7\-|
A|-222222222222--44444444444-5555555555-5555555555---22222222222-4444444444-7\-|
E|---------------22222222222-3333333333--------------------------2222222222-5\-|

e|---------------------------------------------------------------------------|
B|---------------------------------------------------------------------------|
G|-------2-------------------------2-----------------------------------------|
D|---------5-4-2-0-------------------5-4-2-0----*pause*----------------------|
A|-0-2-2-----------5-5-5-5---0-2-2----------------------0-1------------------|
E|-----------------3-3-3-----------------------------------------------------|
   . . .   . . . . . . .     . . .   . . . .   

e|---------------------------------------------------------------------------|
B|---------------------------------------------------------------------------|
G|---------------------------------------------------------------------------|
D|-0-4-4-4-4-4-4-4-4-----------7-7-7-7-7-------------------------------------|
A|-0-2-2-2-2-2-2-2-2-5-5-5-5-5-5-5-5-5-5-------------------------------------|
E|-------------------3-3-3-3-3-----------------------------------------------|                 
   . . . . . . . . . . . . . . . . . . .

e|--------------------------------------------------------------------------|
B|--------------------------------------------------------------------------|
G|---4-4-4-4-4-4-4-4-----------7-7-7-7-7-----777777-------------------------|
D|-0-4-4-4-4-4-4-4-4-5-5-5-5-5-7-7-7-7-7-----777777-------------------------|
A|-0-2-2-2-2-2-2-2-2-5-5-5-5-5-5-5-5-5-5-----555555-------------------------|
E|-------------------3-3-3-3-3----------------------------------------------|

e|---------------------------------------------------------------------------|
B|---------------------------------------------------------------------------|
G|---------------------------------------------------------------------------|
D|-2-222--4-444--5-555---7~-77777--------------------------------------------|
A|-2-222--4-444--5-555---5~-55555--------------------------------------------|
E|-0-000--2-222--3-333---5~-55555--------------------------------------------|

Chorus
e|-----------------------------------------------------------------------------|
B|-----------------------------------------------------------------------------|
G|-444444444444-------------------------7777777777---44444444444---------------|
D|-444444444444--44444444444-5555555555-7777777777---44444444444-4444444444----|
A|-222222222222--44444444444-5555555555-5555555555---22222222222-4444444444----|
E|---------------22222222222-3333333333--------------------------2222222222----|



e|---------------------------------------------------------------------------|
B|---------------------------------------------------------------------------|
G|---------------------44444444444-----------------------7777777777----------|
D|-555555555555555555--44444444444-4444444444-5555555555-7777777777----------|
A|-555555555555555555--22222222222-4444444444-5555555555-5555555555----------|
E|-333333333333333333--------------2222222222-3333333333---------------------|

e|---------------------------------------------------------------------------|
B|---------------------------------------------------------------------------|
G|-444444444444------------7\------------------------------------------------|
D|-444444444444-4444444444-7\---------121212121212121212\\-------------------|
A|-222222222222-4444444444-5\---------xxxxxxxxxxxxxxxxxx\\-------------------|
E|--------------2222222222------1/12--101010101010101010\\-------------------|

e|---------------------------------------------------------------------------|
B|---------------------------------------------------------------------------|
G|----------------------4------------------4----------------------4----------|
D|----------5-5-4-2-2-4-----------5-5-4-2~-----------5-5-4-2-2-4-------------|
A|-2-2-2222---------------2-2-222------------2-2-222----------------2--------|
E|---------------------------------------------------------------------------|
  . . ..... . . . . . .     . ... . . .        . ... . . . . . .
e|---------------------------------------------------------------------------|
B|---------------------------------------------------------------------------|
G|--------------------4------------------------------------------------------|
D|-------5-5-4-2-2-4------------5-5-4-2--------------------------------------|
A|-2-222----------------2-2-222----------------------------------------------|
E|---------------------------------------------------------------------------|
   . ... . . . . . .      . ... . . . .  

Heavy Part
e|---------------------------------------------------------------------------|
B|---------------------------------------------------------------------------|
G|-44------------------44------------4~-44------------------44---------------|
D|-22------------------22---------------22------------------22---------------|
A|-22------------------22---------------22------------------22---------------|
E|----0000-3-3-2-0-0-2----0000-3-3-2--------0000-3-3-2-0-0-2---0000-3-3-2-0~~|

e|---------------------------------------------------------------------------|
B|---------------------------------------------------------------------------|
G|---------------------------------------------------------------------------|
D|-2-222--4-444--5-555---7~--------------------------------------------------|
A|-2-222--4-444--5-555---5~--------------------------------------------------|
E|-0-000--2-222--3-333---5~--------------------------------------------------|

Chorus
e|----------------------------------------------------------------------------|
B|----------------------------------------------------------------------------|
G|-444444444444-------------------------7777777777---44444444444--------------|
D|-444444444444--44444444444-5555555555-7777777777---44444444444-4444444444---|
A|-222222222222--44444444444-5555555555-5555555555---22222222222-4444444444---|
E|---------------22222222222-3333333333--------------------------2222222222---|

e|---------------------------------------------------------------------------|
B|---------------------------------------------------------------------------|
G|---------------------44444444444-------------------------------------------|
D|-555555555555555555--44444444444-4444444444-555555555555555555555----------|
A|-555555555555555555--22222222222-4444444444-555555555555555555555----------|
E|-333333333333333333--------------2222222222-333333333333333333333----------|

e|----------------------------------------------------------------------------|
B|----------------------------------------------------------------------------|
G|-444444444444---------------------------------------------------------------|
D|-444444444444--44444444444-5555555555---------------------------------------|
A|-222222222222--44444444444-5555555555---------------------------------------|
E|---------------22222222222-3333333333---------------------------------------|

e|---------------------------------------------------------------------------|
B|---------------------------------------------------<5>---------------------|
G|-------2-------------------------2-----------------<5>--------------2------|
D|---------5-4-2-0-------------------5-4-2-0--7/2----<5>---------------------|
A|-0-2-2-----------5-5-5-5---0-2-2------------------------------0-2-2--------|
E|-----------------3-3-3--------------------------3-------5~~----------------|
   . . .   . . . . . . .     . . .   . . . .                    . . . 

e|---------------------------------------------------------------------------|
B|---------------------------------------------------------------------------|
G|-------------------------------2--------7/2--------------------------------|
D|-5-4-2-0-2-2h4p2-----------------5-4-2-------------------------------------|
A|------------------5-2-0---2-2------------------0-1-2~~---------------------|
E|---------------------------------------------------------------------------|
   . . . . .                . .   . . . 
-------------------------------------------------------------------------------
			     Wake The Dead - The Used
-------------------------------------------------------------------------------
Tabbed by: MyChemicalLife a.k.a AblinkVboxA
Email: ablinkvboxa@hotmail.com (feel free to e-mail with comment or corrections THANKS!)


First tab for wake the dead :)

Such an awesome song.
scary in a way lol. 
Enjoy.. I tried my best!



Tuning: Drop D (DADGBe)

(00:12)
e|---------------------------------------------------------------------------|
B|---------------------------------------------------------------------------|
G|---------------------------------------------------------------------------|
D|---------------------------------------------------------------------------|
A|---------------------------------------------------------------------------|
D|-----/9h12--12p11--11h12-12-/14---9h12--12p11-11--0-0----------------------|

e|---------------------------------------------------------------------------|
B|---------------------------------------------------------------------------|
G|---------------------------------------------------------------------------|
D|--------------------------------------------------0-0----------------------|
A|--------------------------------------------------0-0----------------------|
D|-----/9h12--12p11--11h12-12-/14---9h12--12p11-11--0-0----------------------|

e|---------------------------------------------------------------------------|
B|---------------------------------------------------------------------------|
G|---------------------------------------------------------------------------|
D|---------------------------------------------------------------------------|
A|---------------------------------------------------------------------------|
D|-----/9h12--12p11--11h12-12-/14---9h12--12p11-11--0-0----------------------|

e|---------------------------------------------------------------------------|
B|---------------------------------------------------------------------------|
G|---------------------------------------------------------------------------|
D|---------------------------------------------------------------------------|
A|---------------------------------------------------------------------------|
D|-----/9h12--12p11--11h12-12-/14---9h12--12p11-11--0-0----------------------|

e|---------------------------------------------------------------------------|
B|---------------------------------------------------------------------------|
G|---------------------------------------------------------------------------|
D|---------------------------------------------------------------------------|
A|---------------------------------------------------------------------------|
D|---0-9-9-12-12-11-11-14---0-9-9-12-12-11-11-0-0---0-9-9-12-12-11-11-14-----|
     . . . .  .  .  .  .    . . .  .  .  .  . . .   . . .  .  .  .  . .
              This is not natural                  A bunch of holes where the 
e|---------------------------------------------------------------------------|
B|---------------------------------------------------------------------------|
G|---------------------------------------------------------------------------|
D|--------------------0-0-----0-9-9-12-12-11-11-14----0-9-9-12-12-11-11------|
A|--------------------0-0-----0-9-9-12-12-11-11-14----0-9-9-12-12-11-11------|
D|--0-9-9-12-12-11-11-0-0-----0-9-9-12-12-11-11-14----0-9-9-12-12-11-11--0---|
    . . .  .  . .  .          . . .  .  .  .  .  .    . . .  .  .  .  .
dead used to be underground                    Forget supernatural
e|---------------------------------------------------------------------------|
B|---------------------------------------------------------------------------|
G|---------------------------------------------------------------------------|
D|--------------------------------------------------0-0---5-55-5-4---55-5----|
A|--------------------------------------------------0-0---5-55-5-4---55-5-5--|
D|-----/9h12--12p11--11h12-12-/14---9h12--12p11-11--0-0---5-55-5-4---55-5----|
 
'cause all those resting in peace are out walking the streets Yeah with no                         
                                                                    heartbeat 

e|---------------------------------------------------------------------------|
B|---------------------------------------------------------------------------|
G|---------------------------------------------------------------------------|
D|--9999999999-121212121212-5555555555555555555----10101010101010------------|
A|--9999999999-121212121212-5555555555555555555----10101010101010------------|
D|--9999999999-121212121212-5555555555555555555----10101010101010------------|

  Across the...hear you on...A scream ...         ..the dead..
e|---------------------------------------------------------------------------|
B|---------------------------------------------------------------------------|
G|---------------------------------------------------------------------------|
D|--9999999999-121212121212---5-5-5---5-5-5---10101010101010-----------------|
A|--9999999999-121212121212---5-5-5---5-5-5---10101010101010-----------------|
D|--9999999999-121212121212---5-5-5---5-5-5---10101010101010-----------------|
   All alone... tickets for..wake.the.dead  wake the dead.....
e|---------------------------------------------------------------------------|
B|---------------------------------------------------------------------------|
G|---------------------------------------------------------------------------|
D|---------------------------------------------------------------------------|
A|---------------------------------------------------------------------------|
D|-----/9h12--12p11--11h12-12-/14---9h12--12p11-11--0-0----------------------|

e|---------------------------------------------------------------------------|
B|---------------------------------------------------------------------------|
G|---------------------------------------------------------------------------|
D|---------------------------------------------------------------------------|
A|---------------------------------------------------------------------------|
D|-----/9h12--12p11--11h12-12-/14---9h12--12p11-11--0-0----------------------|


e|---------------------------------------------------------------------------|
B|---------------------------------------------------------------------------|
G|---------------------------------------------------------------------------|
D|---------------------------------------------------------------------------|
A|---------------------------------------------------------------------------|
D|---------------------------------------------------------------------------|

e|---------------------------------------------------------------------------|
B|---------------------------------------------------------------------------|
G|---------------------------------------------------------------------------|
D|-9-9-----------------------------------------------------------------------|
A|-9-9-----------------------------------------------------------------------|
D|-9-9--0-9-9-12-12-11-11-14---0-9-9-12-12-11-11-0-0---0-9-9-12-12-11-11-14--|
        . . . .  .  .  .  .    . . .  .  .  .  . . .   . . .  .  .  .  . .

..used to be
e|---------------------------------------------------------------------------|
B|---------------------------------------------------------------------------|
G|---------------------------------------------------------------------------|
D|-------------------------------5-5-5---5-5-5-------------------------------|
A|-------------------------------5-5-5---5-5-5-------------------------------|
D|--/9h12--12p11--11h12-12-/14---5-5-5---5-5-5-------------------------------|

... be yeahhh...              ..with no heartbeat...
e|---------------------------------------------------------------------------|
B|---------------------------------------------------------------------------|
G|---------------------------------------------------------------------------|
D|--9999999999-121212121212-5555555555555555555----10101010101010------------|
A|--9999999999-121212121212-5555555555555555555----10101010101010------------|
D|--9999999999-121212121212-5555555555555555555----10101010101010------------|

e|---------------------------------------------------------------------------|
B|---------------------------------------------------------------------------|
G|---------------------------------------------------------------------------|
D|--9999999999-121212121212---5-5-5---5-5-5---4~-----------------------------|
A|--9999999999-121212121212---5-5-5---5-5-5---4~-----------------------------|
D|--9999999999-121212121212---5-5-5---5-5-5---4~-----------------------------|

(1:49)
e|---------------------------------------------------------------------------|
B|----------------------alternate-picking-fast-------------------------------|
G|---------------------------------------------------------------------------|
D|-17171717171717-16161616161616-202020202020-21212121212121-----------------|
A|---------------------------------------------------------------------------|
D|---------------------------------------------------------------------------|

(1:55)
e|---------------------------------------------------------------------------|
B|---------------------------------------------------------------------------|
G|---------------------------------------------------------------------------|
D|-2323232323232323--2020202020202020---212121212121212212121----------------|
A|---------------------------------------------------------------------------|
D|---------------------------------------------------------------------------|

(2:00)
e|---------------------------------------------------------------------------|
B|---------------------------------------------------------------------------|
G|---------------------------------------------------------------------------|
D|-1818181818181818--2020202020202020---16161616161616-161616-181818-202020--|
A|---------------------------------------------------------------------------|
D|---------------------------------------------------------------------------|

e|---------------------------------------------------------------------------|
B|---REPEAT-ABOVE-3-TIMES-BUT-END-WITH-BELOW-ON-3RD-V-V----------------------|
G|---------------------------------------------------------------------------|
D|-----------------------------------------------5-5-5-5-5-5-5-5-4-4-4-4-4-4-|
A|-----------------------------------------------5-5-5-5-5-5-5-5-4-4-4-4-4-4-|
D|-----------------------------------------------5-5-5-5-5-5-5-5-4-4-4-4-4-4-|
                                                 . . . . . . . . . . . . . . 
                                                    Well darling tonight
e|---------------------------------------------------------------------------|
B|---------------------------------------------------------------------------|
G|---------------------------------------------------------------------------|
D|-5-55-5-4---55--4---5-55-5---55-55--x-xx---5-55-5-4--55-5-4-xx-------------|
A|-5-55-5-4---55--4---5-55-5---55-55--x-xx---5-55-5-4--55-5-4-xx-------------|
D|-5-55-5-4---55--4---5-55-5---55-55--x-xx---5-55-5-4--55-5-4-xx-------------|

e|---------------------------------------------------------------------------|
B|---------------------------------------------------------------------------|
G|---------------------------------------------------------------------------|
D|-55-5-4-xx--5-4--55555555-\------------------------------------------------|
A|-55-5-4-xx--5-4--55555555-\------------------------------------------------|
D|-55-5-4-xx--5-4--55555555-\------------------------------------------------|


e|---------------------------------------------------------------------------|
B|---------------------------------------------------------------------------|
G|---------------------------------------------------------------------------|
D|--9999999999-121212121212-5555555555555555555----10101010101010------------|
A|--9999999999-121212121212-5555555555555555555----10101010101010------------|
D|--9999999999-121212121212-5555555555555555555----10101010101010------------|

e|---------------------------------------------------------------------------|
B|---------------------------------------------------------------------------|
G|---------------------------------------------------------------------------|
D|--9999999999-121212121212---5-5-5---5-5-5----------------------------------|
A|--9999999999-121212121212---5-5-5---5-5-5----------------------------------|
D|--9999999999-121212121212---5-5-5---5-5-5--------\\\pickscrape\\\----------|

e|---------------------------------------------------------------------------|
B|---------------------------------------------------------------------------|
G|---------------------------------------------------------------------------|
D|--9999999999-121212121212-5555555555555555555----5-5-5---------------------|
A|--9999999999-121212121212-5555555555555555555----5-5-5---------------------|
D|--9999999999-121212121212-5555555555555555555----5-5-5---------------------|
                                                   . . .

e|---------------------------------------------------------------------------|
B|---------------------------------------------------------------------------|
G|---------------------------------------------------------------------------|
D|--9999999999-121212121212---5-5-5---5-5-5-----5-5-5------------------------|
A|--9999999999-121212121212---5-5-5---5-5-5-----5-5-5------------------------|
D|--9999999999-121212121212---5-5-5---5-5-5-----5-5-5------------------------|

e|---------------------------------------------------------------------------|
B|---------------------------------------------------------------------------|
G|---------------------------------------------------------------------------|
D|---------------------------------------------------------------------------|
A|---------------------------------------------------------------------------|
D|-----/9h12--12p11--11h12-12-/14---9h12--12p11-11--0-0----------------------|

e|---------------------------------------------------------------------------|
B|---------------------------------------------------------------------------|
G|---------------------------------------------------------------------------|
D|---------------------------------------------------------------------------|
A|---------------------------------------------------------------------------|
D|-----/9h12--12p11--11h12-12-/14---9h12--12p11-11--0-0----------------------|

e|---------------------------------------------------------------------------|
B|---------------------------------------------------------------------------|
G|---------------------------------------------------------------------------|
D|---------------------------------------------------------------------------|
A|---------------------------------------------------------------------------|
D|-----/9h12--12p11--11h12-12-/14---9h12--12p11-11--0-0----------------------|

e|---------------------------------------------------------------------------|
B|---------------------------------------------------------------------------|
G|---------------------------------------------------------------------------|
D|--------------------------------------------------0-0----------------------|
A|--------------------------------------------------0-0----------------------|
D|-----/9h12--12p11--11h12-12-/14---9h12--12p11-11--0-0----------------------|

Song:Find a Way
Album:Lies for the Liars
Artist:The Used
Date Tabbed:May,2006
Guitar Tabber:Ryan Manongdo/17/m/Montalban Rizal
              no_falter0x@yahoo.com(Friendster&YM)
              
For your questions or suggestions,just post in friendster comment,PM or mail me.

Gtr.Legends:
~ - let it ring
x - dead string
h - hammer-on

Gtr.Tuning:Drop D(Alternative)

Intro:
Gtr.1(11-13)
e|----------------------|
B|----------------------|
G|-111111111------------| 2x
D|-----------13131313---|
A|----------------------|
D|----------------------|

Gtr.2
e|------11------0----0-----------0-----------0------|
B|---12----12-----12---12-----12---12-----12---12---|
G|-11-----------------------------------------------| 2x
D|-------------------------13----------13-----------|
A|--------------------------------------------------|
D|--------------------------------------------------|

Verse 1:Lay your head...
e|------------7-0~----------7------------7-0~----7--11~---|
B|--------------------------------------------------------|
G|-------8-9---------8~------------8-9--------8-----------|
D|--------------------------------------------------------|
A|--------------------------------------------------------|
D|--------------------------------------------------------|

Chorus:One more time to say...
e|-----0~---|
B|---4------|
G|-4--------| 4x
D|----------|
A|----------|
D|----------|

Repeat Intro:

Verse 2:Move let the...
e|------------111111-14---1111-12-14-14~-----------------11111-14---1111-12-14-14~----7----7---|
B|---------------------------------------------0~----------------------------------------------|
G|-----------------------------------------6-4-------------------------------------8h9--8h9----|
D|---------------------------------------------------------------------------------------------|
A|---------------------------------------------------------------------------------------------|
D|---------------------------------------------------------------------------------------------|

Chorus:
Gtr.1
e|-----7~---|
B|----------|
G|-8-9------| 8x
D|----------|
A|----------|
D|----------|

Gtr.2 Enters(5th round of gtr.1)
e|-0---0---0---0-------------------------|
B|---12--12--12--12-----12----12----12---|
G|---------------------------------------| 4x
D|-------------------13----13----13------|
A|---------------------------------------|
D|---------------------------------------|


Bridge:I love you to...
Gtr.1
e|-------------|
B|-------------|
G|-------------| 4x
D|-6666-2222---|
A|-6666-2222---|
D|-6666-2222---|

Outro Chorus:
Gtr.1
e|-------------|
B|-------------|
G|-8888-9999---| 8x
D|-xxxx-xxxx---|
A|-6666-7777---|
D|-------------|

Gtr.2 Enters
e|-11----14---|
B|----12------|
G|------------| 3x
D|------------|
A|------------|
D|------------|

Repeat Intro

e|-------|
B|-------|
G|-11~---|
D|--9~---|
A|-------|
D|-------|

End...


Find A Way Lyrics:

Verse 1
Lay your head down just for now
Space fills your mind you dream awhile
The sun floods your room as you drown your
Lungs full of breathing
Your true love believe

Chorus:
One more time to say I love you always
and keeping faith letting love find a way

Verse 2
Move let the stars suck you in
Hold tight, the night's air and breathe again
Let go and be burnt by the moon
Your hands full of feeling your true love, Believe

Repeat Chorus(2x)

Bridge:
I love you to death
Could you love me to death

Repeat Chorus

Song Title: Liar, Liar (Burn In Hell)
Artist: The Used
Album: Lies For The Liars

Ins.:
	Gtr 1 – Quinn Allman (lead)
	Gtr 2 – Quinn Allman (rhythm)

Tuning: Standard


I. INTRO

(AMBULANCE SIGNAL)

Gtr 1
e|-----------------------------------|4x
B|-----------------------------------|
G|--13----13-------12-12-11-12-------|
D|-----14----14~~--------------14~~--|
A|-----------------------------------|
E|-----------------------------------|
Gtr 2
e|-----------------------------------|3x
B|-----------------------------------|
G|--6-6-6-6-6-6-6-6-6-6-6-6-6-6-6-6--|
D|--6-6-6-6-6-6-6-6-6-6-6-6-6-6-6-6--|
A|--4-4-4-4-4-4-4-4-4-4-4-4-4-4-4-4--|
E|-----------------------------------|
(continued)
e|-----------------------------------|
B|-----------------------------------|
G|--6-6-6-6-6-6-6-6---6-6-6-6-6-6----|
D|--6-6-6-6-6-6-6-6---6-6-6-6-6-6----|
A|--4-4-4-4-4-4-4-4---4-4-4-4-4-4----|
E|-----------------------------------|



Gtr 1
e|-----------------------------------|-----------------------------------|
B|-----------------------------------|-----------------------------------|
G|--13----13-------12-12-11-12-------|--13----13-------12-12-11-12-------|
D|-----14----14~~--------------14~~--|-----14----14~~--------------14~~--|
A|-----------------------------------|-----------------------------------|
E|-----------------------------------|-----------------------------------|
Gtr 2
e|-----------------------------------|-----------------------------------|
B|-----------------------------------|-----------------------------------|
G|--6-6-6-6-6-6-6-6-6----------------|--6-6-6-6-6-6-6-6-6----------------|
D|--6-6-6-6-6-6-6-6-6-7-7-7-7-4-4-4--|--6-6-6-6-6-6-6-6-6-7-7-7-7-4-4-4--|
A|--4-4-4-4-4-4-4-4-4-7-7-7-7-4-4-4--|--4-4-4-4-4-4-4-4-4-7-7-7-7-4-4-4--|
E|--------------------5-5-5-5-2-2-2--|--------------------5-5-5-5-2-2-2--|

Gtr 1
e|-----------------------------------|------------------------------------|
B|-----------------------------------|------------------------------------|
G|--13----13-------12-12-11-12-9-15--|--1515151515151515--14141414141414--|
D|-----14----14~~--------------------|------------------------------------|
A|-----------------------------------|------------------------------------|
E|-----------------------------------|------------------------------------|
Gtr 2
e|-----------------------------------|-----------------------------------|
B|-----------------------------------|-----------------------------------|
G|--6-6-6-6-6-6-6-6-6----------------|-----------------------------------|
D|--6-6-6-6-6-6-6-6-6-7-7-7-7-4-4-4--|--4-4-4-4-4-4-4-4---7-7-7-7-7-7-7--|
A|--4-4-4-4-4-4-4-4-4-7-7-7-7-4-4-4--|--4-4-4-4-4-4-4-4---7-7-7-7-7-7-7--|
E|--------------------5-5-5-5-2-2-2--|--2-2-2-2-2-2-2-2---5-5-5-5-5-5-5--|



II. VERSE 1

Gtr 1
e|-----------------------------------|-----------------------------------|
B|-----------------------------------|-----------------------------------|
G|-----------------------------------|-----------------------------------|
D|--6-6-6-6-6-6-6-6-6-6-6-6-6-6-6-6--|--6-6-6-6-6-6-6-6-6-6-6-6-6-6-6-6--|
A|--4-4-4-4-4-4-4-4-4-4-4-4-4-4-4-4--|--4-4-4-4-4-4-4-4-4-4-4-4-4-4-4-4--|
E|-----------------------------------|-----------------------------------|
PM| . . . . . . . . . . . . . . . .  |  . . . . . . . . . . . . . . . .  |
(continued)
e|-----------------------------------|-----------------------------------|
B|-----------------------------------|-----------------------------------|
G|-----------------------------------|-----------------------------------|
D|-----------------------------------|--6-6-6-6-6-6-6-6-6-6-6-6-6-6-6-6--|
A|--7-7-7-7-7-7-7-7-4-4-4-4-4-4-4-4--|--4-4-4-4-4-4-4-4-4-4-4-4-4-4-4-4--|
E|--5-5-5-5-5-5-5-5-2-2-2-2-2-2-2-2--|-----------------------------------|
PM| . . . . . . . . . . . . . . . .  |  . . . . . . . . . . . . . . . .  |
(continued)
e|-----------------------------------|
B|-----------------------------------|
G|--------------------------6-6-6-6--|
D|--6-6-6-6-6-6-6-6-6-6-6-6-6-6-6-6--|
A|--4-4-4-4-4-4-4-4-4-4-4-4-4-4-4-4--|
E|-----------------------------------|
PM| . . . . . . . . . . . .          |



III. PRE - CHORUS

Gtr 1
e|-----------------------------------|-----------------------------------|
B|-----------------------------------|-----------------------------------|
G|-----------------------------------|--4-4-4-4-4-4-4-4-4~~-------5-5-5--|
D|--7-7-7-7-7-7-7-7-7-7-7-7-7-7-7-7--|--4-4-4-4-4-4-4-4-4~~-------x-x-x--|
A|--7-7-7-7-7-7-7-7-7-7-7-7-7-7-7-7--|--2-2-2-2-2-2-2-2-2~~-------3-3-3--|
E|--5-5-5-5-5-5-5-5-5-5-5-5-5-5-5-5--|-----------------------------------|



IV. CHORUS

Gtr 1 (or both guitars)
e|-----------------------------------|-----------------------------------|2x
B|-----------------------------------|-----------------------------------|
G|--6-6-6-6-6-6-6-6-6----------------|--------------------5-5-5-5-5-5-5--|
D|--6-6-6-6-6-6-6-6-6-7-7-7-7-7-7-7--|--2-2-2-2-2-2-2-2-2-5-5-5-5-5-5-5--|
A|--4-4-4-4-4-4-4-4-4-7-7-7-7-7-7-7--|--2-2-2-2-2-2-2-2-2-3-3-3-3-3-3-3--|
E|--------------------5-5-5-5-5-5-5--|--0-0-0-0-0-0-0-0-0----------------|



V. POST - CHORUS

Gtr 1
e|-----------------------------------|2x
B|-----------------------------------|
G|--13----13-------12-12-11-12-------|
D|-----14----14~~--------------14~~--|
A|-----------------------------------|
E|-----------------------------------|
Gtr 2
e|-----------------------------------|-----------------------------------|
B|-----------------------------------|-----------------------------------|
G|--6-6-6-6-6-6-6-6-6-6-6-6-6-6-6-6--|--6-6-6-6-6-6-6-6---6-6-6-6-6-6----|
D|--6-6-6-6-6-6-6-6-6-6-6-6-6-6-6-6--|--6-6-6-6-6-6-6-6---6-6-6-6-6-6----|
A|--4-4-4-4-4-4-4-4-4-4-4-4-4-4-4-4--|--4-4-4-4-4-4-4-4---4-4-4-4-4-4----|
E|-----------------------------------|-----------------------------------|



VI. VERSE 2

Here, I don’t think there’s a guitar playing on the first part (not sure),
I think guitars start when he sings, “You will burn in hell, they say...”:

(REPEAT PRE - CHORUS)
(REPEAT CHORUS)



VII. BRIDGE

I’m not quite sure on this part.

Gtr 1
e|------4x------|-----------------------------------------------------------|
B|--------------|-----------------------------------------------------------|
G|---------6~~--|-----------------------------------------------------------|
D|---------6~~--|--7-7-7-7-7-7-7-7-7-7-7-7-7-7-7-7-7-7-7-7-7-7-7-7-7-7-7-7--|
A|--2-4-4--4~~--|--7-7-7-7-7-7-7-7-7-7-7-7-7-7-7-7-7-7-7-7-7-7-7-7-7-7-7-7--|
E|--------------|--5-5-5-5-5-5-5-5-5-5-5-5-5-5-5-5-5-5-5-5-5-5-5-5-5-5-5-5--|
(continued)
e|------3x------|-----------------------|
B|--------------|-----------------------|
G|---------6~~--|-----------------------|
D|---------6~~--|----6-6-6-6-6-6-6-6-6--|
A|--2-4-4--4~~--|--2-4-4-4-4-4-4-4-4-4--|
E|--------------|-----------------------|

Gtr 2
e|------4x------|-----------------------------------------------------------|
B|--------------|-----------------------------------------------------------|
G|--4-6----6~~--|-----------------------------------------------------------|
D|--x-x----x----|--7-7-7-7-7-7-7-7-7-7-7-7-7-7-7-7-7-7-7-7-7-7-7-7-7-7-7-7--|
A|--2-4----4~~--|--7-7-7-7-7-7-7-7-7-7-7-7-7-7-7-7-7-7-7-7-7-7-7-7-7-7-7-7--|
E|--------------|--5-5-5-5-5-5-5-5-5-5-5-5-5-5-5-5-5-5-5-5-5-5-5-5-5-5-5-5--|
(continued)
e|------3x------|-----------------------|
B|--------------|-----------------------|
G|---------6~~--|-----------------------|
D|---------6~~--|----6-6-6-6-6-6-6-6-6--|
A|--2-4-4--4~~--|--2-4-4-4-4-4-4-4-4-4--|
E|--------------|-----------------------|

(REPEAT PRE - CHORUS, palm muted)
(REPEAT CHORUS 2x)



VIII. OUTRO

Gtr 1
e|-----------------------------------|4x
B|-----------------------------------|
G|--13----13-------12-12-11-12-------|
D|-----14----14~~--------------14~~--|
A|-----------------------------------|
E|-----------------------------------|
Gtr 2
e|-----------------------------------|3x
B|-----------------------------------|
G|--6-6-6-6-6-6-6-6-6-6-6-6-6-6-6-6--|
D|--6-6-6-6-6-6-6-6-6-6-6-6-6-6-6-6--|
A|--4-4-4-4-4-4-4-4-4-4-4-4-4-4-4-4--|
E|-----------------------------------|
(continued)
e|-----------------------------------|
B|-----------------------------------|
G|--6-6-6-6-6-6-6-6---6-6-6-6-6-6----|
D|--6-6-6-6-6-6-6-6---6-6-6-6-6-6----|
A|--4-4-4-4-4-4-4-4---4-4-4-4-4-4----|
E|-----------------------------------|


End on:
Both guitars
e|-------|
B|-------|
G|--6~~--|
D|--6~~--|
A|--4~~--|
E|-------|
Credit:f1f2
Song Title: Smother Me
Artist: The Used
Album: Lies For The Liars


Ins.:
	Piano 1 – Bert McCracken
	Piano 2 – Bert McCracken
	Gtr 1 – Quinn Allman


Tuning: Dropped D Tuning (eBGDAD)


I. INTRO

Piano 1
e|--------------------------------------------------------------------------|
B|-----5--5-----5--5-----5--5-----5--5-----5--5-----5--5-----5--5-----5--5--|
G|-----5--5-----5--5-----5--5-----5--5-----5--5-----5--5-----5--5-----5--5--|
D|--------------------------------------5--------5--------5--------5--------|
A|--3--------3--------3--------3--------3--------3--------3--------3--------|
D|--3--------3--------3--------3--------------------------------------------|
(continued)
e|-------------------------------------------------------------|
B|-----5--5-----5--5-----5--5-----5--5-----5--5-----5--5-------|
G|-----5--5-----5--5-----5--5-----5--5-----5--5-----5--5-------|
D|--------------------------------------5--------5--------5~~--|
A|--3--------3--------3--------3--------3--------3--------3~~--|
D|--3--------3--------3--------3-------------------------------|



II. VERSE 1

Piano 1
e|--------------------------------------------------------------------------|4x
B|-----5--5-----5--5-----5--5-----5--5-----5--5-----5--5-----5--5-----5--5--|
G|-----5--5-----5--5-----5--5-----5--5-----5--5-----5--5-----5--5-----5--5--|
D|--------------------------------------5--------5--------5--------5--------|
A|--3--------3--------3--------3--------3--------3--------3--------3--------|
D|--3--------3--------3--------3--------------------------------------------|



III. REFRAIN 1

Piano 1
e|----------0----------------|----------0--------|
B|------------3-------3-5----|------------3------|
G|--------2---------------5--|--------2----------|
D|------3-----------5--------|------3------------|
A|--3-3---------5-5----------|--3-3---------5~~--|
D|--3-----------5------------|--3-----------5~~--|



IV. CHORUS 1

Piano 1
e|---------------------------|---------------------------|2x
B|----------5---------3------|--------1---------3--------|
G|------5-----5---------4----|------2---2---------3-2-3--|
D|--5-5---5---------5-----5--|--2-2-------2---3----------|
A|--3-----------5-5----------|--0-----------1------------|
D|--------------5------------|---------------------------|



V. POST – CHORUS

Piano 1
e|--12-13-12-----|--------------------8-10-8~~--|
B|-----------13--|--10-8-10-8-10-8-10-----------|
G|---------------|------------------------------|
D|---------------|------------------------------|
A|---------------|------------------------------|
D|---------------|------------------------------|
(continued)
e|--12-13-12-----|------------------------------|
B|-----------13--|--10-8-10-8-10-8-10-8-10------|
G|---------------|-------------------------9~~--|
D|---------------|------------------------------|
A|---------------|------------------------------|
D|---------------|------------------------------|

Piano 2
(Starts on the second bar of Gtr 1)
e|--------------------------------------------------------------------------|
B|-----5--5-----5--5-----5--5-----5--5-----5--5-----5--5-----5--5-----5--5--|
G|-----5--5-----5--5-----5--5-----5--5-----5--5-----5--5-----5--5-----5--5--|
D|--------------------------------------5--------5--------5--------5--------|
A|--3--------3--------3--------3--------3--------3--------3--------3--------|
D|--3--------3--------3--------3--------------------------------------------|
(continued)
e|-------------------------------------------------------------|
B|-----5--5-----5--5-----5--5-----5--5-----5--5-----5--5-------|
G|-----5--5-----5--5-----5--5-----5--5-----5--5-----5--5-------|
D|--------------------------------------5--------5--------5~~--|
A|--3--------3--------3--------3--------3--------3--------3~~--|
D|--3--------3--------3--------3-------------------------------|



VI. VERSE 2

Piano 1
e|--------------------------------------------------------------------------|4x
B|-----5--5-----5--5-----5--5-----5--5-----5--5-----5--5-----5--5-----5--5--|
G|-----5--5-----5--5-----5--5-----5--5-----5--5-----5--5-----5--5-----5--5--|
D|--------------------------------------5--------5--------5--------5--------|
A|--3--------3--------3--------3--------3--------3--------3--------3--------|
D|--3--------3--------3--------3--------------------------------------------|

Gtr 1
(Figure correct timing.)
e|-----12-13-12--------12-13-12~~-13-12-13-------|2x
B|--13-----------13-15---------------------13~~--|
G|-----------------------------------------------|
D|-----------------------------------------------|
A|-----------------------------------------------|
D|-----------------------------------------------|
(continued)
e|--13-12----------13-12----12-------------12-13-12-------12-13-12-----|
B|--------13-10~~--------13----15-13~~--13----------13~~-----------13--|
G|---------------------------------------------------------------------|
D|---------------------------------------------------------------------|
A|---------------------------------------------------------------------|
D|---------------------------------------------------------------------|
(continued)
e|-----12-13-12--------12-13-12~~-13-12-13-------|
B|--13-----------13-15---------------------13~~--|
G|-----------------------------------------------|
D|-----------------------------------------------|
A|-----------------------------------------------|
D|-----------------------------------------------|



VII. REFRAIN 2

Piano 1
e|----------0----------------|----------0--------|
B|------------3-------3-5----|------------3------|
G|--------2---------------5--|--------2----------|
D|------3-----------5--------|------3------------|
A|--3-3---------5-5----------|--3-3---------5~~--|
D|--3-----------5------------|--3-----------5~~--|

Gtr 1
e|----------0----------------|----------0--------|
B|------------3-------3-5-3--|------------1-3~~--|
G|--------2------------------|--------2----------|
D|------3-----------5--------|------3------------|
A|----3-----------5----------|----3--------------|
D|--3-----------5------------|--3----------------|



VIII. CHORUS 2

Piano 1
e|---------------------------|---------------------------|2x
B|----------5---------3------|--------1---------3--------|
G|------5-----5---------4----|------2---2---------3-2-3--|
D|--5-5---5---------5-----5--|--2-2-------2---3----------|
A|--3-----------5-5----------|--0-----------1------------|
D|--------------5------------|---------------------------|

Gtr 1
(Just strum/pluck these chords.)
e|--C-----------G------------|--Am----------Bb-----------|2x
B|--5~~----------------------|--1~~---------3~~----------|
G|--5~~---------4~~----------|--2~~---------3~~----------|
D|--5~~---------5~~----------|--2~~---------3~~----------|
A|--3~~---------5~~----------|--0~~---------1~~----------|
D|--------------5~~----------|---------------------------|



IX. BRIDGE
(Just pluck/strum these chords.)

Piano 1/Gtr 1
e|--Dm-----Repeat 2x--------Am---|-------------------|
B|--6~~---------F-----------1~~--|--G-----------G----|
G|--7~~--------(2)~---------2~~--|--4~~---------4~~--|
D|--7~~---------3~~---------2~~--|--5~~---------5~~--|
A|--5~~---------3~~---------0~~--|--5~~---------5~~--|
D|--------------3~~--------------|--5~~---------5~~--|

[Repeat CHORUS 2 2x]


X. OUTRO

Piano 1
e|--12-13-12----------------------8-10-8~~--|
B|-----------13-10-8-10-8-10-8-10-----------|
G|------------------------------------------|
D|------------------------------------------|
A|------------------------------------------|
D|------------------------------------------|
(continued)
e|--12-13-12--------------------------------|
B|-----------13-10-8-10-8-10-8-10-8-10------|
G|-------------------------------------9~~--|
D|------------------------------------------|
A|------------------------------------------|
D|------------------------------------------|
(continued)
e|--12-13-12----------------------8~~--|
B|-----------13-10-8-10-8-10-8-10------|
G|-------------------------------------|
D|-------------------------------------|
A|-------------------------------------|
D|-------------------------------------|

Gtr 1
e|--------------------------------------------------------------------------|2x
B|-----5--5-----5--5-----5--5-----5--5-----5--5-----5--5-----5--5-----5--5--|
G|-----5--5-----5--5-----5--5-----5--5-----5--5-----5--5-----5--5-----5--5--|
D|--------------------------------------5--------5--------5--------5--------|
A|--3--------3--------3--------3--------3--------3--------3--------3--------|
D|--3--------3--------3--------3--------------------------------------------|
(continued)
e|-------------------------------------------|
B|-----5--5-----5--5-----5--5-----5--5-------|
G|-----5--5-----5--5-----5--5-----5--5-------|
D|--------------------------------------5~~--|
A|--3--------3--------3--------3--------3~~--|
D|--3--------3--------3--------3-------------|
Credit:f1f2

| /  slide up
| \  slide down
| h  hammer-on
| p  pull-off
| ~  vibrato
| +  harmonic
| x  Mute note

WOW that took all of 20 minutes, it’s not perfect, and I didn’t tab any of it, but I
credited all the people whose tabs it is! It’s a great album.

comments
print report bad tab
4 comments total. Showing first comments.
0 reply
shugo449 wrote on June 30 2007, 09:13 am

pretty crazy 5*

0 reply
conefan88 wrote on August 4 2007, 09:43 pm

all songs by the used are in drop d. some of the tabs here are in standard tuning.

0 reply
LoveMCR wrote on August 29 2007, 10:27 pm

no. there's some songs they do that are in standard tuning.

I want to post or [tab]
guest
You may want to rate the tab now too:
select rating
Please do not post tabs as comments. Select "correction" instead!